  0
SECTION
  2
HEADER
  9
$ACADVER
  1
AC1015
  9
$ACADMAINTVER
 70
               6
  9
$DWGCODEPAGE
  3
ANSI_1252
  9
$INSBASE
 10
0.0
 20
0.0
 30
0.0
  9
$EXTMIN
 10
-21.362499999999997
 20
-21.362499999999997
 30
-1.3546666666666665
  9
$EXTMAX
 10
21.7425
 20
21.362499999999997
 30
1.3546666666666665
  9
$LIMMIN
 10
0.0
 20
0.0
  9
$LIMMAX
 10
0.0
 20
0.0
  9
$ORTHOMODE
 70
               0
  9
$REGENMODE
 70
               1
  9
$FILLMODE
 70
               1
  9
$QTEXTMODE
 70
               0
  9
$MIRRTEXT
 70
               1
  9
$LTSCALE
 40
5.0800000000000001
  9
$ATTMODE
 70
               1
  9
$TEXTSIZE
 40
0.2
  9
$TRACEWID
 40
1.0
  9
$TEXTSTYLE
  7
Standard
  9
$CLAYER
  8
None
  9
$CELTYPE
  6
Continuous
  9
$CECOLOR
 62
             256
  9
$CELTSCALE
 40
1.0
  9
$DISPSILH
 70
               0
  9
$DIMSCALE
 40
1.0
  9
$DIMASZ
 40
0.18
  9
$DIMEXO
 40
0.0625
  9
$DIMDLI
 40
0.38
  9
$DIMRND
 40
0.0
  9
$DIMDLE
 40
0.0
  9
$DIMEXE
 40
0.18
  9
$DIMTP
 40
0.0
  9
$DIMTM
 40
0.0
  9
$DIMTXT
 40
0.18
  9
$DIMCEN
 40
0.09
  9
$DIMTSZ
 40
0.0
  9
$DIMTOL
 70
               0
  9
$DIMLIM
 70
               0
  9
$DIMTIH
 70
               1
  9
$DIMTOH
 70
               1
  9
$DIMSE1
 70
               0
  9
$DIMSE2
 70
               0
  9
$DIMTAD
 70
               0
  9
$DIMZIN
 70
               0
  9
$DIMBLK
  1

  9
$DIMASO
 70
               1
  9
$DIMSHO
 70
               1
  9
$DIMPOST
  1

  9
$DIMAPOST
  1

  9
$DIMALT
 70
               0
  9
$DIMALTD
 70
               2
  9
$DIMALTF
 40
25.399999999999999
  9
$DIMLFAC
 40
1.0
  9
$DIMTOFL
 70
               0
  9
$DIMTVP
 40
0.0
  9
$DIMTIX
 70
               0
  9
$DIMSOXD
 70
               0
  9
$DIMSAH
 70
               0
  9
$DIMBLK1
  1

  9
$DIMBLK2
  1

  9
$DIMSTYLE
  2
Standard
  9
$DIMCLRD
 70
               0
  9
$DIMCLRE
 70
               0
  9
$DIMCLRT
 70
               0
  9
$DIMTFAC
 40
1.0
  9
$DIMGAP
 40
0.09
  9
$DIMJUST
 70
               0
  9
$DIMSD1
 70
               0
  9
$DIMSD2
 70
               0
  9
$DIMTOLJ
 70
               1
  9
$DIMTZIN
 70
               0
  9
$DIMALTZ
 70
               0
  9
$DIMALTTZ
 70
               0
  9
$DIMUPT
 70
               0
  9
$DIMDEC
 70
               4
  9
$DIMTDEC
 70
               4
  9
$DIMALTU
 70
               2
  9
$DIMALTTD
 70
               2
  9
$DIMTXSTY
  7
Standard
  9
$DIMAUNIT
 70
               0
  9
$DIMADEC
 70
               0
  9
$DIMALTRND
 40
0.0
  9
$DIMAZIN
 70
               0
  9
$DIMDSEP
 70
               0
  9
$DIMATFIT
 70
               3
  9
$DIMFRAC
 70
               0
  9
$DIMLDRBLK
  1

  9
$DIMLUNIT
 70
               2
  9
$DIMLWD
 70
               0
  9
$DIMLWE
 70
               0
  9
$DIMTMOVE
 70
               0
  9
$LUNITS
 70
               2
  9
$LUPREC
 70
               4
  9
$SKETCHINC
 40
0.1
  9
$FILLETRAD
 40
0.0
  9
$AUNITS
 70
               0
  9
$AUPREC
 70
               0
  9
$MENU
  1
acad
  9
$ELEVATION
 40
0.0
  9
$PELEVATION
 40
0.0
  9
$THICKNESS
 40
0.0
  9
$LIMCHECK
 70
               0
  9
$CHAMFERA
 40
0.0
  9
$CHAMFERB
 40
0.0
  9
$CHAMFERC
 40
0.0
  9
$CHAMFERD
 40
0.0
  9
$SKPOLY
 70
               0
  9
$TDCREATE
 40
2456408.655474537
  9
$TDUCREATE
 40
0.000000000
  9
$TDUPDATE
 40
2456408.655474537
  9
$TDUUPDATE
 40
0.000000000
  9
$TDINDWG
 40
0.0000000000
  9
$TDUSRTIMER
 40
0.0000000000
  9
$USRTIMER
 70
               1
  9
$ANGBASE
 50
0.0
  9
$ANGDIR
 70
               0
  9
$PDMODE
 70
               1
  9
$PDSIZE
 40
-2.0
  9
$PLINEWID
 40
0.0
  9
$SPLFRAME
 70
               0
  9
$SPLINETYPE
 70
               6
  9
$SPLINESEGS
 70
               8
  9
$HANDSEED
  5
557
  9
$SURFTAB1
 70
               6
  9
$SURFTAB2
 70
               6
  9
$SURFTYPE
 70
               6
  9
$SURFU
 70
               6
  9
$SURFV
 70
               6
  9
$UCSBASE
  2

  9
$UCSNAME
  2

  9
$UCSORG
 10
0.0
 20
0.0
 30
0.0
  9
$UCSXDIR
 10
1.0
 20
0.0
 30
0.0
  9
$UCSYDIR
 10
0.0
 20
1.0
 30
0.0
  9
$UCSORTHOREF
  2

  9
$UCSORTHOVIEW
 70
               0
  9
$UCSORGTOP
 10
0.0
 20
0.0
 30
0.0
  9
$UCSORGBOTTOM
 10
0.0
 20
0.0
 30
0.0
  9
$UCSORGLEFT
 10
0.0
 20
0.0
 30
0.0
  9
$UCSORGRIGHT
 10
0.0
 20
0.0
 30
0.0
  9
$UCSORGFRONT
 10
0.0
 20
0.0
 30
0.0
  9
$UCSORGBACK
 10
0.0
 20
0.0
 30
0.0
  9
$PUCSBASE
  2

  9
$PUCSNAME
  2

  9
$PUCSORG
 10
0.0
 20
0.0
 30
0.0
  9
$PUCSXDIR
 10
1.0
 20
0.0
 30
0.0
  9
$PUCSYDIR
 10
0.0
 20
1.0
 30
0.0
  9
$PUCSORTHOREF
  2

  9
$PUCSORTHOVIEW
 70
               0
  9
$PUCSORGTOP
 10
0.0
 20
0.0
 30
0.0
  9
$PUCSORGBOTTOM
 10
0.0
 20
0.0
 30
0.0
  9
$PUCSORGLEFT
 10
0.0
 20
0.0
 30
0.0
  9
$PUCSORGRIGHT
 10
0.0
 20
0.0
 30
0.0
  9
$PUCSORGFRONT
 10
0.0
 20
0.0
 30
0.0
  9
$PUCSORGBACK
 10
0.0
 20
0.0
 30
0.0
  9
$USERI1
 70
               0
  9
$USERI2
 70
               0
  9
$USERI3
 70
               0
  9
$USERI4
 70
               0
  9
$USERI5
 70
               0
  9
$USERR1
 40
0.0
  9
$USERR2
 40
0.0
  9
$USERR3
 40
0.0
  9
$USERR4
 40
0.0
  9
$USERR5
 40
0.0
  9
$WORLDVIEW
 70
               1
  9
$SHADEDGE
 70
               3
  9
$SHADEDIF
 70
              70
  9
$TILEMODE
 70
               1
  9
$MAXACTVP
 70
              64
  9
$PINSBASE
 10
0.0
 20
0.0
 30
0.0
  9
$PLIMCHECK
 70
               0
  9
$PEXTMIN
 10
1.0000000000000000E+20
 20
1.0000000000000000E+20
 30
1.0000000000000000E+20
  9
$PEXTMAX
 10
-1.0000000000000000E+20
 20
-1.0000000000000000E+20
 30
-1.0000000000000000E+20
  9
$PLIMMIN
 10
0.0
 20
0.0
  9
$PLIMMAX
 10
12.0
 20
9.0
  9
$UNITMODE
 70
               0
  9
$VISRETAIN
 70
               0
  9
$PLINEGEN
 70
               1
  9
$PSLTSCALE
 70
               0
  9
$TREEDEPTH
 70
            3020
  9
$CMLSTYLE
  2
Standard
  9
$CMLJUST
 70
               0
  9
$CMLSCALE
 40
1.0
  9
$PROXYGRAPHICS
 70
               0
  9
$MEASUREMENT
 70
               1
  9
$CELWEIGHT
370
               0
  9
$ENDCAPS
280
               0
  9
$JOINSTYLE
280
               0
  9
$LWDISPLAY
290
               1
  9
$INSUNITS
 70
               4
  9
$HYPERLINKBASE
  1

  9
$STYLESHEET
  1

  9
$XEDIT
290
               1
  9
$CEPSNTYPE
380
               0
  9
$PSTYLEMODE
290
               1
  9
$FINGERPRINTGUID
  2

  9
$VERSIONGUID
  2

  9
$EXTNAMES
290
               1
  9
$PSVPSCALE
 40
0.0
  0
ENDSEC
  0
SECTION
  2
CLASSES
  0
CLASS
  1
LWPOLYLINE
  2
AcDbPolyline
  3
AutoCAD 2000
 90
        0
280
               0
281
               1
  0
CLASS
  1
IMAGE
  2
AcDbRasterImage
  3
ISM
 90
      127
280
               0
281
               1
  0
CLASS
  1
OLE2FRAME
  2
AcDbOle2Frame
  3
AutoCAD 2000
 90
        0
280
               0
281
               1
  0
CLASS
  1
HATCH
  2
AcDbHatch
  3
AutoCAD 2000
 90
        0
280
               0
281
               1
  0
CLASS
  1
DICTIONARYVAR
  2
AcDbDictionaryVar
  3
AutoCAD 2000
 90
        0
280
               0
281
               0
  0
CLASS
  1
RASTERVARIABLES
  2
AcDbRasterVariables
  3
ISM
 90
        0
280
               0
281
               0
  0
CLASS
  1
IMAGEDEF
  2
AcDbRasterImageDef
  3
ISM
 90
        0
280
               0
281
               0
  0
CLASS
  1
IMAGEDEF_REACTOR
  2
AcDbRasterImageDefReactor
  3
ISM
 90
        1
280
               0
281
               0
  0
CLASS
  1
IDBUFFER
  2
AcDbIdBuffer
  3
AutoCAD 2000
 90
        0
280
               0
281
               0
  0
CLASS
  1
SPATIAL_FILTER
  2
AcDbSpatialFilter
  3
AutoCAD 2000
 90
        0
280
               0
281
               0
  0
CLASS
  1
XRECORD
  2
AcDbXrecord
  3
AutoCAD 2000
 90
        0
280
               0
281
               0
  0
CLASS
  1
SORTENTSTABLE
  2
AcDbSortentsTable
  3
AutoCAD 2000
 90
        0
280
               0
281
               0
  0
CLASS
  1
LAYER_INDEX
  2
AcDbLayerIndex
  3
AutoCAD 2000
 90
        0
280
               0
281
               0
  0
CLASS
  1
SPATIAL_INDEX
  2
AcDbSpatialIndex
  3
AutoCAD 2000
 90
        0
280
               0
281
               0
  0
CLASS
  1
OBJECT_PTR
  2
CAseDLPNTableRecord
  3
"ASE-LPNTableRecord"
 90
        1
280
               0
281
               0
  0
CLASS
  1
LAYOUT
  2
AcDbLayout
  3
AutoCAD 2000
 90
        0
280
               0
281
               0
  0
CLASS
  1
PLOTSETTINGS
  2
AcDbPlotSettings
  3
AutoCAD 2000
 90
        0
280
               0
281
               0
  0
CLASS
  1
ACDBDICTIONARYWDFLT
  2
AcDbDictionaryWithDefault
  3
AutoCAD 2000
 90
        0
280
               0
281
               0
  0
CLASS
  1
ACDBPLACEHOLDER
  2
AcDbPlaceHolder
  3
AutoCAD 2000
 90
        0
280
               0
281
               0
  0
ENDSEC
  0
SECTION
  2
TABLES
  0
TABLE
  2
VPORT
  5
7
100
AcDbSymbolTable
 70
               1
  0
VPORT
  5
15
100
AcDbSymbolTableRecord
100
AcDbViewportTableRecord
  2
*ACTIVE
 70
               0
 10
0.0
 20
0.0
 11
1.0
 21
1.0
 12
0.1900000000000013
 22
0.0
 13
0.0
 23
0.0
 14
1.0
 24
1.0
 15
0.0
 25
0.0
 16
0.0
 26
0.0
 36
1.0
 17
0.0
 27
0.0
 37
0.0
 40
42.724999999999994
 41
0.688564
 42
50.0
 43
0.0
 44
0.0
 50
0.0
 51
0.0
 71
               0
 72
            2000
 73
               1
 74
               1
 75
               0
 76
               0
 77
               0
 78
               0
281
               0
 65
               0
110
0.0
120
0.0
130
0.0
111
1.0
121
0.0
131
0.0
112
0.0
122
1.0
132
0.0
345
0
346
0
 79
               0
146
0.0
  0
ENDTAB
  0
TABLE
  2
LTYPE
  5
4
100
AcDbSymbolTable
 70
              14
  0
LTYPE
  5
11
100
AcDbSymbolTableRecord
100
AcDbLinetypeTableRecord
  2
ByBlock
 70
              64
  3

 72
              65
 73
               0
 40
0.0
  0
LTYPE
  5
12
100
AcDbSymbolTableRecord
100
AcDbLinetypeTableRecord
  2
ByLayer
 70
              64
  3

 72
              65
 73
               0
 40
0.0
  0
LTYPE
  5
13
100
AcDbSymbolTableRecord
100
AcDbLinetypeTableRecord
  2
Continuous
 70
              64
  3
Solid line
 72
              65
 73
               0
 40
0.0
  0
LTYPE
  5
24
100
AcDbSymbolTableRecord
100
AcDbLinetypeTableRecord
  2
STYLE_01
 70
               0
  3

 72
              65
 73
               2
 40
0.41664
 49
0.20828
 74
               0
 49
-0.20836
 74
               0
  0
LTYPE
  5
25
100
AcDbSymbolTableRecord
100
AcDbLinetypeTableRecord
  2
STYLE_02
 70
               0
  3

 72
              65
 73
               2
 40
0.6944250000000001
 49
0.48607
 74
               0
 49
-0.2083550000000001
 74
               0
  0
LTYPE
  5
26
100
AcDbSymbolTableRecord
100
AcDbLinetypeTableRecord
  2
STYLE_03
 70
               0
  3

 72
              65
 73
               2
 40
1.25
 49
1.0416400000000001
 74
               0
 49
-0.2083599999999999
 74
               0
  0
LTYPE
  5
27
100
AcDbSymbolTableRecord
100
AcDbLinetypeTableRecord
  2
STYLE_04
 70
               0
  3

 72
              65
 73
               2
 40
1.5277099999999999
 49
1.3194249999999998
 74
               0
 49
-0.208285
 74
               0
  0
LTYPE
  5
28
100
AcDbSymbolTableRecord
100
AcDbLinetypeTableRecord
  2
STYLE_05
 70
               0
  3

 72
              65
 73
               2
 40
0.20828
 49
0.069425
 74
               0
 49
-0.138855
 74
               0
  0
LTYPE
  5
29
100
AcDbSymbolTableRecord
100
AcDbLinetypeTableRecord
  2
STYLE_06
 70
               0
  3

 72
              65
 73
               4
 40
1.0416400000000001
 49
0.625
 74
               0
 49
-0.20828
 74
               0
 49
0.06943
 74
               0
 49
-0.13893
 74
               0
  0
LTYPE
  5
2A
100
AcDbSymbolTableRecord
100
AcDbLinetypeTableRecord
  2
STYLE_07
 70
               0
  3

 72
              65
 73
               6
 40
1.875
 49
0.625
 74
               0
 49
-0.20828
 74
               0
 49
0.6250000000000001
 74
               0
 49
-0.2083599999999999
 74
               0
 49
0.06943
 74
               0
 49
-0.1389299999999999
 74
               0
  0
LTYPE
  5
2B
100
AcDbSymbolTableRecord
100
AcDbLinetypeTableRecord
  2
STYLE_08
 70
               0
  3

 72
              65
 73
               6
 40
1.25
 49
0.625
 74
               0
 49
-0.20828
 74
               0
 49
0.06943
 74
               0
 49
-0.13893
 74
               0
 49
0.0694299999999999
 74
               0
 49
-0.13893
 74
               0
  0
LTYPE
  5
2C
100
AcDbSymbolTableRecord
100
AcDbLinetypeTableRecord
  2
STYLE_09
 70
               0
  3

 72
              65
 73
               4
 40
5.0
 49
3.75
 74
               0
 49
-0.2777849999999998
 74
               0
 49
0.6944300000000003
 74
               0
 49
-0.2777849999999998
 74
               0
  0
LTYPE
  5
2D
100
AcDbSymbolTableRecord
100
AcDbLinetypeTableRecord
  2
STYLE_10
 70
               0
  3

 72
              65
 73
               6
 40
5.9375
 49
3.75
 74
               0
 49
-0.2777849999999998
 74
               0
 49
0.6944300000000003
 74
               0
 49
-0.2777849999999998
 74
               0
 49
0.625
 74
               0
 49
-0.3125
 74
               0
  0
LTYPE
  5
2E
100
AcDbSymbolTableRecord
100
AcDbLinetypeTableRecord
  2
STYLE_11
 70
               0
  3

 72
              65
 73
               2
 40
0.4166412353515625
 49
0.2777862548828125
 74
               0
 49
-0.13885498046875
 74
               0
  0
ENDTAB
  0
TABLE
  2
LAYER
  5
2
100
AcDbSymbolTable
 70
               3
  0
LAYER
  5
14
100
AcDbSymbolTableRecord
100
AcDbLayerTableRecord
  2
0
 70
               0
 62
               7
  6
Continuous
290
               1
370
              -3
390
1D
  0
LAYER
  5
2F
100
AcDbSymbolTableRecord
100
AcDbLayerTableRecord
  2
None
 70
               0
 62
               7
  6
Continuous
290
               1
370
               5
390
1D
  0
LAYER
  5
30
100
AcDbSymbolTableRecord
100
AcDbLayerTableRecord
  2
Dimension
 70
               0
 62
               7
  6
Continuous
290
               1
370
               5
390
1D
  0
ENDTAB
  0
TABLE
  2
STYLE
  5
3
100
AcDbSymbolTable
 70
               1
  0
STYLE
  5
17
100
AcDbSymbolTableRecord
100
AcDbTextStyleTableRecord
  2
Standard
 70
               0
 40
0.0
 41
1.0
 50
0.0
 71
               0
 42
0.0
  3
txt
  4

  0
ENDTAB
  0
TABLE
  2
VIEW
  5
5
100
AcDbSymbolTable
 70
               0
  0
ENDTAB
  0
TABLE
  2
UCS
  5
6
100
AcDbSymbolTable
 70
               0
  0
ENDTAB
  0
TABLE
  2
APPID
  5
8
100
AcDbSymbolTable
 70
               1
  0
APPID
  5
16
100
AcDbSymbolTableRecord
100
AcDbRegAppTableRecord
  2
ACAD
 70
               0
  0
ENDTAB
  0
TABLE
  2
DIMSTYLE
  5
9
100
AcDbSymbolTable
 70
               1
100
AcDbDimStyleTable
 71
               0
  0
DIMSTYLE
105
18
100
AcDbSymbolTableRecord
100
AcDbDimStyleTableRecord
  2
Standard
 70
               0
  3

  4

 40
1.0
 41
0.18
 42
0.0625
 43
0.38
 44
0.18
 45
0.0
 46
0.0
 47
0.0
 48
0.0
 71
               0
 72
               0
 73
               1
 74
               1
 75
               0
 76
               0
 77
               0
 78
               0
 79
               0
140
0.18
141
0.09
142
0.0
143
25.399999999999999
144
1.0
145
0.0
146
1.0
147
0.09
148
0.0
170
               0
171
               2
172
               0
173
               0
174
               0
175
               0
176
               0
177
               0
178
               0
179
               0
271
               4
272
               4
273
               2
274
               2
275
               0
276
               0
277
               2
278
              46
279
               0
280
               0
281
               0
282
               0
283
               1
284
               0
285
               0
286
               0
288
               0
289
               3
340
17
341
0
342
0
343
0
344
0
371
              -2
372
              -2
  0
ENDTAB
  0
TABLE
  2
BLOCK_RECORD
  5
1
100
AcDbSymbolTable
 70
               1
  0
BLOCK_RECORD
  5
A
100
AcDbSymbolTableRecord
100
AcDbBlockTableRecord
  2
*MODEL_SPACE
340
20
  0
BLOCK_RECORD
  5
B
100
AcDbSymbolTableRecord
100
AcDbBlockTableRecord
  2
*PAPER_SPACE
340
21
  0
BLOCK_RECORD
  5
23
100
AcDbSymbolTableRecord
100
AcDbBlockTableRecord
  2
Group
340
0
102
{BLKREFS
331
556
102
}
  0
ENDTAB
  0
ENDSEC
  0
SECTION
  2
BLOCKS
  0
BLOCK
  5
D
100
AcDbEntity
  8
0
390
0
100
AcDbBlockBegin
  2
*MODEL_SPACE
 70
               0
 10
0.0
 20
0.0
 30
0.0
  3
*MODEL_SPACE
  1

  0
ENDBLK
  5
E
100
AcDbEntity
  8
0
390
0
100
AcDbBlockEnd
  0
BLOCK
  5
F
100
AcDbEntity
 67
               1
  8
0
390
0
100
AcDbBlockBegin
  2
*PAPER_SPACE
 70
               0
 10
0.0
 20
0.0
 30
0.0
  3
*PAPER_SPACE
  1

  0
ENDBLK
  5
10
100
AcDbEntity
 67
               1
  8
0
390
0
100
AcDbBlockEnd
  0
BLOCK
  5
31
100
AcDbEntity
  8
None
390
0
100
AcDbBlockBegin
  2
Group
 70
               0
 10
0.0
 20
0.0
 30
0.0
  3
Group
  1

  0
CIRCLE
  5
32
100
AcDbEntity
  8
None
370
               9
390
0
  6
Continuous
 62
               7
100
AcDbCircle
 10
-20.512500000000003
 20
20.887499999999989
 30
0.0
 40
0.2550000000000001
  0
CIRCLE
  5
33
100
AcDbEntity
  8
None
370
               9
390
0
  6
Continuous
 62
               7
100
AcDbCircle
 10
-19.512500000000003
 20
20.887499999999989
 30
0.0
 40
0.2550000000000001
  0
CIRCLE
  5
34
100
AcDbEntity
  8
None
370
               9
390
0
  6
Continuous
 62
               7
100
AcDbCircle
 10
-18.512499999999999
 20
20.887499999999989
 30
0.0
 40
0.2550000000000001
  0
CIRCLE
  5
35
100
AcDbEntity
  8
None
370
               9
390
0
  6
Continuous
 62
               7
100
AcDbCircle
 10
-17.512499999999999
 20
20.887499999999989
 30
0.0
 40
0.2550000000000001
  0
CIRCLE
  5
36
100
AcDbEntity
  8
None
370
               9
390
0
  6
Continuous
 62
               7
100
AcDbCircle
 10
-16.512500000000003
 20
20.887499999999989
 30
0.0
 40
0.2550000000000001
  0
CIRCLE
  5
37
100
AcDbEntity
  8
None
370
               9
390
0
  6
Continuous
 62
               7
100
AcDbCircle
 10
-15.512500000000006
 20
20.887499999999989
 30
0.0
 40
0.2550000000000001
  0
CIRCLE
  5
38
100
AcDbEntity
  8
None
370
               9
390
0
  6
Continuous
 62
               7
100
AcDbCircle
 10
-14.51250000000001
 20
20.887499999999989
 30
0.0
 40
0.2550000000000001
  0
CIRCLE
  5
39
100
AcDbEntity
  8
None
370
               9
390
0
  6
Continuous
 62
               7
100
AcDbCircle
 10
-13.512500000000017
 20
20.887499999999989
 30
0.0
 40
0.254999999999997
  0
CIRCLE
  5
3A
100
AcDbEntity
  8
None
370
               9
390
0
  6
Continuous
 62
               7
100
AcDbCircle
 10
-12.512500000000021
 20
20.887499999999989
 30
0.0
 40
0.254999999999997
  0
CIRCLE
  5
3B
100
AcDbEntity
  8
None
370
               9
390
0
  6
Continuous
 62
               7
100
AcDbCircle
 10
-11.512500000000024
 20
20.887499999999989
 30
0.0
 40
0.254999999999997
  0
CIRCLE
  5
3C
100
AcDbEntity
  8
None
370
               9
390
0
  6
Continuous
 62
               7
100
AcDbCircle
 10
-10.512500000000024
 20
20.887499999999989
 30
0.0
 40
0.2550000000000001
  0
CIRCLE
  5
3D
100
AcDbEntity
  8
None
370
               9
390
0
  6
Continuous
 62
               7
100
AcDbCircle
 10
-9.5125000000000224
 20
20.887499999999989
 30
0.0
 40
0.2550000000000001
  0
CIRCLE
  5
3E
100
AcDbEntity
  8
None
370
               9
390
0
  6
Continuous
 62
               7
100
AcDbCircle
 10
-8.5125000000000224
 20
20.887499999999989
 30
0.0
 40
0.2550000000000001
  0
CIRCLE
  5
3F
100
AcDbEntity
  8
None
370
               9
390
0
  6
Continuous
 62
               7
100
AcDbCircle
 10
-7.5125000000000224
 20
20.887499999999989
 30
0.0
 40
0.2550000000000001
  0
CIRCLE
  5
40
100
AcDbEntity
  8
None
370
               9
390
0
  6
Continuous
 62
               7
100
AcDbCircle
 10
-6.5125000000000224
 20
20.887499999999989
 30
0.0
 40
0.2550000000000001
  0
CIRCLE
  5
41
100
AcDbEntity
  8
None
370
               9
390
0
  6
Continuous
 62
               7
100
AcDbCircle
 10
-5.5125000000000224
 20
20.887499999999989
 30
0.0
 40
0.2550000000000001
  0
CIRCLE
  5
42
100
AcDbEntity
  8
None
370
               9
390
0
  6
Continuous
 62
               7
100
AcDbCircle
 10
-4.5125000000000224
 20
20.887499999999989
 30
0.0
 40
0.2550000000000001
  0
CIRCLE
  5
43
100
AcDbEntity
  8
None
370
               9
390
0
  6
Continuous
 62
               7
100
AcDbCircle
 10
-3.5125000000000228
 20
20.887499999999989
 30
0.0
 40
0.2550000000000001
  0
CIRCLE
  5
44
100
AcDbEntity
  8
None
370
               9
390
0
  6
Continuous
 62
               7
100
AcDbCircle
 10
-2.5125000000000233
 20
20.887499999999989
 30
0.0
 40
0.2550000000000001
  0
CIRCLE
  5
45
100
AcDbEntity
  8
None
370
               9
390
0
  6
Continuous
 62
               7
100
AcDbCircle
 10
-1.5125000000000233
 20
20.887499999999989
 30
0.0
 40
0.2550000000000001
  0
CIRCLE
  5
46
100
AcDbEntity
  8
None
370
               9
390
0
  6
Continuous
 62
               7
100
AcDbCircle
 10
-0.5125000000000206
 20
20.887499999999989
 30
0.0
 40
0.2550000000000009
  0
CIRCLE
  5
47
100
AcDbEntity
  8
None
370
               9
390
0
  6
Continuous
 62
               7
100
AcDbCircle
 10
0.4874999999999838
 20
20.887499999999989
 30
0.0
 40
0.2550000000000009
  0
CIRCLE
  5
48
100
AcDbEntity
  8
None
370
               9
390
0
  6
Continuous
 62
               7
100
AcDbCircle
 10
1.4874999999999874
 20
20.887499999999989
 30
0.0
 40
0.2550000000000009
  0
CIRCLE
  5
49
100
AcDbEntity
  8
None
370
               9
390
0
  6
Continuous
 62
               7
100
AcDbCircle
 10
2.4874999999999918
 20
20.887499999999989
 30
0.0
 40
0.2550000000000009
  0
CIRCLE
  5
4A
100
AcDbEntity
  8
None
370
               9
390
0
  6
Continuous
 62
               7
100
AcDbCircle
 10
3.4874999999999954
 20
20.887499999999989
 30
0.0
 40
0.2550000000000009
  0
CIRCLE
  5
4B
100
AcDbEntity
  8
None
370
               9
390
0
  6
Continuous
 62
               7
100
AcDbCircle
 10
4.4874999999999989
 20
20.887499999999989
 30
0.0
 40
0.2550000000000009
  0
CIRCLE
  5
4C
100
AcDbEntity
  8
None
370
               9
390
0
  6
Continuous
 62
               7
100
AcDbCircle
 10
5.4874999999999998
 20
20.887499999999989
 30
0.0
 40
0.2550000000000001
  0
CIRCLE
  5
4D
100
AcDbEntity
  8
None
370
               9
390
0
  6
Continuous
 62
               7
100
AcDbCircle
 10
6.4874999999999998
 20
20.887499999999989
 30
0.0
 40
0.2550000000000001
  0
CIRCLE
  5
4E
100
AcDbEntity
  8
None
370
               9
390
0
  6
Continuous
 62
               7
100
AcDbCircle
 10
7.487499999999998
 20
20.887499999999989
 30
0.0
 40
0.254999999999997
  0
CIRCLE
  5
4F
100
AcDbEntity
  8
None
370
               9
390
0
  6
Continuous
 62
               7
100
AcDbCircle
 10
8.4874999999999972
 20
20.887499999999989
 30
0.0
 40
0.254999999999997
  0
CIRCLE
  5
50
100
AcDbEntity
  8
None
370
               9
390
0
  6
Continuous
 62
               7
100
AcDbCircle
 10
9.4874999999999972
 20
20.887499999999989
 30
0.0
 40
0.254999999999997
  0
CIRCLE
  5
51
100
AcDbEntity
  8
None
370
               9
390
0
  6
Continuous
 62
               7
100
AcDbCircle
 10
10.487499999999997
 20
20.887499999999989
 30
0.0
 40
0.254999999999997
  0
CIRCLE
  5
52
100
AcDbEntity
  8
None
370
               9
390
0
  6
Continuous
 62
               7
100
AcDbCircle
 10
11.487499999999997
 20
20.887499999999989
 30
0.0
 40
0.254999999999997
  0
CIRCLE
  5
53
100
AcDbEntity
  8
None
370
               9
390
0
  6
Continuous
 62
               7
100
AcDbCircle
 10
12.487499999999997
 20
20.887499999999989
 30
0.0
 40
0.254999999999997
  0
CIRCLE
  5
54
100
AcDbEntity
  8
None
370
               9
390
0
  6
Continuous
 62
               7
100
AcDbCircle
 10
13.487499999999997
 20
20.887499999999989
 30
0.0
 40
0.254999999999997
  0
CIRCLE
  5
55
100
AcDbEntity
  8
None
370
               9
390
0
  6
Continuous
 62
               7
100
AcDbCircle
 10
14.487499999999997
 20
20.887499999999989
 30
0.0
 40
0.254999999999997
  0
CIRCLE
  5
56
100
AcDbEntity
  8
None
370
               9
390
0
  6
Continuous
 62
               7
100
AcDbCircle
 10
-20.512500000000003
 20
19.887499999999989
 30
0.0
 40
0.2550000000000001
  0
CIRCLE
  5
57
100
AcDbEntity
  8
None
370
               9
390
0
  6
Continuous
 62
               7
100
AcDbCircle
 10
-19.512500000000003
 20
19.887499999999989
 30
0.0
 40
0.2550000000000001
  0
CIRCLE
  5
58
100
AcDbEntity
  8
None
370
               9
390
0
  6
Continuous
 62
               7
100
AcDbCircle
 10
-18.512499999999999
 20
19.887499999999989
 30
0.0
 40
0.2550000000000001
  0
CIRCLE
  5
59
100
AcDbEntity
  8
None
370
               9
390
0
  6
Continuous
 62
               7
100
AcDbCircle
 10
-17.512499999999999
 20
19.887499999999989
 30
0.0
 40
0.2550000000000001
  0
CIRCLE
  5
5A
100
AcDbEntity
  8
None
370
               9
390
0
  6
Continuous
 62
               7
100
AcDbCircle
 10
-16.512500000000003
 20
19.887499999999989
 30
0.0
 40
0.2550000000000001
  0
CIRCLE
  5
5B
100
AcDbEntity
  8
None
370
               9
390
0
  6
Continuous
 62
               7
100
AcDbCircle
 10
-15.512500000000006
 20
19.887499999999989
 30
0.0
 40
0.2550000000000001
  0
CIRCLE
  5
5C
100
AcDbEntity
  8
None
370
               9
390
0
  6
Continuous
 62
               7
100
AcDbCircle
 10
-14.51250000000001
 20
19.887499999999989
 30
0.0
 40
0.2550000000000001
  0
CIRCLE
  5
5D
100
AcDbEntity
  8
None
370
               9
390
0
  6
Continuous
 62
               7
100
AcDbCircle
 10
-13.512500000000017
 20
19.887499999999989
 30
0.0
 40
0.254999999999997
  0
CIRCLE
  5
5E
100
AcDbEntity
  8
None
370
               9
390
0
  6
Continuous
 62
               7
100
AcDbCircle
 10
-12.512500000000021
 20
19.887499999999989
 30
0.0
 40
0.254999999999997
  0
CIRCLE
  5
5F
100
AcDbEntity
  8
None
370
               9
390
0
  6
Continuous
 62
               7
100
AcDbCircle
 10
-11.512500000000024
 20
19.887499999999989
 30
0.0
 40
0.254999999999997
  0
CIRCLE
  5
60
100
AcDbEntity
  8
None
370
               9
390
0
  6
Continuous
 62
               7
100
AcDbCircle
 10
-10.512500000000024
 20
19.887499999999989
 30
0.0
 40
0.2550000000000001
  0
CIRCLE
  5
61
100
AcDbEntity
  8
None
370
               9
390
0
  6
Continuous
 62
               7
100
AcDbCircle
 10
-9.5125000000000224
 20
19.887499999999989
 30
0.0
 40
0.2550000000000001
  0
CIRCLE
  5
62
100
AcDbEntity
  8
None
370
               9
390
0
  6
Continuous
 62
               7
100
AcDbCircle
 10
-8.5125000000000224
 20
19.887499999999989
 30
0.0
 40
0.2550000000000001
  0
CIRCLE
  5
63
100
AcDbEntity
  8
None
370
               9
390
0
  6
Continuous
 62
               7
100
AcDbCircle
 10
-7.5125000000000224
 20
19.887499999999989
 30
0.0
 40
0.2550000000000001
  0
CIRCLE
  5
64
100
AcDbEntity
  8
None
370
               9
390
0
  6
Continuous
 62
               7
100
AcDbCircle
 10
-6.5125000000000224
 20
19.887499999999989
 30
0.0
 40
0.2550000000000001
  0
CIRCLE
  5
65
100
AcDbEntity
  8
None
370
               9
390
0
  6
Continuous
 62
               7
100
AcDbCircle
 10
-5.5125000000000224
 20
19.887499999999989
 30
0.0
 40
0.2550000000000001
  0
CIRCLE
  5
66
100
AcDbEntity
  8
None
370
               9
390
0
  6
Continuous
 62
               7
100
AcDbCircle
 10
-4.5125000000000224
 20
19.887499999999989
 30
0.0
 40
0.2550000000000001
  0
CIRCLE
  5
67
100
AcDbEntity
  8
None
370
               9
390
0
  6
Continuous
 62
               7
100
AcDbCircle
 10
-3.5125000000000228
 20
19.887499999999989
 30
0.0
 40
0.2550000000000001
  0
CIRCLE
  5
68
100
AcDbEntity
  8
None
370
               9
390
0
  6
Continuous
 62
               7
100
AcDbCircle
 10
-2.5125000000000233
 20
19.887499999999989
 30
0.0
 40
0.2550000000000001
  0
CIRCLE
  5
69
100
AcDbEntity
  8
None
370
               9
390
0
  6
Continuous
 62
               7
100
AcDbCircle
 10
-1.5125000000000233
 20
19.887499999999989
 30
0.0
 40
0.2550000000000001
  0
CIRCLE
  5
6A
100
AcDbEntity
  8
None
370
               9
390
0
  6
Continuous
 62
               7
100
AcDbCircle
 10
-0.5125000000000206
 20
19.887499999999989
 30
0.0
 40
0.2550000000000009
  0
CIRCLE
  5
6B
100
AcDbEntity
  8
None
370
               9
390
0
  6
Continuous
 62
               7
100
AcDbCircle
 10
0.4874999999999838
 20
19.887499999999989
 30
0.0
 40
0.2550000000000009
  0
CIRCLE
  5
6C
100
AcDbEntity
  8
None
370
               9
390
0
  6
Continuous
 62
               7
100
AcDbCircle
 10
1.4874999999999874
 20
19.887499999999989
 30
0.0
 40
0.2550000000000009
  0
CIRCLE
  5
6D
100
AcDbEntity
  8
None
370
               9
390
0
  6
Continuous
 62
               7
100
AcDbCircle
 10
2.4874999999999918
 20
19.887499999999989
 30
0.0
 40
0.2550000000000009
  0
CIRCLE
  5
6E
100
AcDbEntity
  8
None
370
               9
390
0
  6
Continuous
 62
               7
100
AcDbCircle
 10
3.4874999999999954
 20
19.887499999999989
 30
0.0
 40
0.2550000000000009
  0
CIRCLE
  5
6F
100
AcDbEntity
  8
None
370
               9
390
0
  6
Continuous
 62
               7
100
AcDbCircle
 10
4.4874999999999989
 20
19.887499999999989
 30
0.0
 40
0.2550000000000009
  0
CIRCLE
  5
70
100
AcDbEntity
  8
None
370
               9
390
0
  6
Continuous
 62
               7
100
AcDbCircle
 10
5.4874999999999998
 20
19.887499999999989
 30
0.0
 40
0.2550000000000001
  0
CIRCLE
  5
71
100
AcDbEntity
  8
None
370
               9
390
0
  6
Continuous
 62
               7
100
AcDbCircle
 10
6.4874999999999998
 20
19.887499999999989
 30
0.0
 40
0.2550000000000001
  0
CIRCLE
  5
72
100
AcDbEntity
  8
None
370
               9
390
0
  6
Continuous
 62
               7
100
AcDbCircle
 10
7.487499999999998
 20
19.887499999999989
 30
0.0
 40
0.254999999999997
  0
CIRCLE
  5
73
100
AcDbEntity
  8
None
370
               9
390
0
  6
Continuous
 62
               7
100
AcDbCircle
 10
8.4874999999999972
 20
19.887499999999989
 30
0.0
 40
0.254999999999997
  0
CIRCLE
  5
74
100
AcDbEntity
  8
None
370
               9
390
0
  6
Continuous
 62
               7
100
AcDbCircle
 10
9.4874999999999972
 20
19.887499999999989
 30
0.0
 40
0.254999999999997
  0
CIRCLE
  5
75
100
AcDbEntity
  8
None
370
               9
390
0
  6
Continuous
 62
               7
100
AcDbCircle
 10
10.487499999999997
 20
19.887499999999989
 30
0.0
 40
0.254999999999997
  0
CIRCLE
  5
76
100
AcDbEntity
  8
None
370
               9
390
0
  6
Continuous
 62
               7
100
AcDbCircle
 10
11.487499999999997
 20
19.887499999999989
 30
0.0
 40
0.254999999999997
  0
CIRCLE
  5
77
100
AcDbEntity
  8
None
370
               9
390
0
  6
Continuous
 62
               7
100
AcDbCircle
 10
12.487499999999997
 20
19.887499999999989
 30
0.0
 40
0.254999999999997
  0
CIRCLE
  5
78
100
AcDbEntity
  8
None
370
               9
390
0
  6
Continuous
 62
               7
100
AcDbCircle
 10
13.487499999999997
 20
19.887499999999989
 30
0.0
 40
0.254999999999997
  0
CIRCLE
  5
79
100
AcDbEntity
  8
None
370
               9
390
0
  6
Continuous
 62
               7
100
AcDbCircle
 10
14.487499999999997
 20
19.887499999999989
 30
0.0
 40
0.254999999999997
  0
CIRCLE
  5
7A
100
AcDbEntity
  8
None
370
               9
390
0
  6
Continuous
 62
               7
100
AcDbCircle
 10
-20.512500000000003
 20
18.887499999999989
 30
0.0
 40
0.2550000000000001
  0
CIRCLE
  5
7B
100
AcDbEntity
  8
None
370
               9
390
0
  6
Continuous
 62
               7
100
AcDbCircle
 10
-19.512500000000003
 20
18.887499999999989
 30
0.0
 40
0.2550000000000001
  0
CIRCLE
  5
7C
100
AcDbEntity
  8
None
370
               9
390
0
  6
Continuous
 62
               7
100
AcDbCircle
 10
-18.512499999999999
 20
18.887499999999989
 30
0.0
 40
0.2550000000000001
  0
CIRCLE
  5
7D
100
AcDbEntity
  8
None
370
               9
390
0
  6
Continuous
 62
               7
100
AcDbCircle
 10
-17.512499999999999
 20
18.887499999999989
 30
0.0
 40
0.2550000000000001
  0
CIRCLE
  5
7E
100
AcDbEntity
  8
None
370
               9
390
0
  6
Continuous
 62
               7
100
AcDbCircle
 10
-16.512500000000003
 20
18.887499999999989
 30
0.0
 40
0.2550000000000001
  0
CIRCLE
  5
7F
100
AcDbEntity
  8
None
370
               9
390
0
  6
Continuous
 62
               7
100
AcDbCircle
 10
-15.512500000000006
 20
18.887499999999989
 30
0.0
 40
0.2550000000000001
  0
CIRCLE
  5
80
100
AcDbEntity
  8
None
370
               9
390
0
  6
Continuous
 62
               7
100
AcDbCircle
 10
-14.51250000000001
 20
18.887499999999989
 30
0.0
 40
0.2550000000000001
  0
CIRCLE
  5
81
100
AcDbEntity
  8
None
370
               9
390
0
  6
Continuous
 62
               7
100
AcDbCircle
 10
-13.512500000000017
 20
18.887499999999989
 30
0.0
 40
0.254999999999997
  0
CIRCLE
  5
82
100
AcDbEntity
  8
None
370
               9
390
0
  6
Continuous
 62
               7
100
AcDbCircle
 10
-12.512500000000021
 20
18.887499999999989
 30
0.0
 40
0.254999999999997
  0
CIRCLE
  5
83
100
AcDbEntity
  8
None
370
               9
390
0
  6
Continuous
 62
               7
100
AcDbCircle
 10
-11.512500000000024
 20
18.887499999999989
 30
0.0
 40
0.254999999999997
  0
CIRCLE
  5
84
100
AcDbEntity
  8
None
370
               9
390
0
  6
Continuous
 62
               7
100
AcDbCircle
 10
-10.512500000000024
 20
18.887499999999989
 30
0.0
 40
0.2550000000000001
  0
CIRCLE
  5
85
100
AcDbEntity
  8
None
370
               9
390
0
  6
Continuous
 62
               7
100
AcDbCircle
 10
-9.5125000000000224
 20
18.887499999999989
 30
0.0
 40
0.2550000000000001
  0
CIRCLE
  5
86
100
AcDbEntity
  8
None
370
               9
390
0
  6
Continuous
 62
               7
100
AcDbCircle
 10
-8.5125000000000224
 20
18.887499999999989
 30
0.0
 40
0.2550000000000001
  0
CIRCLE
  5
87
100
AcDbEntity
  8
None
370
               9
390
0
  6
Continuous
 62
               7
100
AcDbCircle
 10
-7.5125000000000224
 20
18.887499999999989
 30
0.0
 40
0.2550000000000001
  0
CIRCLE
  5
88
100
AcDbEntity
  8
None
370
               9
390
0
  6
Continuous
 62
               7
100
AcDbCircle
 10
-6.5125000000000224
 20
18.887499999999989
 30
0.0
 40
0.2550000000000001
  0
CIRCLE
  5
89
100
AcDbEntity
  8
None
370
               9
390
0
  6
Continuous
 62
               7
100
AcDbCircle
 10
-5.5125000000000224
 20
18.887499999999989
 30
0.0
 40
0.2550000000000001
  0
CIRCLE
  5
8A
100
AcDbEntity
  8
None
370
               9
390
0
  6
Continuous
 62
               7
100
AcDbCircle
 10
-4.5125000000000224
 20
18.887499999999989
 30
0.0
 40
0.2550000000000001
  0
CIRCLE
  5
8B
100
AcDbEntity
  8
None
370
               9
390
0
  6
Continuous
 62
               7
100
AcDbCircle
 10
-3.5125000000000228
 20
18.887499999999989
 30
0.0
 40
0.2550000000000001
  0
CIRCLE
  5
8C
100
AcDbEntity
  8
None
370
               9
390
0
  6
Continuous
 62
               7
100
AcDbCircle
 10
-2.5125000000000233
 20
18.887499999999989
 30
0.0
 40
0.2550000000000001
  0
CIRCLE
  5
8D
100
AcDbEntity
  8
None
370
               9
390
0
  6
Continuous
 62
               7
100
AcDbCircle
 10
-1.5125000000000233
 20
18.887499999999989
 30
0.0
 40
0.2550000000000001
  0
CIRCLE
  5
8E
100
AcDbEntity
  8
None
370
               9
390
0
  6
Continuous
 62
               7
100
AcDbCircle
 10
-0.5125000000000206
 20
18.887499999999989
 30
0.0
 40
0.2550000000000009
  0
CIRCLE
  5
8F
100
AcDbEntity
  8
None
370
               9
390
0
  6
Continuous
 62
               7
100
AcDbCircle
 10
0.4874999999999838
 20
18.887499999999989
 30
0.0
 40
0.2550000000000009
  0
CIRCLE
  5
90
100
AcDbEntity
  8
None
370
               9
390
0
  6
Continuous
 62
               7
100
AcDbCircle
 10
1.4874999999999874
 20
18.887499999999989
 30
0.0
 40
0.2550000000000009
  0
CIRCLE
  5
91
100
AcDbEntity
  8
None
370
               9
390
0
  6
Continuous
 62
               7
100
AcDbCircle
 10
2.4874999999999918
 20
18.887499999999989
 30
0.0
 40
0.2550000000000009
  0
CIRCLE
  5
92
100
AcDbEntity
  8
None
370
               9
390
0
  6
Continuous
 62
               7
100
AcDbCircle
 10
3.4874999999999954
 20
18.887499999999989
 30
0.0
 40
0.2550000000000009
  0
CIRCLE
  5
93
100
AcDbEntity
  8
None
370
               9
390
0
  6
Continuous
 62
               7
100
AcDbCircle
 10
4.4874999999999989
 20
18.887499999999989
 30
0.0
 40
0.2550000000000009
  0
CIRCLE
  5
94
100
AcDbEntity
  8
None
370
               9
390
0
  6
Continuous
 62
               7
100
AcDbCircle
 10
5.4874999999999998
 20
18.887499999999989
 30
0.0
 40
0.2550000000000001
  0
CIRCLE
  5
95
100
AcDbEntity
  8
None
370
               9
390
0
  6
Continuous
 62
               7
100
AcDbCircle
 10
6.4874999999999998
 20
18.887499999999989
 30
0.0
 40
0.2550000000000001
  0
CIRCLE
  5
96
100
AcDbEntity
  8
None
370
               9
390
0
  6
Continuous
 62
               7
100
AcDbCircle
 10
7.487499999999998
 20
18.887499999999989
 30
0.0
 40
0.254999999999997
  0
CIRCLE
  5
97
100
AcDbEntity
  8
None
370
               9
390
0
  6
Continuous
 62
               7
100
AcDbCircle
 10
8.4874999999999972
 20
18.887499999999989
 30
0.0
 40
0.254999999999997
  0
CIRCLE
  5
98
100
AcDbEntity
  8
None
370
               9
390
0
  6
Continuous
 62
               7
100
AcDbCircle
 10
9.4874999999999972
 20
18.887499999999989
 30
0.0
 40
0.254999999999997
  0
CIRCLE
  5
99
100
AcDbEntity
  8
None
370
               9
390
0
  6
Continuous
 62
               7
100
AcDbCircle
 10
10.487499999999997
 20
18.887499999999989
 30
0.0
 40
0.254999999999997
  0
CIRCLE
  5
9A
100
AcDbEntity
  8
None
370
               9
390
0
  6
Continuous
 62
               7
100
AcDbCircle
 10
11.487499999999997
 20
18.887499999999989
 30
0.0
 40
0.254999999999997
  0
CIRCLE
  5
9B
100
AcDbEntity
  8
None
370
               9
390
0
  6
Continuous
 62
               7
100
AcDbCircle
 10
12.487499999999997
 20
18.887499999999989
 30
0.0
 40
0.254999999999997
  0
CIRCLE
  5
9C
100
AcDbEntity
  8
None
370
               9
390
0
  6
Continuous
 62
               7
100
AcDbCircle
 10
13.487499999999997
 20
18.887499999999989
 30
0.0
 40
0.254999999999997
  0
CIRCLE
  5
9D
100
AcDbEntity
  8
None
370
               9
390
0
  6
Continuous
 62
               7
100
AcDbCircle
 10
14.487499999999997
 20
18.887499999999989
 30
0.0
 40
0.254999999999997
  0
CIRCLE
  5
9E
100
AcDbEntity
  8
None
370
               9
390
0
  6
Continuous
 62
               7
100
AcDbCircle
 10
-20.512500000000003
 20
17.887500000000003
 30
0.0
 40
0.254999999999993
  0
CIRCLE
  5
9F
100
AcDbEntity
  8
None
370
               9
390
0
  6
Continuous
 62
               7
100
AcDbCircle
 10
-19.512500000000003
 20
17.887500000000003
 30
0.0
 40
0.254999999999993
  0
CIRCLE
  5
A0
100
AcDbEntity
  8
None
370
               9
390
0
  6
Continuous
 62
               7
100
AcDbCircle
 10
-18.512499999999999
 20
17.887500000000003
 30
0.0
 40
0.254999999999993
  0
CIRCLE
  5
A1
100
AcDbEntity
  8
None
370
               9
390
0
  6
Continuous
 62
               7
100
AcDbCircle
 10
-17.512499999999999
 20
17.887500000000003
 30
0.0
 40
0.254999999999993
  0
CIRCLE
  5
A2
100
AcDbEntity
  8
None
370
               9
390
0
  6
Continuous
 62
               7
100
AcDbCircle
 10
-16.512500000000003
 20
17.887500000000003
 30
0.0
 40
0.254999999999993
  0
CIRCLE
  5
A3
100
AcDbEntity
  8
None
370
               9
390
0
  6
Continuous
 62
               7
100
AcDbCircle
 10
-15.512500000000006
 20
17.887500000000003
 30
0.0
 40
0.254999999999993
  0
CIRCLE
  5
A4
100
AcDbEntity
  8
None
370
               9
390
0
  6
Continuous
 62
               7
100
AcDbCircle
 10
-14.51250000000001
 20
17.887500000000003
 30
0.0
 40
0.254999999999993
  0
CIRCLE
  5
A5
100
AcDbEntity
  8
None
370
               9
390
0
  6
Continuous
 62
               7
100
AcDbCircle
 10
-13.512500000000017
 20
17.887500000000003
 30
0.0
 40
0.25499999999999
  0
CIRCLE
  5
A6
100
AcDbEntity
  8
None
370
               9
390
0
  6
Continuous
 62
               7
100
AcDbCircle
 10
-12.512500000000021
 20
17.887500000000003
 30
0.0
 40
0.25499999999999
  0
CIRCLE
  5
A7
100
AcDbEntity
  8
None
370
               9
390
0
  6
Continuous
 62
               7
100
AcDbCircle
 10
-11.512500000000024
 20
17.887500000000003
 30
0.0
 40
0.25499999999999
  0
CIRCLE
  5
A8
100
AcDbEntity
  8
None
370
               9
390
0
  6
Continuous
 62
               7
100
AcDbCircle
 10
-10.512500000000024
 20
17.887500000000003
 30
0.0
 40
0.254999999999993
  0
CIRCLE
  5
A9
100
AcDbEntity
  8
None
370
               9
390
0
  6
Continuous
 62
               7
100
AcDbCircle
 10
-9.5125000000000224
 20
17.887500000000003
 30
0.0
 40
0.254999999999993
  0
CIRCLE
  5
AA
100
AcDbEntity
  8
None
370
               9
390
0
  6
Continuous
 62
               7
100
AcDbCircle
 10
-8.5125000000000224
 20
17.887500000000003
 30
0.0
 40
0.254999999999993
  0
CIRCLE
  5
AB
100
AcDbEntity
  8
None
370
               9
390
0
  6
Continuous
 62
               7
100
AcDbCircle
 10
-7.5125000000000224
 20
17.887500000000003
 30
0.0
 40
0.254999999999993
  0
CIRCLE
  5
AC
100
AcDbEntity
  8
None
370
               9
390
0
  6
Continuous
 62
               7
100
AcDbCircle
 10
-6.5125000000000224
 20
17.887500000000003
 30
0.0
 40
0.254999999999993
  0
CIRCLE
  5
AD
100
AcDbEntity
  8
None
370
               9
390
0
  6
Continuous
 62
               7
100
AcDbCircle
 10
-5.5125000000000224
 20
17.887500000000003
 30
0.0
 40
0.254999999999993
  0
CIRCLE
  5
AE
100
AcDbEntity
  8
None
370
               9
390
0
  6
Continuous
 62
               7
100
AcDbCircle
 10
-4.5125000000000224
 20
17.887500000000003
 30
0.0
 40
0.254999999999993
  0
CIRCLE
  5
AF
100
AcDbEntity
  8
None
370
               9
390
0
  6
Continuous
 62
               7
100
AcDbCircle
 10
-3.5125000000000228
 20
17.887500000000003
 30
0.0
 40
0.254999999999993
  0
CIRCLE
  5
B0
100
AcDbEntity
  8
None
370
               9
390
0
  6
Continuous
 62
               7
100
AcDbCircle
 10
-2.5125000000000233
 20
17.887500000000003
 30
0.0
 40
0.254999999999993
  0
CIRCLE
  5
B1
100
AcDbEntity
  8
None
370
               9
390
0
  6
Continuous
 62
               7
100
AcDbCircle
 10
-1.5125000000000233
 20
17.887500000000003
 30
0.0
 40
0.254999999999993
  0
CIRCLE
  5
B2
100
AcDbEntity
  8
None
370
               9
390
0
  6
Continuous
 62
               7
100
AcDbCircle
 10
-0.5125000000000206
 20
17.887500000000003
 30
0.0
 40
0.2549999999999938
  0
CIRCLE
  5
B3
100
AcDbEntity
  8
None
370
               9
390
0
  6
Continuous
 62
               7
100
AcDbCircle
 10
0.4874999999999838
 20
17.887500000000003
 30
0.0
 40
0.2549999999999938
  0
CIRCLE
  5
B4
100
AcDbEntity
  8
None
370
               9
390
0
  6
Continuous
 62
               7
100
AcDbCircle
 10
1.4874999999999874
 20
17.887500000000003
 30
0.0
 40
0.2549999999999938
  0
CIRCLE
  5
B5
100
AcDbEntity
  8
None
370
               9
390
0
  6
Continuous
 62
               7
100
AcDbCircle
 10
2.4874999999999918
 20
17.887500000000003
 30
0.0
 40
0.2549999999999938
  0
CIRCLE
  5
B6
100
AcDbEntity
  8
None
370
               9
390
0
  6
Continuous
 62
               7
100
AcDbCircle
 10
3.4874999999999954
 20
17.887500000000003
 30
0.0
 40
0.2549999999999938
  0
CIRCLE
  5
B7
100
AcDbEntity
  8
None
370
               9
390
0
  6
Continuous
 62
               7
100
AcDbCircle
 10
4.4874999999999989
 20
17.887500000000003
 30
0.0
 40
0.2549999999999938
  0
CIRCLE
  5
B8
100
AcDbEntity
  8
None
370
               9
390
0
  6
Continuous
 62
               7
100
AcDbCircle
 10
5.4874999999999998
 20
17.887500000000003
 30
0.0
 40
0.254999999999993
  0
CIRCLE
  5
B9
100
AcDbEntity
  8
None
370
               9
390
0
  6
Continuous
 62
               7
100
AcDbCircle
 10
6.4874999999999998
 20
17.887500000000003
 30
0.0
 40
0.254999999999993
  0
CIRCLE
  5
BA
100
AcDbEntity
  8
None
370
               9
390
0
  6
Continuous
 62
               7
100
AcDbCircle
 10
7.487499999999998
 20
17.887500000000003
 30
0.0
 40
0.25499999999999
  0
CIRCLE
  5
BB
100
AcDbEntity
  8
None
370
               9
390
0
  6
Continuous
 62
               7
100
AcDbCircle
 10
8.4874999999999972
 20
17.887500000000003
 30
0.0
 40
0.25499999999999
  0
CIRCLE
  5
BC
100
AcDbEntity
  8
None
370
               9
390
0
  6
Continuous
 62
               7
100
AcDbCircle
 10
9.4874999999999972
 20
17.887500000000003
 30
0.0
 40
0.25499999999999
  0
CIRCLE
  5
BD
100
AcDbEntity
  8
None
370
               9
390
0
  6
Continuous
 62
               7
100
AcDbCircle
 10
10.487499999999997
 20
17.887500000000003
 30
0.0
 40
0.25499999999999
  0
CIRCLE
  5
BE
100
AcDbEntity
  8
None
370
               9
390
0
  6
Continuous
 62
               7
100
AcDbCircle
 10
11.487499999999997
 20
17.887500000000003
 30
0.0
 40
0.25499999999999
  0
CIRCLE
  5
BF
100
AcDbEntity
  8
None
370
               9
390
0
  6
Continuous
 62
               7
100
AcDbCircle
 10
12.487499999999997
 20
17.887500000000003
 30
0.0
 40
0.25499999999999
  0
CIRCLE
  5
C0
100
AcDbEntity
  8
None
370
               9
390
0
  6
Continuous
 62
               7
100
AcDbCircle
 10
13.487499999999997
 20
17.887500000000003
 30
0.0
 40
0.25499999999999
  0
CIRCLE
  5
C1
100
AcDbEntity
  8
None
370
               9
390
0
  6
Continuous
 62
               7
100
AcDbCircle
 10
14.487499999999997
 20
17.887500000000003
 30
0.0
 40
0.25499999999999
  0
CIRCLE
  5
C2
100
AcDbEntity
  8
None
370
               9
390
0
  6
Continuous
 62
               7
100
AcDbCircle
 10
-20.512500000000003
 20
16.887500000000003
 30
0.0
 40
0.2550000000000001
  0
CIRCLE
  5
C3
100
AcDbEntity
  8
None
370
               9
390
0
  6
Continuous
 62
               7
100
AcDbCircle
 10
-19.512500000000003
 20
16.887500000000003
 30
0.0
 40
0.2550000000000001
  0
CIRCLE
  5
C4
100
AcDbEntity
  8
None
370
               9
390
0
  6
Continuous
 62
               7
100
AcDbCircle
 10
-18.512499999999999
 20
16.887500000000003
 30
0.0
 40
0.2550000000000001
  0
CIRCLE
  5
C5
100
AcDbEntity
  8
None
370
               9
390
0
  6
Continuous
 62
               7
100
AcDbCircle
 10
-17.512499999999999
 20
16.887500000000003
 30
0.0
 40
0.2550000000000001
  0
CIRCLE
  5
C6
100
AcDbEntity
  8
None
370
               9
390
0
  6
Continuous
 62
               7
100
AcDbCircle
 10
-16.512500000000003
 20
16.887500000000003
 30
0.0
 40
0.2550000000000001
  0
CIRCLE
  5
C7
100
AcDbEntity
  8
None
370
               9
390
0
  6
Continuous
 62
               7
100
AcDbCircle
 10
-15.512500000000006
 20
16.887500000000003
 30
0.0
 40
0.2550000000000001
  0
CIRCLE
  5
C8
100
AcDbEntity
  8
None
370
               9
390
0
  6
Continuous
 62
               7
100
AcDbCircle
 10
-14.51250000000001
 20
16.887500000000003
 30
0.0
 40
0.2550000000000001
  0
CIRCLE
  5
C9
100
AcDbEntity
  8
None
370
               9
390
0
  6
Continuous
 62
               7
100
AcDbCircle
 10
-13.512500000000017
 20
16.887500000000003
 30
0.0
 40
0.254999999999997
  0
CIRCLE
  5
CA
100
AcDbEntity
  8
None
370
               9
390
0
  6
Continuous
 62
               7
100
AcDbCircle
 10
-12.512500000000021
 20
16.887500000000003
 30
0.0
 40
0.254999999999997
  0
CIRCLE
  5
CB
100
AcDbEntity
  8
None
370
               9
390
0
  6
Continuous
 62
               7
100
AcDbCircle
 10
-11.512500000000024
 20
16.887500000000003
 30
0.0
 40
0.254999999999997
  0
CIRCLE
  5
CC
100
AcDbEntity
  8
None
370
               9
390
0
  6
Continuous
 62
               7
100
AcDbCircle
 10
-10.512500000000024
 20
16.887500000000003
 30
0.0
 40
0.2550000000000001
  0
CIRCLE
  5
CD
100
AcDbEntity
  8
None
370
               9
390
0
  6
Continuous
 62
               7
100
AcDbCircle
 10
-9.5125000000000224
 20
16.887500000000003
 30
0.0
 40
0.2550000000000001
  0
CIRCLE
  5
CE
100
AcDbEntity
  8
None
370
               9
390
0
  6
Continuous
 62
               7
100
AcDbCircle
 10
-8.5125000000000224
 20
16.887500000000003
 30
0.0
 40
0.2550000000000001
  0
CIRCLE
  5
CF
100
AcDbEntity
  8
None
370
               9
390
0
  6
Continuous
 62
               7
100
AcDbCircle
 10
-7.5125000000000224
 20
16.887500000000003
 30
0.0
 40
0.2550000000000001
  0
CIRCLE
  5
D0
100
AcDbEntity
  8
None
370
               9
390
0
  6
Continuous
 62
               7
100
AcDbCircle
 10
-6.5125000000000224
 20
16.887500000000003
 30
0.0
 40
0.2550000000000001
  0
CIRCLE
  5
D1
100
AcDbEntity
  8
None
370
               9
390
0
  6
Continuous
 62
               7
100
AcDbCircle
 10
-5.5125000000000224
 20
16.887500000000003
 30
0.0
 40
0.2550000000000001
  0
CIRCLE
  5
D2
100
AcDbEntity
  8
None
370
               9
390
0
  6
Continuous
 62
               7
100
AcDbCircle
 10
-4.5125000000000224
 20
16.887500000000003
 30
0.0
 40
0.2550000000000001
  0
CIRCLE
  5
D3
100
AcDbEntity
  8
None
370
               9
390
0
  6
Continuous
 62
               7
100
AcDbCircle
 10
-3.5125000000000228
 20
16.887500000000003
 30
0.0
 40
0.2550000000000001
  0
CIRCLE
  5
D4
100
AcDbEntity
  8
None
370
               9
390
0
  6
Continuous
 62
               7
100
AcDbCircle
 10
-2.5125000000000233
 20
16.887500000000003
 30
0.0
 40
0.2550000000000001
  0
CIRCLE
  5
D5
100
AcDbEntity
  8
None
370
               9
390
0
  6
Continuous
 62
               7
100
AcDbCircle
 10
-1.5125000000000233
 20
16.887500000000003
 30
0.0
 40
0.2550000000000001
  0
CIRCLE
  5
D6
100
AcDbEntity
  8
None
370
               9
390
0
  6
Continuous
 62
               7
100
AcDbCircle
 10
-0.5125000000000206
 20
16.887500000000003
 30
0.0
 40
0.2550000000000009
  0
CIRCLE
  5
D7
100
AcDbEntity
  8
None
370
               9
390
0
  6
Continuous
 62
               7
100
AcDbCircle
 10
0.4874999999999838
 20
16.887500000000003
 30
0.0
 40
0.2550000000000009
  0
CIRCLE
  5
D8
100
AcDbEntity
  8
None
370
               9
390
0
  6
Continuous
 62
               7
100
AcDbCircle
 10
1.4874999999999874
 20
16.887500000000003
 30
0.0
 40
0.2550000000000009
  0
CIRCLE
  5
D9
100
AcDbEntity
  8
None
370
               9
390
0
  6
Continuous
 62
               7
100
AcDbCircle
 10
2.4874999999999918
 20
16.887500000000003
 30
0.0
 40
0.2550000000000009
  0
CIRCLE
  5
DA
100
AcDbEntity
  8
None
370
               9
390
0
  6
Continuous
 62
               7
100
AcDbCircle
 10
3.4874999999999954
 20
16.887500000000003
 30
0.0
 40
0.2550000000000009
  0
CIRCLE
  5
DB
100
AcDbEntity
  8
None
370
               9
390
0
  6
Continuous
 62
               7
100
AcDbCircle
 10
4.4874999999999989
 20
16.887500000000003
 30
0.0
 40
0.2550000000000009
  0
CIRCLE
  5
DC
100
AcDbEntity
  8
None
370
               9
390
0
  6
Continuous
 62
               7
100
AcDbCircle
 10
5.4874999999999998
 20
16.887500000000003
 30
0.0
 40
0.2550000000000001
  0
CIRCLE
  5
DD
100
AcDbEntity
  8
None
370
               9
390
0
  6
Continuous
 62
               7
100
AcDbCircle
 10
6.4874999999999998
 20
16.887500000000003
 30
0.0
 40
0.2550000000000001
  0
CIRCLE
  5
DE
100
AcDbEntity
  8
None
370
               9
390
0
  6
Continuous
 62
               7
100
AcDbCircle
 10
7.487499999999998
 20
16.887500000000003
 30
0.0
 40
0.254999999999997
  0
CIRCLE
  5
DF
100
AcDbEntity
  8
None
370
               9
390
0
  6
Continuous
 62
               7
100
AcDbCircle
 10
8.4874999999999972
 20
16.887500000000003
 30
0.0
 40
0.254999999999997
  0
CIRCLE
  5
E0
100
AcDbEntity
  8
None
370
               9
390
0
  6
Continuous
 62
               7
100
AcDbCircle
 10
9.4874999999999972
 20
16.887500000000003
 30
0.0
 40
0.254999999999997
  0
CIRCLE
  5
E1
100
AcDbEntity
  8
None
370
               9
390
0
  6
Continuous
 62
               7
100
AcDbCircle
 10
10.487499999999997
 20
16.887500000000003
 30
0.0
 40
0.254999999999997
  0
CIRCLE
  5
E2
100
AcDbEntity
  8
None
370
               9
390
0
  6
Continuous
 62
               7
100
AcDbCircle
 10
11.487499999999997
 20
16.887500000000003
 30
0.0
 40
0.254999999999997
  0
CIRCLE
  5
E3
100
AcDbEntity
  8
None
370
               9
390
0
  6
Continuous
 62
               7
100
AcDbCircle
 10
12.487499999999997
 20
16.887500000000003
 30
0.0
 40
0.254999999999997
  0
CIRCLE
  5
E4
100
AcDbEntity
  8
None
370
               9
390
0
  6
Continuous
 62
               7
100
AcDbCircle
 10
13.487499999999997
 20
16.887500000000003
 30
0.0
 40
0.254999999999997
  0
CIRCLE
  5
E5
100
AcDbEntity
  8
None
370
               9
390
0
  6
Continuous
 62
               7
100
AcDbCircle
 10
14.487499999999997
 20
16.887500000000003
 30
0.0
 40
0.254999999999997
  0
CIRCLE
  5
E6
100
AcDbEntity
  8
None
370
               9
390
0
  6
Continuous
 62
               7
100
AcDbCircle
 10
-20.512500000000003
 20
15.887500000000003
 30
0.0
 40
0.2550000000000001
  0
CIRCLE
  5
E7
100
AcDbEntity
  8
None
370
               9
390
0
  6
Continuous
 62
               7
100
AcDbCircle
 10
-19.512500000000003
 20
15.887500000000003
 30
0.0
 40
0.2550000000000001
  0
CIRCLE
  5
E8
100
AcDbEntity
  8
None
370
               9
390
0
  6
Continuous
 62
               7
100
AcDbCircle
 10
-18.512499999999999
 20
15.887500000000003
 30
0.0
 40
0.2550000000000001
  0
CIRCLE
  5
E9
100
AcDbEntity
  8
None
370
               9
390
0
  6
Continuous
 62
               7
100
AcDbCircle
 10
-17.512499999999999
 20
15.887500000000003
 30
0.0
 40
0.2550000000000001
  0
CIRCLE
  5
EA
100
AcDbEntity
  8
None
370
               9
390
0
  6
Continuous
 62
               7
100
AcDbCircle
 10
-16.512500000000003
 20
15.887500000000003
 30
0.0
 40
0.2550000000000001
  0
CIRCLE
  5
EB
100
AcDbEntity
  8
None
370
               9
390
0
  6
Continuous
 62
               7
100
AcDbCircle
 10
-15.512500000000006
 20
15.887500000000003
 30
0.0
 40
0.2550000000000001
  0
CIRCLE
  5
EC
100
AcDbEntity
  8
None
370
               9
390
0
  6
Continuous
 62
               7
100
AcDbCircle
 10
-14.51250000000001
 20
15.887500000000003
 30
0.0
 40
0.2550000000000001
  0
CIRCLE
  5
ED
100
AcDbEntity
  8
None
370
               9
390
0
  6
Continuous
 62
               7
100
AcDbCircle
 10
-13.512500000000017
 20
15.887500000000003
 30
0.0
 40
0.254999999999997
  0
CIRCLE
  5
EE
100
AcDbEntity
  8
None
370
               9
390
0
  6
Continuous
 62
               7
100
AcDbCircle
 10
-12.512500000000021
 20
15.887500000000003
 30
0.0
 40
0.254999999999997
  0
CIRCLE
  5
EF
100
AcDbEntity
  8
None
370
               9
390
0
  6
Continuous
 62
               7
100
AcDbCircle
 10
-11.512500000000024
 20
15.887500000000003
 30
0.0
 40
0.254999999999997
  0
CIRCLE
  5
F0
100
AcDbEntity
  8
None
370
               9
390
0
  6
Continuous
 62
               7
100
AcDbCircle
 10
-10.512500000000024
 20
15.887500000000003
 30
0.0
 40
0.2550000000000001
  0
CIRCLE
  5
F1
100
AcDbEntity
  8
None
370
               9
390
0
  6
Continuous
 62
               7
100
AcDbCircle
 10
-9.5125000000000224
 20
15.887500000000003
 30
0.0
 40
0.2550000000000001
  0
CIRCLE
  5
F2
100
AcDbEntity
  8
None
370
               9
390
0
  6
Continuous
 62
               7
100
AcDbCircle
 10
-8.5125000000000224
 20
15.887500000000003
 30
0.0
 40
0.2550000000000001
  0
CIRCLE
  5
F3
100
AcDbEntity
  8
None
370
               9
390
0
  6
Continuous
 62
               7
100
AcDbCircle
 10
-7.5125000000000224
 20
15.887500000000003
 30
0.0
 40
0.2550000000000001
  0
CIRCLE
  5
F4
100
AcDbEntity
  8
None
370
               9
390
0
  6
Continuous
 62
               7
100
AcDbCircle
 10
-6.5125000000000224
 20
15.887500000000003
 30
0.0
 40
0.2550000000000001
  0
CIRCLE
  5
F5
100
AcDbEntity
  8
None
370
               9
390
0
  6
Continuous
 62
               7
100
AcDbCircle
 10
-5.5125000000000224
 20
15.887500000000003
 30
0.0
 40
0.2550000000000001
  0
CIRCLE
  5
F6
100
AcDbEntity
  8
None
370
               9
390
0
  6
Continuous
 62
               7
100
AcDbCircle
 10
-4.5125000000000224
 20
15.887500000000003
 30
0.0
 40
0.2550000000000001
  0
CIRCLE
  5
F7
100
AcDbEntity
  8
None
370
               9
390
0
  6
Continuous
 62
               7
100
AcDbCircle
 10
-3.5125000000000228
 20
15.887500000000003
 30
0.0
 40
0.2550000000000001
  0
CIRCLE
  5
F8
100
AcDbEntity
  8
None
370
               9
390
0
  6
Continuous
 62
               7
100
AcDbCircle
 10
-2.5125000000000233
 20
15.887500000000003
 30
0.0
 40
0.2550000000000001
  0
CIRCLE
  5
F9
100
AcDbEntity
  8
None
370
               9
390
0
  6
Continuous
 62
               7
100
AcDbCircle
 10
-1.5125000000000233
 20
15.887500000000003
 30
0.0
 40
0.2550000000000001
  0
CIRCLE
  5
FA
100
AcDbEntity
  8
None
370
               9
390
0
  6
Continuous
 62
               7
100
AcDbCircle
 10
-0.5125000000000206
 20
15.887500000000003
 30
0.0
 40
0.2550000000000009
  0
CIRCLE
  5
FB
100
AcDbEntity
  8
None
370
               9
390
0
  6
Continuous
 62
               7
100
AcDbCircle
 10
0.4874999999999838
 20
15.887500000000003
 30
0.0
 40
0.2550000000000009
  0
CIRCLE
  5
FC
100
AcDbEntity
  8
None
370
               9
390
0
  6
Continuous
 62
               7
100
AcDbCircle
 10
1.4874999999999874
 20
15.887500000000003
 30
0.0
 40
0.2550000000000009
  0
CIRCLE
  5
FD
100
AcDbEntity
  8
None
370
               9
390
0
  6
Continuous
 62
               7
100
AcDbCircle
 10
2.4874999999999918
 20
15.887500000000003
 30
0.0
 40
0.2550000000000009
  0
CIRCLE
  5
FE
100
AcDbEntity
  8
None
370
               9
390
0
  6
Continuous
 62
               7
100
AcDbCircle
 10
3.4874999999999954
 20
15.887500000000003
 30
0.0
 40
0.2550000000000009
  0
CIRCLE
  5
FF
100
AcDbEntity
  8
None
370
               9
390
0
  6
Continuous
 62
               7
100
AcDbCircle
 10
4.4874999999999989
 20
15.887500000000003
 30
0.0
 40
0.2550000000000009
  0
CIRCLE
  5
100
100
AcDbEntity
  8
None
370
               9
390
0
  6
Continuous
 62
               7
100
AcDbCircle
 10
5.4874999999999998
 20
15.887500000000003
 30
0.0
 40
0.2550000000000001
  0
CIRCLE
  5
101
100
AcDbEntity
  8
None
370
               9
390
0
  6
Continuous
 62
               7
100
AcDbCircle
 10
6.4874999999999998
 20
15.887500000000003
 30
0.0
 40
0.2550000000000001
  0
CIRCLE
  5
102
100
AcDbEntity
  8
None
370
               9
390
0
  6
Continuous
 62
               7
100
AcDbCircle
 10
7.487499999999998
 20
15.887500000000003
 30
0.0
 40
0.254999999999997
  0
CIRCLE
  5
103
100
AcDbEntity
  8
None
370
               9
390
0
  6
Continuous
 62
               7
100
AcDbCircle
 10
8.4874999999999972
 20
15.887500000000003
 30
0.0
 40
0.254999999999997
  0
CIRCLE
  5
104
100
AcDbEntity
  8
None
370
               9
390
0
  6
Continuous
 62
               7
100
AcDbCircle
 10
9.4874999999999972
 20
15.887500000000003
 30
0.0
 40
0.254999999999997
  0
CIRCLE
  5
105
100
AcDbEntity
  8
None
370
               9
390
0
  6
Continuous
 62
               7
100
AcDbCircle
 10
10.487499999999997
 20
15.887500000000003
 30
0.0
 40
0.254999999999997
  0
CIRCLE
  5
106
100
AcDbEntity
  8
None
370
               9
390
0
  6
Continuous
 62
               7
100
AcDbCircle
 10
11.487499999999997
 20
15.887500000000003
 30
0.0
 40
0.254999999999997
  0
CIRCLE
  5
107
100
AcDbEntity
  8
None
370
               9
390
0
  6
Continuous
 62
               7
100
AcDbCircle
 10
12.487499999999997
 20
15.887500000000003
 30
0.0
 40
0.254999999999997
  0
CIRCLE
  5
108
100
AcDbEntity
  8
None
370
               9
390
0
  6
Continuous
 62
               7
100
AcDbCircle
 10
13.487499999999997
 20
15.887500000000003
 30
0.0
 40
0.254999999999997
  0
CIRCLE
  5
109
100
AcDbEntity
  8
None
370
               9
390
0
  6
Continuous
 62
               7
100
AcDbCircle
 10
14.487499999999997
 20
15.887500000000003
 30
0.0
 40
0.254999999999997
  0
CIRCLE
  5
10A
100
AcDbEntity
  8
None
370
               9
390
0
  6
Continuous
 62
               7
100
AcDbCircle
 10
-20.512500000000003
 20
14.887500000000003
 30
0.0
 40
0.2550000000000001
  0
CIRCLE
  5
10B
100
AcDbEntity
  8
None
370
               9
390
0
  6
Continuous
 62
               7
100
AcDbCircle
 10
-19.512500000000003
 20
14.887500000000003
 30
0.0
 40
0.2550000000000001
  0
CIRCLE
  5
10C
100
AcDbEntity
  8
None
370
               9
390
0
  6
Continuous
 62
               7
100
AcDbCircle
 10
-18.512499999999999
 20
14.887500000000003
 30
0.0
 40
0.2550000000000001
  0
CIRCLE
  5
10D
100
AcDbEntity
  8
None
370
               9
390
0
  6
Continuous
 62
               7
100
AcDbCircle
 10
-17.512499999999999
 20
14.887500000000003
 30
0.0
 40
0.2550000000000001
  0
CIRCLE
  5
10E
100
AcDbEntity
  8
None
370
               9
390
0
  6
Continuous
 62
               7
100
AcDbCircle
 10
-16.512500000000003
 20
14.887500000000003
 30
0.0
 40
0.2550000000000001
  0
CIRCLE
  5
10F
100
AcDbEntity
  8
None
370
               9
390
0
  6
Continuous
 62
               7
100
AcDbCircle
 10
-15.512500000000006
 20
14.887500000000003
 30
0.0
 40
0.2550000000000001
  0
CIRCLE
  5
110
100
AcDbEntity
  8
None
370
               9
390
0
  6
Continuous
 62
               7
100
AcDbCircle
 10
-14.51250000000001
 20
14.887500000000003
 30
0.0
 40
0.2550000000000001
  0
CIRCLE
  5
111
100
AcDbEntity
  8
None
370
               9
390
0
  6
Continuous
 62
               7
100
AcDbCircle
 10
-13.512500000000017
 20
14.887500000000003
 30
0.0
 40
0.254999999999997
  0
CIRCLE
  5
112
100
AcDbEntity
  8
None
370
               9
390
0
  6
Continuous
 62
               7
100
AcDbCircle
 10
-12.512500000000021
 20
14.887500000000003
 30
0.0
 40
0.254999999999997
  0
CIRCLE
  5
113
100
AcDbEntity
  8
None
370
               9
390
0
  6
Continuous
 62
               7
100
AcDbCircle
 10
-11.512500000000024
 20
14.887500000000003
 30
0.0
 40
0.254999999999997
  0
CIRCLE
  5
114
100
AcDbEntity
  8
None
370
               9
390
0
  6
Continuous
 62
               7
100
AcDbCircle
 10
-10.512500000000024
 20
14.887500000000003
 30
0.0
 40
0.2550000000000001
  0
CIRCLE
  5
115
100
AcDbEntity
  8
None
370
               9
390
0
  6
Continuous
 62
               7
100
AcDbCircle
 10
-9.5125000000000224
 20
14.887500000000003
 30
0.0
 40
0.2550000000000001
  0
CIRCLE
  5
116
100
AcDbEntity
  8
None
370
               9
390
0
  6
Continuous
 62
               7
100
AcDbCircle
 10
-8.5125000000000224
 20
14.887500000000003
 30
0.0
 40
0.2550000000000001
  0
CIRCLE
  5
117
100
AcDbEntity
  8
None
370
               9
390
0
  6
Continuous
 62
               7
100
AcDbCircle
 10
-7.5125000000000224
 20
14.887500000000003
 30
0.0
 40
0.2550000000000001
  0
CIRCLE
  5
118
100
AcDbEntity
  8
None
370
               9
390
0
  6
Continuous
 62
               7
100
AcDbCircle
 10
-6.5125000000000224
 20
14.887500000000003
 30
0.0
 40
0.2550000000000001
  0
CIRCLE
  5
119
100
AcDbEntity
  8
None
370
               9
390
0
  6
Continuous
 62
               7
100
AcDbCircle
 10
-5.5125000000000224
 20
14.887500000000003
 30
0.0
 40
0.2550000000000001
  0
CIRCLE
  5
11A
100
AcDbEntity
  8
None
370
               9
390
0
  6
Continuous
 62
               7
100
AcDbCircle
 10
-4.5125000000000224
 20
14.887500000000003
 30
0.0
 40
0.2550000000000001
  0
CIRCLE
  5
11B
100
AcDbEntity
  8
None
370
               9
390
0
  6
Continuous
 62
               7
100
AcDbCircle
 10
-3.5125000000000228
 20
14.887500000000003
 30
0.0
 40
0.2550000000000001
  0
CIRCLE
  5
11C
100
AcDbEntity
  8
None
370
               9
390
0
  6
Continuous
 62
               7
100
AcDbCircle
 10
-2.5125000000000233
 20
14.887500000000003
 30
0.0
 40
0.2550000000000001
  0
CIRCLE
  5
11D
100
AcDbEntity
  8
None
370
               9
390
0
  6
Continuous
 62
               7
100
AcDbCircle
 10
-1.5125000000000233
 20
14.887500000000003
 30
0.0
 40
0.2550000000000001
  0
CIRCLE
  5
11E
100
AcDbEntity
  8
None
370
               9
390
0
  6
Continuous
 62
               7
100
AcDbCircle
 10
-0.5125000000000206
 20
14.887500000000003
 30
0.0
 40
0.2550000000000009
  0
CIRCLE
  5
11F
100
AcDbEntity
  8
None
370
               9
390
0
  6
Continuous
 62
               7
100
AcDbCircle
 10
0.4874999999999838
 20
14.887500000000003
 30
0.0
 40
0.2550000000000009
  0
CIRCLE
  5
120
100
AcDbEntity
  8
None
370
               9
390
0
  6
Continuous
 62
               7
100
AcDbCircle
 10
1.4874999999999874
 20
14.887500000000003
 30
0.0
 40
0.2550000000000009
  0
CIRCLE
  5
121
100
AcDbEntity
  8
None
370
               9
390
0
  6
Continuous
 62
               7
100
AcDbCircle
 10
2.4874999999999918
 20
14.887500000000003
 30
0.0
 40
0.2550000000000009
  0
CIRCLE
  5
122
100
AcDbEntity
  8
None
370
               9
390
0
  6
Continuous
 62
               7
100
AcDbCircle
 10
3.4874999999999954
 20
14.887500000000003
 30
0.0
 40
0.2550000000000009
  0
CIRCLE
  5
123
100
AcDbEntity
  8
None
370
               9
390
0
  6
Continuous
 62
               7
100
AcDbCircle
 10
4.4874999999999989
 20
14.887500000000003
 30
0.0
 40
0.2550000000000009
  0
CIRCLE
  5
124
100
AcDbEntity
  8
None
370
               9
390
0
  6
Continuous
 62
               7
100
AcDbCircle
 10
5.4874999999999998
 20
14.887500000000003
 30
0.0
 40
0.2550000000000001
  0
CIRCLE
  5
125
100
AcDbEntity
  8
None
370
               9
390
0
  6
Continuous
 62
               7
100
AcDbCircle
 10
6.4874999999999998
 20
14.887500000000003
 30
0.0
 40
0.2550000000000001
  0
CIRCLE
  5
126
100
AcDbEntity
  8
None
370
               9
390
0
  6
Continuous
 62
               7
100
AcDbCircle
 10
7.487499999999998
 20
14.887500000000003
 30
0.0
 40
0.254999999999997
  0
CIRCLE
  5
127
100
AcDbEntity
  8
None
370
               9
390
0
  6
Continuous
 62
               7
100
AcDbCircle
 10
8.4874999999999972
 20
14.887500000000003
 30
0.0
 40
0.254999999999997
  0
CIRCLE
  5
128
100
AcDbEntity
  8
None
370
               9
390
0
  6
Continuous
 62
               7
100
AcDbCircle
 10
9.4874999999999972
 20
14.887500000000003
 30
0.0
 40
0.254999999999997
  0
CIRCLE
  5
129
100
AcDbEntity
  8
None
370
               9
390
0
  6
Continuous
 62
               7
100
AcDbCircle
 10
10.487499999999997
 20
14.887500000000003
 30
0.0
 40
0.254999999999997
  0
CIRCLE
  5
12A
100
AcDbEntity
  8
None
370
               9
390
0
  6
Continuous
 62
               7
100
AcDbCircle
 10
11.487499999999997
 20
14.887500000000003
 30
0.0
 40
0.254999999999997
  0
CIRCLE
  5
12B
100
AcDbEntity
  8
None
370
               9
390
0
  6
Continuous
 62
               7
100
AcDbCircle
 10
12.487499999999997
 20
14.887500000000003
 30
0.0
 40
0.254999999999997
  0
CIRCLE
  5
12C
100
AcDbEntity
  8
None
370
               9
390
0
  6
Continuous
 62
               7
100
AcDbCircle
 10
13.487499999999997
 20
14.887500000000003
 30
0.0
 40
0.254999999999997
  0
CIRCLE
  5
12D
100
AcDbEntity
  8
None
370
               9
390
0
  6
Continuous
 62
               7
100
AcDbCircle
 10
14.487499999999997
 20
14.887500000000003
 30
0.0
 40
0.254999999999997
  0
CIRCLE
  5
12E
100
AcDbEntity
  8
None
370
               9
390
0
  6
Continuous
 62
               7
100
AcDbCircle
 10
-20.512500000000003
 20
13.887500000000003
 30
0.0
 40
0.2550000000000001
  0
CIRCLE
  5
12F
100
AcDbEntity
  8
None
370
               9
390
0
  6
Continuous
 62
               7
100
AcDbCircle
 10
-19.512500000000003
 20
13.887500000000003
 30
0.0
 40
0.2550000000000001
  0
CIRCLE
  5
130
100
AcDbEntity
  8
None
370
               9
390
0
  6
Continuous
 62
               7
100
AcDbCircle
 10
-18.512499999999999
 20
13.887500000000003
 30
0.0
 40
0.2550000000000001
  0
CIRCLE
  5
131
100
AcDbEntity
  8
None
370
               9
390
0
  6
Continuous
 62
               7
100
AcDbCircle
 10
-17.512499999999999
 20
13.887500000000003
 30
0.0
 40
0.2550000000000001
  0
CIRCLE
  5
132
100
AcDbEntity
  8
None
370
               9
390
0
  6
Continuous
 62
               7
100
AcDbCircle
 10
-16.512500000000003
 20
13.887500000000003
 30
0.0
 40
0.2550000000000001
  0
CIRCLE
  5
133
100
AcDbEntity
  8
None
370
               9
390
0
  6
Continuous
 62
               7
100
AcDbCircle
 10
-15.512500000000006
 20
13.887500000000003
 30
0.0
 40
0.2550000000000001
  0
CIRCLE
  5
134
100
AcDbEntity
  8
None
370
               9
390
0
  6
Continuous
 62
               7
100
AcDbCircle
 10
-14.51250000000001
 20
13.887500000000003
 30
0.0
 40
0.2550000000000001
  0
CIRCLE
  5
135
100
AcDbEntity
  8
None
370
               9
390
0
  6
Continuous
 62
               7
100
AcDbCircle
 10
-13.512500000000017
 20
13.887500000000003
 30
0.0
 40
0.254999999999997
  0
CIRCLE
  5
136
100
AcDbEntity
  8
None
370
               9
390
0
  6
Continuous
 62
               7
100
AcDbCircle
 10
-12.512500000000021
 20
13.887500000000003
 30
0.0
 40
0.254999999999997
  0
CIRCLE
  5
137
100
AcDbEntity
  8
None
370
               9
390
0
  6
Continuous
 62
               7
100
AcDbCircle
 10
-11.512500000000024
 20
13.887500000000003
 30
0.0
 40
0.254999999999997
  0
CIRCLE
  5
138
100
AcDbEntity
  8
None
370
               9
390
0
  6
Continuous
 62
               7
100
AcDbCircle
 10
-10.512500000000024
 20
13.887500000000003
 30
0.0
 40
0.2550000000000001
  0
CIRCLE
  5
139
100
AcDbEntity
  8
None
370
               9
390
0
  6
Continuous
 62
               7
100
AcDbCircle
 10
-9.5125000000000224
 20
13.887500000000003
 30
0.0
 40
0.2550000000000001
  0
CIRCLE
  5
13A
100
AcDbEntity
  8
None
370
               9
390
0
  6
Continuous
 62
               7
100
AcDbCircle
 10
-8.5125000000000224
 20
13.887500000000003
 30
0.0
 40
0.2550000000000001
  0
CIRCLE
  5
13B
100
AcDbEntity
  8
None
370
               9
390
0
  6
Continuous
 62
               7
100
AcDbCircle
 10
-7.5125000000000224
 20
13.887500000000003
 30
0.0
 40
0.2550000000000001
  0
CIRCLE
  5
13C
100
AcDbEntity
  8
None
370
               9
390
0
  6
Continuous
 62
               7
100
AcDbCircle
 10
-6.5125000000000224
 20
13.887500000000003
 30
0.0
 40
0.2550000000000001
  0
CIRCLE
  5
13D
100
AcDbEntity
  8
None
370
               9
390
0
  6
Continuous
 62
               7
100
AcDbCircle
 10
-5.5125000000000224
 20
13.887500000000003
 30
0.0
 40
0.2550000000000001
  0
CIRCLE
  5
13E
100
AcDbEntity
  8
None
370
               9
390
0
  6
Continuous
 62
               7
100
AcDbCircle
 10
-4.5125000000000224
 20
13.887500000000003
 30
0.0
 40
0.2550000000000001
  0
CIRCLE
  5
13F
100
AcDbEntity
  8
None
370
               9
390
0
  6
Continuous
 62
               7
100
AcDbCircle
 10
-3.5125000000000228
 20
13.887500000000003
 30
0.0
 40
0.2550000000000001
  0
CIRCLE
  5
140
100
AcDbEntity
  8
None
370
               9
390
0
  6
Continuous
 62
               7
100
AcDbCircle
 10
-2.5125000000000233
 20
13.887500000000003
 30
0.0
 40
0.2550000000000001
  0
CIRCLE
  5
141
100
AcDbEntity
  8
None
370
               9
390
0
  6
Continuous
 62
               7
100
AcDbCircle
 10
-1.5125000000000233
 20
13.887500000000003
 30
0.0
 40
0.2550000000000001
  0
CIRCLE
  5
142
100
AcDbEntity
  8
None
370
               9
390
0
  6
Continuous
 62
               7
100
AcDbCircle
 10
-0.5125000000000206
 20
13.887500000000003
 30
0.0
 40
0.2550000000000009
  0
CIRCLE
  5
143
100
AcDbEntity
  8
None
370
               9
390
0
  6
Continuous
 62
               7
100
AcDbCircle
 10
0.4874999999999838
 20
13.887500000000003
 30
0.0
 40
0.2550000000000009
  0
CIRCLE
  5
144
100
AcDbEntity
  8
None
370
               9
390
0
  6
Continuous
 62
               7
100
AcDbCircle
 10
1.4874999999999874
 20
13.887500000000003
 30
0.0
 40
0.2550000000000009
  0
CIRCLE
  5
145
100
AcDbEntity
  8
None
370
               9
390
0
  6
Continuous
 62
               7
100
AcDbCircle
 10
2.4874999999999918
 20
13.887500000000003
 30
0.0
 40
0.2550000000000009
  0
CIRCLE
  5
146
100
AcDbEntity
  8
None
370
               9
390
0
  6
Continuous
 62
               7
100
AcDbCircle
 10
3.4874999999999954
 20
13.887500000000003
 30
0.0
 40
0.2550000000000009
  0
CIRCLE
  5
147
100
AcDbEntity
  8
None
370
               9
390
0
  6
Continuous
 62
               7
100
AcDbCircle
 10
4.4874999999999989
 20
13.887500000000003
 30
0.0
 40
0.2550000000000009
  0
CIRCLE
  5
148
100
AcDbEntity
  8
None
370
               9
390
0
  6
Continuous
 62
               7
100
AcDbCircle
 10
5.4874999999999998
 20
13.887500000000003
 30
0.0
 40
0.2550000000000001
  0
CIRCLE
  5
149
100
AcDbEntity
  8
None
370
               9
390
0
  6
Continuous
 62
               7
100
AcDbCircle
 10
6.4874999999999998
 20
13.887500000000003
 30
0.0
 40
0.2550000000000001
  0
CIRCLE
  5
14A
100
AcDbEntity
  8
None
370
               9
390
0
  6
Continuous
 62
               7
100
AcDbCircle
 10
7.487499999999998
 20
13.887500000000003
 30
0.0
 40
0.254999999999997
  0
CIRCLE
  5
14B
100
AcDbEntity
  8
None
370
               9
390
0
  6
Continuous
 62
               7
100
AcDbCircle
 10
8.4874999999999972
 20
13.887500000000003
 30
0.0
 40
0.254999999999997
  0
CIRCLE
  5
14C
100
AcDbEntity
  8
None
370
               9
390
0
  6
Continuous
 62
               7
100
AcDbCircle
 10
9.4874999999999972
 20
13.887500000000003
 30
0.0
 40
0.254999999999997
  0
CIRCLE
  5
14D
100
AcDbEntity
  8
None
370
               9
390
0
  6
Continuous
 62
               7
100
AcDbCircle
 10
10.487499999999997
 20
13.887500000000003
 30
0.0
 40
0.254999999999997
  0
CIRCLE
  5
14E
100
AcDbEntity
  8
None
370
               9
390
0
  6
Continuous
 62
               7
100
AcDbCircle
 10
11.487499999999997
 20
13.887500000000003
 30
0.0
 40
0.254999999999997
  0
CIRCLE
  5
14F
100
AcDbEntity
  8
None
370
               9
390
0
  6
Continuous
 62
               7
100
AcDbCircle
 10
12.487499999999997
 20
13.887500000000003
 30
0.0
 40
0.254999999999997
  0
CIRCLE
  5
150
100
AcDbEntity
  8
None
370
               9
390
0
  6
Continuous
 62
               7
100
AcDbCircle
 10
13.487499999999997
 20
13.887500000000003
 30
0.0
 40
0.254999999999997
  0
CIRCLE
  5
151
100
AcDbEntity
  8
None
370
               9
390
0
  6
Continuous
 62
               7
100
AcDbCircle
 10
14.487499999999997
 20
13.887500000000003
 30
0.0
 40
0.254999999999997
  0
CIRCLE
  5
152
100
AcDbEntity
  8
None
370
               9
390
0
  6
Continuous
 62
               7
100
AcDbCircle
 10
-20.512500000000003
 20
12.887500000000003
 30
0.0
 40
0.2550000000000001
  0
CIRCLE
  5
153
100
AcDbEntity
  8
None
370
               9
390
0
  6
Continuous
 62
               7
100
AcDbCircle
 10
-19.512500000000003
 20
12.887500000000003
 30
0.0
 40
0.2550000000000001
  0
CIRCLE
  5
154
100
AcDbEntity
  8
None
370
               9
390
0
  6
Continuous
 62
               7
100
AcDbCircle
 10
-18.512499999999999
 20
12.887500000000003
 30
0.0
 40
0.2550000000000001
  0
CIRCLE
  5
155
100
AcDbEntity
  8
None
370
               9
390
0
  6
Continuous
 62
               7
100
AcDbCircle
 10
-17.512499999999999
 20
12.887500000000003
 30
0.0
 40
0.2550000000000001
  0
CIRCLE
  5
156
100
AcDbEntity
  8
None
370
               9
390
0
  6
Continuous
 62
               7
100
AcDbCircle
 10
-16.512500000000003
 20
12.887500000000003
 30
0.0
 40
0.2550000000000001
  0
CIRCLE
  5
157
100
AcDbEntity
  8
None
370
               9
390
0
  6
Continuous
 62
               7
100
AcDbCircle
 10
-15.512500000000006
 20
12.887500000000003
 30
0.0
 40
0.2550000000000001
  0
CIRCLE
  5
158
100
AcDbEntity
  8
None
370
               9
390
0
  6
Continuous
 62
               7
100
AcDbCircle
 10
-14.51250000000001
 20
12.887500000000003
 30
0.0
 40
0.2550000000000001
  0
CIRCLE
  5
159
100
AcDbEntity
  8
None
370
               9
390
0
  6
Continuous
 62
               7
100
AcDbCircle
 10
-13.512500000000017
 20
12.887500000000003
 30
0.0
 40
0.254999999999997
  0
CIRCLE
  5
15A
100
AcDbEntity
  8
None
370
               9
390
0
  6
Continuous
 62
               7
100
AcDbCircle
 10
-12.512500000000021
 20
12.887500000000003
 30
0.0
 40
0.254999999999997
  0
CIRCLE
  5
15B
100
AcDbEntity
  8
None
370
               9
390
0
  6
Continuous
 62
               7
100
AcDbCircle
 10
-11.512500000000024
 20
12.887500000000003
 30
0.0
 40
0.254999999999997
  0
CIRCLE
  5
15C
100
AcDbEntity
  8
None
370
               9
390
0
  6
Continuous
 62
               7
100
AcDbCircle
 10
-10.512500000000024
 20
12.887500000000003
 30
0.0
 40
0.2550000000000001
  0
CIRCLE
  5
15D
100
AcDbEntity
  8
None
370
               9
390
0
  6
Continuous
 62
               7
100
AcDbCircle
 10
-9.5125000000000224
 20
12.887500000000003
 30
0.0
 40
0.2550000000000001
  0
CIRCLE
  5
15E
100
AcDbEntity
  8
None
370
               9
390
0
  6
Continuous
 62
               7
100
AcDbCircle
 10
-8.5125000000000224
 20
12.887500000000003
 30
0.0
 40
0.2550000000000001
  0
CIRCLE
  5
15F
100
AcDbEntity
  8
None
370
               9
390
0
  6
Continuous
 62
               7
100
AcDbCircle
 10
-7.5125000000000224
 20
12.887500000000003
 30
0.0
 40
0.2550000000000001
  0
CIRCLE
  5
160
100
AcDbEntity
  8
None
370
               9
390
0
  6
Continuous
 62
               7
100
AcDbCircle
 10
-6.5125000000000224
 20
12.887500000000003
 30
0.0
 40
0.2550000000000001
  0
CIRCLE
  5
161
100
AcDbEntity
  8
None
370
               9
390
0
  6
Continuous
 62
               7
100
AcDbCircle
 10
-5.5125000000000224
 20
12.887500000000003
 30
0.0
 40
0.2550000000000001
  0
CIRCLE
  5
162
100
AcDbEntity
  8
None
370
               9
390
0
  6
Continuous
 62
               7
100
AcDbCircle
 10
-4.5125000000000224
 20
12.887500000000003
 30
0.0
 40
0.2550000000000001
  0
CIRCLE
  5
163
100
AcDbEntity
  8
None
370
               9
390
0
  6
Continuous
 62
               7
100
AcDbCircle
 10
-3.5125000000000228
 20
12.887500000000003
 30
0.0
 40
0.2550000000000001
  0
CIRCLE
  5
164
100
AcDbEntity
  8
None
370
               9
390
0
  6
Continuous
 62
               7
100
AcDbCircle
 10
-2.5125000000000233
 20
12.887500000000003
 30
0.0
 40
0.2550000000000001
  0
CIRCLE
  5
165
100
AcDbEntity
  8
None
370
               9
390
0
  6
Continuous
 62
               7
100
AcDbCircle
 10
-1.5125000000000233
 20
12.887500000000003
 30
0.0
 40
0.2550000000000001
  0
CIRCLE
  5
166
100
AcDbEntity
  8
None
370
               9
390
0
  6
Continuous
 62
               7
100
AcDbCircle
 10
-0.5125000000000206
 20
12.887500000000003
 30
0.0
 40
0.2550000000000009
  0
CIRCLE
  5
167
100
AcDbEntity
  8
None
370
               9
390
0
  6
Continuous
 62
               7
100
AcDbCircle
 10
0.4874999999999838
 20
12.887500000000003
 30
0.0
 40
0.2550000000000009
  0
CIRCLE
  5
168
100
AcDbEntity
  8
None
370
               9
390
0
  6
Continuous
 62
               7
100
AcDbCircle
 10
1.4874999999999874
 20
12.887500000000003
 30
0.0
 40
0.2550000000000009
  0
CIRCLE
  5
169
100
AcDbEntity
  8
None
370
               9
390
0
  6
Continuous
 62
               7
100
AcDbCircle
 10
2.4874999999999918
 20
12.887500000000003
 30
0.0
 40
0.2550000000000009
  0
CIRCLE
  5
16A
100
AcDbEntity
  8
None
370
               9
390
0
  6
Continuous
 62
               7
100
AcDbCircle
 10
3.4874999999999954
 20
12.887500000000003
 30
0.0
 40
0.2550000000000009
  0
CIRCLE
  5
16B
100
AcDbEntity
  8
None
370
               9
390
0
  6
Continuous
 62
               7
100
AcDbCircle
 10
4.4874999999999989
 20
12.887500000000003
 30
0.0
 40
0.2550000000000009
  0
CIRCLE
  5
16C
100
AcDbEntity
  8
None
370
               9
390
0
  6
Continuous
 62
               7
100
AcDbCircle
 10
5.4874999999999998
 20
12.887500000000003
 30
0.0
 40
0.2550000000000001
  0
CIRCLE
  5
16D
100
AcDbEntity
  8
None
370
               9
390
0
  6
Continuous
 62
               7
100
AcDbCircle
 10
6.4874999999999998
 20
12.887500000000003
 30
0.0
 40
0.2550000000000001
  0
CIRCLE
  5
16E
100
AcDbEntity
  8
None
370
               9
390
0
  6
Continuous
 62
               7
100
AcDbCircle
 10
7.487499999999998
 20
12.887500000000003
 30
0.0
 40
0.254999999999997
  0
CIRCLE
  5
16F
100
AcDbEntity
  8
None
370
               9
390
0
  6
Continuous
 62
               7
100
AcDbCircle
 10
8.4874999999999972
 20
12.887500000000003
 30
0.0
 40
0.254999999999997
  0
CIRCLE
  5
170
100
AcDbEntity
  8
None
370
               9
390
0
  6
Continuous
 62
               7
100
AcDbCircle
 10
9.4874999999999972
 20
12.887500000000003
 30
0.0
 40
0.254999999999997
  0
CIRCLE
  5
171
100
AcDbEntity
  8
None
370
               9
390
0
  6
Continuous
 62
               7
100
AcDbCircle
 10
10.487499999999997
 20
12.887500000000003
 30
0.0
 40
0.254999999999997
  0
CIRCLE
  5
172
100
AcDbEntity
  8
None
370
               9
390
0
  6
Continuous
 62
               7
100
AcDbCircle
 10
11.487499999999997
 20
12.887500000000003
 30
0.0
 40
0.254999999999997
  0
CIRCLE
  5
173
100
AcDbEntity
  8
None
370
               9
390
0
  6
Continuous
 62
               7
100
AcDbCircle
 10
12.487499999999997
 20
12.887500000000003
 30
0.0
 40
0.254999999999997
  0
CIRCLE
  5
174
100
AcDbEntity
  8
None
370
               9
390
0
  6
Continuous
 62
               7
100
AcDbCircle
 10
13.487499999999997
 20
12.887500000000003
 30
0.0
 40
0.254999999999997
  0
CIRCLE
  5
175
100
AcDbEntity
  8
None
370
               9
390
0
  6
Continuous
 62
               7
100
AcDbCircle
 10
14.487499999999997
 20
12.887500000000003
 30
0.0
 40
0.254999999999997
  0
CIRCLE
  5
176
100
AcDbEntity
  8
None
370
               9
390
0
  6
Continuous
 62
               7
100
AcDbCircle
 10
-20.512500000000003
 20
11.887500000000003
 30
0.0
 40
0.2550000000000001
  0
CIRCLE
  5
177
100
AcDbEntity
  8
None
370
               9
390
0
  6
Continuous
 62
               7
100
AcDbCircle
 10
-19.512500000000003
 20
11.887500000000003
 30
0.0
 40
0.2550000000000001
  0
CIRCLE
  5
178
100
AcDbEntity
  8
None
370
               9
390
0
  6
Continuous
 62
               7
100
AcDbCircle
 10
-18.512499999999999
 20
11.887500000000003
 30
0.0
 40
0.2550000000000001
  0
CIRCLE
  5
179
100
AcDbEntity
  8
None
370
               9
390
0
  6
Continuous
 62
               7
100
AcDbCircle
 10
-17.512499999999999
 20
11.887500000000003
 30
0.0
 40
0.2550000000000001
  0
CIRCLE
  5
17A
100
AcDbEntity
  8
None
370
               9
390
0
  6
Continuous
 62
               7
100
AcDbCircle
 10
-16.512500000000003
 20
11.887500000000003
 30
0.0
 40
0.2550000000000001
  0
CIRCLE
  5
17B
100
AcDbEntity
  8
None
370
               9
390
0
  6
Continuous
 62
               7
100
AcDbCircle
 10
-15.512500000000006
 20
11.887500000000003
 30
0.0
 40
0.2550000000000001
  0
CIRCLE
  5
17C
100
AcDbEntity
  8
None
370
               9
390
0
  6
Continuous
 62
               7
100
AcDbCircle
 10
-14.51250000000001
 20
11.887500000000003
 30
0.0
 40
0.2550000000000001
  0
CIRCLE
  5
17D
100
AcDbEntity
  8
None
370
               9
390
0
  6
Continuous
 62
               7
100
AcDbCircle
 10
-13.512500000000017
 20
11.887500000000003
 30
0.0
 40
0.254999999999997
  0
CIRCLE
  5
17E
100
AcDbEntity
  8
None
370
               9
390
0
  6
Continuous
 62
               7
100
AcDbCircle
 10
-12.512500000000021
 20
11.887500000000003
 30
0.0
 40
0.254999999999997
  0
CIRCLE
  5
17F
100
AcDbEntity
  8
None
370
               9
390
0
  6
Continuous
 62
               7
100
AcDbCircle
 10
-11.512500000000024
 20
11.887500000000003
 30
0.0
 40
0.254999999999997
  0
CIRCLE
  5
180
100
AcDbEntity
  8
None
370
               9
390
0
  6
Continuous
 62
               7
100
AcDbCircle
 10
-10.512500000000024
 20
11.887500000000003
 30
0.0
 40
0.2550000000000001
  0
CIRCLE
  5
181
100
AcDbEntity
  8
None
370
               9
390
0
  6
Continuous
 62
               7
100
AcDbCircle
 10
-9.5125000000000224
 20
11.887500000000003
 30
0.0
 40
0.2550000000000001
  0
CIRCLE
  5
182
100
AcDbEntity
  8
None
370
               9
390
0
  6
Continuous
 62
               7
100
AcDbCircle
 10
-8.5125000000000224
 20
11.887500000000003
 30
0.0
 40
0.2550000000000001
  0
CIRCLE
  5
183
100
AcDbEntity
  8
None
370
               9
390
0
  6
Continuous
 62
               7
100
AcDbCircle
 10
-7.5125000000000224
 20
11.887500000000003
 30
0.0
 40
0.2550000000000001
  0
CIRCLE
  5
184
100
AcDbEntity
  8
None
370
               9
390
0
  6
Continuous
 62
               7
100
AcDbCircle
 10
-6.5125000000000224
 20
11.887500000000003
 30
0.0
 40
0.2550000000000001
  0
CIRCLE
  5
185
100
AcDbEntity
  8
None
370
               9
390
0
  6
Continuous
 62
               7
100
AcDbCircle
 10
-5.5125000000000224
 20
11.887500000000003
 30
0.0
 40
0.2550000000000001
  0
CIRCLE
  5
186
100
AcDbEntity
  8
None
370
               9
390
0
  6
Continuous
 62
               7
100
AcDbCircle
 10
-4.5125000000000224
 20
11.887500000000003
 30
0.0
 40
0.2550000000000001
  0
CIRCLE
  5
187
100
AcDbEntity
  8
None
370
               9
390
0
  6
Continuous
 62
               7
100
AcDbCircle
 10
-3.5125000000000228
 20
11.887500000000003
 30
0.0
 40
0.2550000000000001
  0
CIRCLE
  5
188
100
AcDbEntity
  8
None
370
               9
390
0
  6
Continuous
 62
               7
100
AcDbCircle
 10
-2.5125000000000233
 20
11.887500000000003
 30
0.0
 40
0.2550000000000001
  0
CIRCLE
  5
189
100
AcDbEntity
  8
None
370
               9
390
0
  6
Continuous
 62
               7
100
AcDbCircle
 10
-1.5125000000000233
 20
11.887500000000003
 30
0.0
 40
0.2550000000000001
  0
CIRCLE
  5
18A
100
AcDbEntity
  8
None
370
               9
390
0
  6
Continuous
 62
               7
100
AcDbCircle
 10
-0.5125000000000206
 20
11.887500000000003
 30
0.0
 40
0.2550000000000009
  0
CIRCLE
  5
18B
100
AcDbEntity
  8
None
370
               9
390
0
  6
Continuous
 62
               7
100
AcDbCircle
 10
0.4874999999999838
 20
11.887500000000003
 30
0.0
 40
0.2550000000000009
  0
CIRCLE
  5
18C
100
AcDbEntity
  8
None
370
               9
390
0
  6
Continuous
 62
               7
100
AcDbCircle
 10
1.4874999999999874
 20
11.887500000000003
 30
0.0
 40
0.2550000000000009
  0
CIRCLE
  5
18D
100
AcDbEntity
  8
None
370
               9
390
0
  6
Continuous
 62
               7
100
AcDbCircle
 10
2.4874999999999918
 20
11.887500000000003
 30
0.0
 40
0.2550000000000009
  0
CIRCLE
  5
18E
100
AcDbEntity
  8
None
370
               9
390
0
  6
Continuous
 62
               7
100
AcDbCircle
 10
3.4874999999999954
 20
11.887500000000003
 30
0.0
 40
0.2550000000000009
  0
CIRCLE
  5
18F
100
AcDbEntity
  8
None
370
               9
390
0
  6
Continuous
 62
               7
100
AcDbCircle
 10
4.4874999999999989
 20
11.887500000000003
 30
0.0
 40
0.2550000000000009
  0
CIRCLE
  5
190
100
AcDbEntity
  8
None
370
               9
390
0
  6
Continuous
 62
               7
100
AcDbCircle
 10
5.4874999999999998
 20
11.887500000000003
 30
0.0
 40
0.2550000000000001
  0
CIRCLE
  5
191
100
AcDbEntity
  8
None
370
               9
390
0
  6
Continuous
 62
               7
100
AcDbCircle
 10
6.4874999999999998
 20
11.887500000000003
 30
0.0
 40
0.2550000000000001
  0
CIRCLE
  5
192
100
AcDbEntity
  8
None
370
               9
390
0
  6
Continuous
 62
               7
100
AcDbCircle
 10
7.487499999999998
 20
11.887500000000003
 30
0.0
 40
0.254999999999997
  0
CIRCLE
  5
193
100
AcDbEntity
  8
None
370
               9
390
0
  6
Continuous
 62
               7
100
AcDbCircle
 10
8.4874999999999972
 20
11.887500000000003
 30
0.0
 40
0.254999999999997
  0
CIRCLE
  5
194
100
AcDbEntity
  8
None
370
               9
390
0
  6
Continuous
 62
               7
100
AcDbCircle
 10
9.4874999999999972
 20
11.887500000000003
 30
0.0
 40
0.254999999999997
  0
CIRCLE
  5
195
100
AcDbEntity
  8
None
370
               9
390
0
  6
Continuous
 62
               7
100
AcDbCircle
 10
10.487499999999997
 20
11.887500000000003
 30
0.0
 40
0.254999999999997
  0
CIRCLE
  5
196
100
AcDbEntity
  8
None
370
               9
390
0
  6
Continuous
 62
               7
100
AcDbCircle
 10
11.487499999999997
 20
11.887500000000003
 30
0.0
 40
0.254999999999997
  0
CIRCLE
  5
197
100
AcDbEntity
  8
None
370
               9
390
0
  6
Continuous
 62
               7
100
AcDbCircle
 10
12.487499999999997
 20
11.887500000000003
 30
0.0
 40
0.254999999999997
  0
CIRCLE
  5
198
100
AcDbEntity
  8
None
370
               9
390
0
  6
Continuous
 62
               7
100
AcDbCircle
 10
13.487499999999997
 20
11.887500000000003
 30
0.0
 40
0.254999999999997
  0
CIRCLE
  5
199
100
AcDbEntity
  8
None
370
               9
390
0
  6
Continuous
 62
               7
100
AcDbCircle
 10
14.487499999999997
 20
11.887500000000003
 30
0.0
 40
0.254999999999997
  0
CIRCLE
  5
19A
100
AcDbEntity
  8
None
370
               9
390
0
  6
Continuous
 62
               7
100
AcDbCircle
 10
-20.512500000000003
 20
10.887500000000003
 30
0.0
 40
0.2550000000000001
  0
CIRCLE
  5
19B
100
AcDbEntity
  8
None
370
               9
390
0
  6
Continuous
 62
               7
100
AcDbCircle
 10
-19.512500000000003
 20
10.887500000000003
 30
0.0
 40
0.2550000000000001
  0
CIRCLE
  5
19C
100
AcDbEntity
  8
None
370
               9
390
0
  6
Continuous
 62
               7
100
AcDbCircle
 10
-18.512499999999999
 20
10.887500000000003
 30
0.0
 40
0.2550000000000001
  0
CIRCLE
  5
19D
100
AcDbEntity
  8
None
370
               9
390
0
  6
Continuous
 62
               7
100
AcDbCircle
 10
-17.512499999999999
 20
10.887500000000003
 30
0.0
 40
0.2550000000000001
  0
CIRCLE
  5
19E
100
AcDbEntity
  8
None
370
               9
390
0
  6
Continuous
 62
               7
100
AcDbCircle
 10
-16.512500000000003
 20
10.887500000000003
 30
0.0
 40
0.2550000000000001
  0
CIRCLE
  5
19F
100
AcDbEntity
  8
None
370
               9
390
0
  6
Continuous
 62
               7
100
AcDbCircle
 10
-15.512500000000006
 20
10.887500000000003
 30
0.0
 40
0.2550000000000001
  0
CIRCLE
  5
1A0
100
AcDbEntity
  8
None
370
               9
390
0
  6
Continuous
 62
               7
100
AcDbCircle
 10
-14.51250000000001
 20
10.887500000000003
 30
0.0
 40
0.2550000000000001
  0
CIRCLE
  5
1A1
100
AcDbEntity
  8
None
370
               9
390
0
  6
Continuous
 62
               7
100
AcDbCircle
 10
-13.512500000000017
 20
10.887500000000003
 30
0.0
 40
0.254999999999997
  0
CIRCLE
  5
1A2
100
AcDbEntity
  8
None
370
               9
390
0
  6
Continuous
 62
               7
100
AcDbCircle
 10
-12.512500000000021
 20
10.887500000000003
 30
0.0
 40
0.254999999999997
  0
CIRCLE
  5
1A3
100
AcDbEntity
  8
None
370
               9
390
0
  6
Continuous
 62
               7
100
AcDbCircle
 10
-11.512500000000024
 20
10.887500000000003
 30
0.0
 40
0.254999999999997
  0
CIRCLE
  5
1A4
100
AcDbEntity
  8
None
370
               9
390
0
  6
Continuous
 62
               7
100
AcDbCircle
 10
-10.512500000000024
 20
10.887500000000003
 30
0.0
 40
0.2550000000000001
  0
CIRCLE
  5
1A5
100
AcDbEntity
  8
None
370
               9
390
0
  6
Continuous
 62
               7
100
AcDbCircle
 10
-9.5125000000000224
 20
10.887500000000003
 30
0.0
 40
0.2550000000000001
  0
CIRCLE
  5
1A6
100
AcDbEntity
  8
None
370
               9
390
0
  6
Continuous
 62
               7
100
AcDbCircle
 10
-8.5125000000000224
 20
10.887500000000003
 30
0.0
 40
0.2550000000000001
  0
CIRCLE
  5
1A7
100
AcDbEntity
  8
None
370
               9
390
0
  6
Continuous
 62
               7
100
AcDbCircle
 10
-7.5125000000000224
 20
10.887500000000003
 30
0.0
 40
0.2550000000000001
  0
CIRCLE
  5
1A8
100
AcDbEntity
  8
None
370
               9
390
0
  6
Continuous
 62
               7
100
AcDbCircle
 10
-6.5125000000000224
 20
10.887500000000003
 30
0.0
 40
0.2550000000000001
  0
CIRCLE
  5
1A9
100
AcDbEntity
  8
None
370
               9
390
0
  6
Continuous
 62
               7
100
AcDbCircle
 10
-5.5125000000000224
 20
10.887500000000003
 30
0.0
 40
0.2550000000000001
  0
CIRCLE
  5
1AA
100
AcDbEntity
  8
None
370
               9
390
0
  6
Continuous
 62
               7
100
AcDbCircle
 10
-4.5125000000000224
 20
10.887500000000003
 30
0.0
 40
0.2550000000000001
  0
CIRCLE
  5
1AB
100
AcDbEntity
  8
None
370
               9
390
0
  6
Continuous
 62
               7
100
AcDbCircle
 10
-3.5125000000000228
 20
10.887500000000003
 30
0.0
 40
0.2550000000000001
  0
CIRCLE
  5
1AC
100
AcDbEntity
  8
None
370
               9
390
0
  6
Continuous
 62
               7
100
AcDbCircle
 10
-2.5125000000000233
 20
10.887500000000003
 30
0.0
 40
0.2550000000000001
  0
CIRCLE
  5
1AD
100
AcDbEntity
  8
None
370
               9
390
0
  6
Continuous
 62
               7
100
AcDbCircle
 10
-1.5125000000000233
 20
10.887500000000003
 30
0.0
 40
0.2550000000000001
  0
CIRCLE
  5
1AE
100
AcDbEntity
  8
None
370
               9
390
0
  6
Continuous
 62
               7
100
AcDbCircle
 10
-0.5125000000000206
 20
10.887500000000003
 30
0.0
 40
0.2550000000000009
  0
CIRCLE
  5
1AF
100
AcDbEntity
  8
None
370
               9
390
0
  6
Continuous
 62
               7
100
AcDbCircle
 10
0.4874999999999838
 20
10.887500000000003
 30
0.0
 40
0.2550000000000009
  0
CIRCLE
  5
1B0
100
AcDbEntity
  8
None
370
               9
390
0
  6
Continuous
 62
               7
100
AcDbCircle
 10
1.4874999999999874
 20
10.887500000000003
 30
0.0
 40
0.2550000000000009
  0
CIRCLE
  5
1B1
100
AcDbEntity
  8
None
370
               9
390
0
  6
Continuous
 62
               7
100
AcDbCircle
 10
2.4874999999999918
 20
10.887500000000003
 30
0.0
 40
0.2550000000000009
  0
CIRCLE
  5
1B2
100
AcDbEntity
  8
None
370
               9
390
0
  6
Continuous
 62
               7
100
AcDbCircle
 10
3.4874999999999954
 20
10.887500000000003
 30
0.0
 40
0.2550000000000009
  0
CIRCLE
  5
1B3
100
AcDbEntity
  8
None
370
               9
390
0
  6
Continuous
 62
               7
100
AcDbCircle
 10
4.4874999999999989
 20
10.887500000000003
 30
0.0
 40
0.2550000000000009
  0
CIRCLE
  5
1B4
100
AcDbEntity
  8
None
370
               9
390
0
  6
Continuous
 62
               7
100
AcDbCircle
 10
5.4874999999999998
 20
10.887500000000003
 30
0.0
 40
0.2550000000000001
  0
CIRCLE
  5
1B5
100
AcDbEntity
  8
None
370
               9
390
0
  6
Continuous
 62
               7
100
AcDbCircle
 10
6.4874999999999998
 20
10.887500000000003
 30
0.0
 40
0.2550000000000001
  0
CIRCLE
  5
1B6
100
AcDbEntity
  8
None
370
               9
390
0
  6
Continuous
 62
               7
100
AcDbCircle
 10
7.487499999999998
 20
10.887500000000003
 30
0.0
 40
0.254999999999997
  0
CIRCLE
  5
1B7
100
AcDbEntity
  8
None
370
               9
390
0
  6
Continuous
 62
               7
100
AcDbCircle
 10
8.4874999999999972
 20
10.887500000000003
 30
0.0
 40
0.254999999999997
  0
CIRCLE
  5
1B8
100
AcDbEntity
  8
None
370
               9
390
0
  6
Continuous
 62
               7
100
AcDbCircle
 10
9.4874999999999972
 20
10.887500000000003
 30
0.0
 40
0.254999999999997
  0
CIRCLE
  5
1B9
100
AcDbEntity
  8
None
370
               9
390
0
  6
Continuous
 62
               7
100
AcDbCircle
 10
10.487499999999997
 20
10.887500000000003
 30
0.0
 40
0.254999999999997
  0
CIRCLE
  5
1BA
100
AcDbEntity
  8
None
370
               9
390
0
  6
Continuous
 62
               7
100
AcDbCircle
 10
11.487499999999997
 20
10.887500000000003
 30
0.0
 40
0.254999999999997
  0
CIRCLE
  5
1BB
100
AcDbEntity
  8
None
370
               9
390
0
  6
Continuous
 62
               7
100
AcDbCircle
 10
12.487499999999997
 20
10.887500000000003
 30
0.0
 40
0.254999999999997
  0
CIRCLE
  5
1BC
100
AcDbEntity
  8
None
370
               9
390
0
  6
Continuous
 62
               7
100
AcDbCircle
 10
13.487499999999997
 20
10.887500000000003
 30
0.0
 40
0.254999999999997
  0
CIRCLE
  5
1BD
100
AcDbEntity
  8
None
370
               9
390
0
  6
Continuous
 62
               7
100
AcDbCircle
 10
14.487499999999997
 20
10.887500000000003
 30
0.0
 40
0.254999999999997
  0
CIRCLE
  5
1BE
100
AcDbEntity
  8
None
370
               9
390
0
  6
Continuous
 62
               7
100
AcDbCircle
 10
-20.512500000000003
 20
9.8875000000000028
 30
0.0
 40
0.2550000000000001
  0
CIRCLE
  5
1BF
100
AcDbEntity
  8
None
370
               9
390
0
  6
Continuous
 62
               7
100
AcDbCircle
 10
-19.512500000000003
 20
9.8875000000000028
 30
0.0
 40
0.2550000000000001
  0
CIRCLE
  5
1C0
100
AcDbEntity
  8
None
370
               9
390
0
  6
Continuous
 62
               7
100
AcDbCircle
 10
-18.512499999999999
 20
9.8875000000000028
 30
0.0
 40
0.2550000000000001
  0
CIRCLE
  5
1C1
100
AcDbEntity
  8
None
370
               9
390
0
  6
Continuous
 62
               7
100
AcDbCircle
 10
-17.512499999999999
 20
9.8875000000000028
 30
0.0
 40
0.2550000000000001
  0
CIRCLE
  5
1C2
100
AcDbEntity
  8
None
370
               9
390
0
  6
Continuous
 62
               7
100
AcDbCircle
 10
-16.512500000000003
 20
9.8875000000000028
 30
0.0
 40
0.2550000000000001
  0
CIRCLE
  5
1C3
100
AcDbEntity
  8
None
370
               9
390
0
  6
Continuous
 62
               7
100
AcDbCircle
 10
-15.512500000000006
 20
9.8875000000000028
 30
0.0
 40
0.2550000000000001
  0
CIRCLE
  5
1C4
100
AcDbEntity
  8
None
370
               9
390
0
  6
Continuous
 62
               7
100
AcDbCircle
 10
-14.51250000000001
 20
9.8875000000000028
 30
0.0
 40
0.2550000000000001
  0
CIRCLE
  5
1C5
100
AcDbEntity
  8
None
370
               9
390
0
  6
Continuous
 62
               7
100
AcDbCircle
 10
-13.512500000000017
 20
9.8875000000000028
 30
0.0
 40
0.254999999999997
  0
CIRCLE
  5
1C6
100
AcDbEntity
  8
None
370
               9
390
0
  6
Continuous
 62
               7
100
AcDbCircle
 10
-12.512500000000021
 20
9.8875000000000028
 30
0.0
 40
0.254999999999997
  0
CIRCLE
  5
1C7
100
AcDbEntity
  8
None
370
               9
390
0
  6
Continuous
 62
               7
100
AcDbCircle
 10
-11.512500000000024
 20
9.8875000000000028
 30
0.0
 40
0.254999999999997
  0
CIRCLE
  5
1C8
100
AcDbEntity
  8
None
370
               9
390
0
  6
Continuous
 62
               7
100
AcDbCircle
 10
-10.512500000000024
 20
9.8875000000000028
 30
0.0
 40
0.2550000000000001
  0
CIRCLE
  5
1C9
100
AcDbEntity
  8
None
370
               9
390
0
  6
Continuous
 62
               7
100
AcDbCircle
 10
-9.5125000000000224
 20
9.8875000000000028
 30
0.0
 40
0.2550000000000001
  0
CIRCLE
  5
1CA
100
AcDbEntity
  8
None
370
               9
390
0
  6
Continuous
 62
               7
100
AcDbCircle
 10
-8.5125000000000224
 20
9.8875000000000028
 30
0.0
 40
0.2550000000000001
  0
CIRCLE
  5
1CB
100
AcDbEntity
  8
None
370
               9
390
0
  6
Continuous
 62
               7
100
AcDbCircle
 10
-7.5125000000000224
 20
9.8875000000000028
 30
0.0
 40
0.2550000000000001
  0
CIRCLE
  5
1CC
100
AcDbEntity
  8
None
370
               9
390
0
  6
Continuous
 62
               7
100
AcDbCircle
 10
-6.5125000000000224
 20
9.8875000000000028
 30
0.0
 40
0.2550000000000001
  0
CIRCLE
  5
1CD
100
AcDbEntity
  8
None
370
               9
390
0
  6
Continuous
 62
               7
100
AcDbCircle
 10
-5.5125000000000224
 20
9.8875000000000028
 30
0.0
 40
0.2550000000000001
  0
CIRCLE
  5
1CE
100
AcDbEntity
  8
None
370
               9
390
0
  6
Continuous
 62
               7
100
AcDbCircle
 10
-4.5125000000000224
 20
9.8875000000000028
 30
0.0
 40
0.2550000000000001
  0
CIRCLE
  5
1CF
100
AcDbEntity
  8
None
370
               9
390
0
  6
Continuous
 62
               7
100
AcDbCircle
 10
-3.5125000000000228
 20
9.8875000000000028
 30
0.0
 40
0.2550000000000001
  0
CIRCLE
  5
1D0
100
AcDbEntity
  8
None
370
               9
390
0
  6
Continuous
 62
               7
100
AcDbCircle
 10
-2.5125000000000233
 20
9.8875000000000028
 30
0.0
 40
0.2550000000000001
  0
CIRCLE
  5
1D1
100
AcDbEntity
  8
None
370
               9
390
0
  6
Continuous
 62
               7
100
AcDbCircle
 10
-1.5125000000000233
 20
9.8875000000000028
 30
0.0
 40
0.2550000000000001
  0
CIRCLE
  5
1D2
100
AcDbEntity
  8
None
370
               9
390
0
  6
Continuous
 62
               7
100
AcDbCircle
 10
-0.5125000000000206
 20
9.8875000000000028
 30
0.0
 40
0.2550000000000009
  0
CIRCLE
  5
1D3
100
AcDbEntity
  8
None
370
               9
390
0
  6
Continuous
 62
               7
100
AcDbCircle
 10
0.4874999999999838
 20
9.8875000000000028
 30
0.0
 40
0.2550000000000009
  0
CIRCLE
  5
1D4
100
AcDbEntity
  8
None
370
               9
390
0
  6
Continuous
 62
               7
100
AcDbCircle
 10
1.4874999999999874
 20
9.8875000000000028
 30
0.0
 40
0.2550000000000009
  0
CIRCLE
  5
1D5
100
AcDbEntity
  8
None
370
               9
390
0
  6
Continuous
 62
               7
100
AcDbCircle
 10
2.4874999999999918
 20
9.8875000000000028
 30
0.0
 40
0.2550000000000009
  0
CIRCLE
  5
1D6
100
AcDbEntity
  8
None
370
               9
390
0
  6
Continuous
 62
               7
100
AcDbCircle
 10
3.4874999999999954
 20
9.8875000000000028
 30
0.0
 40
0.2550000000000009
  0
CIRCLE
  5
1D7
100
AcDbEntity
  8
None
370
               9
390
0
  6
Continuous
 62
               7
100
AcDbCircle
 10
4.4874999999999989
 20
9.8875000000000028
 30
0.0
 40
0.2550000000000009
  0
CIRCLE
  5
1D8
100
AcDbEntity
  8
None
370
               9
390
0
  6
Continuous
 62
               7
100
AcDbCircle
 10
5.4874999999999998
 20
9.8875000000000028
 30
0.0
 40
0.2550000000000001
  0
CIRCLE
  5
1D9
100
AcDbEntity
  8
None
370
               9
390
0
  6
Continuous
 62
               7
100
AcDbCircle
 10
6.4874999999999998
 20
9.8875000000000028
 30
0.0
 40
0.2550000000000001
  0
CIRCLE
  5
1DA
100
AcDbEntity
  8
None
370
               9
390
0
  6
Continuous
 62
               7
100
AcDbCircle
 10
7.487499999999998
 20
9.8875000000000028
 30
0.0
 40
0.254999999999997
  0
CIRCLE
  5
1DB
100
AcDbEntity
  8
None
370
               9
390
0
  6
Continuous
 62
               7
100
AcDbCircle
 10
8.4874999999999972
 20
9.8875000000000028
 30
0.0
 40
0.254999999999997
  0
CIRCLE
  5
1DC
100
AcDbEntity
  8
None
370
               9
390
0
  6
Continuous
 62
               7
100
AcDbCircle
 10
9.4874999999999972
 20
9.8875000000000028
 30
0.0
 40
0.254999999999997
  0
CIRCLE
  5
1DD
100
AcDbEntity
  8
None
370
               9
390
0
  6
Continuous
 62
               7
100
AcDbCircle
 10
10.487499999999997
 20
9.8875000000000028
 30
0.0
 40
0.254999999999997
  0
CIRCLE
  5
1DE
100
AcDbEntity
  8
None
370
               9
390
0
  6
Continuous
 62
               7
100
AcDbCircle
 10
11.487499999999997
 20
9.8875000000000028
 30
0.0
 40
0.254999999999997
  0
CIRCLE
  5
1DF
100
AcDbEntity
  8
None
370
               9
390
0
  6
Continuous
 62
               7
100
AcDbCircle
 10
12.487499999999997
 20
9.8875000000000028
 30
0.0
 40
0.254999999999997
  0
CIRCLE
  5
1E0
100
AcDbEntity
  8
None
370
               9
390
0
  6
Continuous
 62
               7
100
AcDbCircle
 10
13.487499999999997
 20
9.8875000000000028
 30
0.0
 40
0.254999999999997
  0
CIRCLE
  5
1E1
100
AcDbEntity
  8
None
370
               9
390
0
  6
Continuous
 62
               7
100
AcDbCircle
 10
14.487499999999997
 20
9.8875000000000028
 30
0.0
 40
0.254999999999997
  0
CIRCLE
  5
1E2
100
AcDbEntity
  8
None
370
               9
390
0
  6
Continuous
 62
               7
100
AcDbCircle
 10
-20.512500000000003
 20
8.8875000000000028
 30
0.0
 40
0.2550000000000001
  0
CIRCLE
  5
1E3
100
AcDbEntity
  8
None
370
               9
390
0
  6
Continuous
 62
               7
100
AcDbCircle
 10
-19.512500000000003
 20
8.8875000000000028
 30
0.0
 40
0.2550000000000001
  0
CIRCLE
  5
1E4
100
AcDbEntity
  8
None
370
               9
390
0
  6
Continuous
 62
               7
100
AcDbCircle
 10
-18.512499999999999
 20
8.8875000000000028
 30
0.0
 40
0.2550000000000001
  0
CIRCLE
  5
1E5
100
AcDbEntity
  8
None
370
               9
390
0
  6
Continuous
 62
               7
100
AcDbCircle
 10
-17.512499999999999
 20
8.8875000000000028
 30
0.0
 40
0.2550000000000001
  0
CIRCLE
  5
1E6
100
AcDbEntity
  8
None
370
               9
390
0
  6
Continuous
 62
               7
100
AcDbCircle
 10
-16.512500000000003
 20
8.8875000000000028
 30
0.0
 40
0.2550000000000001
  0
CIRCLE
  5
1E7
100
AcDbEntity
  8
None
370
               9
390
0
  6
Continuous
 62
               7
100
AcDbCircle
 10
-15.512500000000006
 20
8.8875000000000028
 30
0.0
 40
0.2550000000000001
  0
CIRCLE
  5
1E8
100
AcDbEntity
  8
None
370
               9
390
0
  6
Continuous
 62
               7
100
AcDbCircle
 10
-14.51250000000001
 20
8.8875000000000028
 30
0.0
 40
0.2550000000000001
  0
CIRCLE
  5
1E9
100
AcDbEntity
  8
None
370
               9
390
0
  6
Continuous
 62
               7
100
AcDbCircle
 10
-13.512500000000017
 20
8.8875000000000028
 30
0.0
 40
0.254999999999997
  0
CIRCLE
  5
1EA
100
AcDbEntity
  8
None
370
               9
390
0
  6
Continuous
 62
               7
100
AcDbCircle
 10
-12.512500000000021
 20
8.8875000000000028
 30
0.0
 40
0.254999999999997
  0
CIRCLE
  5
1EB
100
AcDbEntity
  8
None
370
               9
390
0
  6
Continuous
 62
               7
100
AcDbCircle
 10
-11.512500000000024
 20
8.8875000000000028
 30
0.0
 40
0.254999999999997
  0
CIRCLE
  5
1EC
100
AcDbEntity
  8
None
370
               9
390
0
  6
Continuous
 62
               7
100
AcDbCircle
 10
-10.512500000000024
 20
8.8875000000000028
 30
0.0
 40
0.2550000000000001
  0
CIRCLE
  5
1ED
100
AcDbEntity
  8
None
370
               9
390
0
  6
Continuous
 62
               7
100
AcDbCircle
 10
-9.5125000000000224
 20
8.8875000000000028
 30
0.0
 40
0.2550000000000001
  0
CIRCLE
  5
1EE
100
AcDbEntity
  8
None
370
               9
390
0
  6
Continuous
 62
               7
100
AcDbCircle
 10
-8.5125000000000224
 20
8.8875000000000028
 30
0.0
 40
0.2550000000000001
  0
CIRCLE
  5
1EF
100
AcDbEntity
  8
None
370
               9
390
0
  6
Continuous
 62
               7
100
AcDbCircle
 10
-7.5125000000000224
 20
8.8875000000000028
 30
0.0
 40
0.2550000000000001
  0
CIRCLE
  5
1F0
100
AcDbEntity
  8
None
370
               9
390
0
  6
Continuous
 62
               7
100
AcDbCircle
 10
-6.5125000000000224
 20
8.8875000000000028
 30
0.0
 40
0.2550000000000001
  0
CIRCLE
  5
1F1
100
AcDbEntity
  8
None
370
               9
390
0
  6
Continuous
 62
               7
100
AcDbCircle
 10
-5.5125000000000224
 20
8.8875000000000028
 30
0.0
 40
0.2550000000000001
  0
CIRCLE
  5
1F2
100
AcDbEntity
  8
None
370
               9
390
0
  6
Continuous
 62
               7
100
AcDbCircle
 10
-4.5125000000000224
 20
8.8875000000000028
 30
0.0
 40
0.2550000000000001
  0
CIRCLE
  5
1F3
100
AcDbEntity
  8
None
370
               9
390
0
  6
Continuous
 62
               7
100
AcDbCircle
 10
-3.5125000000000228
 20
8.8875000000000028
 30
0.0
 40
0.2550000000000001
  0
CIRCLE
  5
1F4
100
AcDbEntity
  8
None
370
               9
390
0
  6
Continuous
 62
               7
100
AcDbCircle
 10
-2.5125000000000233
 20
8.8875000000000028
 30
0.0
 40
0.2550000000000001
  0
CIRCLE
  5
1F5
100
AcDbEntity
  8
None
370
               9
390
0
  6
Continuous
 62
               7
100
AcDbCircle
 10
-1.5125000000000233
 20
8.8875000000000028
 30
0.0
 40
0.2550000000000001
  0
CIRCLE
  5
1F6
100
AcDbEntity
  8
None
370
               9
390
0
  6
Continuous
 62
               7
100
AcDbCircle
 10
-0.5125000000000206
 20
8.8875000000000028
 30
0.0
 40
0.2550000000000009
  0
CIRCLE
  5
1F7
100
AcDbEntity
  8
None
370
               9
390
0
  6
Continuous
 62
               7
100
AcDbCircle
 10
0.4874999999999838
 20
8.8875000000000028
 30
0.0
 40
0.2550000000000009
  0
CIRCLE
  5
1F8
100
AcDbEntity
  8
None
370
               9
390
0
  6
Continuous
 62
               7
100
AcDbCircle
 10
1.4874999999999874
 20
8.8875000000000028
 30
0.0
 40
0.2550000000000009
  0
CIRCLE
  5
1F9
100
AcDbEntity
  8
None
370
               9
390
0
  6
Continuous
 62
               7
100
AcDbCircle
 10
2.4874999999999918
 20
8.8875000000000028
 30
0.0
 40
0.2550000000000009
  0
CIRCLE
  5
1FA
100
AcDbEntity
  8
None
370
               9
390
0
  6
Continuous
 62
               7
100
AcDbCircle
 10
3.4874999999999954
 20
8.8875000000000028
 30
0.0
 40
0.2550000000000009
  0
CIRCLE
  5
1FB
100
AcDbEntity
  8
None
370
               9
390
0
  6
Continuous
 62
               7
100
AcDbCircle
 10
4.4874999999999989
 20
8.8875000000000028
 30
0.0
 40
0.2550000000000009
  0
CIRCLE
  5
1FC
100
AcDbEntity
  8
None
370
               9
390
0
  6
Continuous
 62
               7
100
AcDbCircle
 10
5.4874999999999998
 20
8.8875000000000028
 30
0.0
 40
0.2550000000000001
  0
CIRCLE
  5
1FD
100
AcDbEntity
  8
None
370
               9
390
0
  6
Continuous
 62
               7
100
AcDbCircle
 10
6.4874999999999998
 20
8.8875000000000028
 30
0.0
 40
0.2550000000000001
  0
CIRCLE
  5
1FE
100
AcDbEntity
  8
None
370
               9
390
0
  6
Continuous
 62
               7
100
AcDbCircle
 10
7.487499999999998
 20
8.8875000000000028
 30
0.0
 40
0.254999999999997
  0
CIRCLE
  5
1FF
100
AcDbEntity
  8
None
370
               9
390
0
  6
Continuous
 62
               7
100
AcDbCircle
 10
8.4874999999999972
 20
8.8875000000000028
 30
0.0
 40
0.254999999999997
  0
CIRCLE
  5
200
100
AcDbEntity
  8
None
370
               9
390
0
  6
Continuous
 62
               7
100
AcDbCircle
 10
9.4874999999999972
 20
8.8875000000000028
 30
0.0
 40
0.254999999999997
  0
CIRCLE
  5
201
100
AcDbEntity
  8
None
370
               9
390
0
  6
Continuous
 62
               7
100
AcDbCircle
 10
10.487499999999997
 20
8.8875000000000028
 30
0.0
 40
0.254999999999997
  0
CIRCLE
  5
202
100
AcDbEntity
  8
None
370
               9
390
0
  6
Continuous
 62
               7
100
AcDbCircle
 10
11.487499999999997
 20
8.8875000000000028
 30
0.0
 40
0.254999999999997
  0
CIRCLE
  5
203
100
AcDbEntity
  8
None
370
               9
390
0
  6
Continuous
 62
               7
100
AcDbCircle
 10
12.487499999999997
 20
8.8875000000000028
 30
0.0
 40
0.254999999999997
  0
CIRCLE
  5
204
100
AcDbEntity
  8
None
370
               9
390
0
  6
Continuous
 62
               7
100
AcDbCircle
 10
13.487499999999997
 20
8.8875000000000028
 30
0.0
 40
0.254999999999997
  0
CIRCLE
  5
205
100
AcDbEntity
  8
None
370
               9
390
0
  6
Continuous
 62
               7
100
AcDbCircle
 10
14.487499999999997
 20
8.8875000000000028
 30
0.0
 40
0.254999999999997
  0
CIRCLE
  5
206
100
AcDbEntity
  8
None
370
               9
390
0
  6
Continuous
 62
               7
100
AcDbCircle
 10
-20.512500000000003
 20
7.8875000000000028
 30
0.0
 40
0.2550000000000001
  0
CIRCLE
  5
207
100
AcDbEntity
  8
None
370
               9
390
0
  6
Continuous
 62
               7
100
AcDbCircle
 10
-19.512500000000003
 20
7.8875000000000028
 30
0.0
 40
0.2550000000000001
  0
CIRCLE
  5
208
100
AcDbEntity
  8
None
370
               9
390
0
  6
Continuous
 62
               7
100
AcDbCircle
 10
-18.512499999999999
 20
7.8875000000000028
 30
0.0
 40
0.2550000000000001
  0
CIRCLE
  5
209
100
AcDbEntity
  8
None
370
               9
390
0
  6
Continuous
 62
               7
100
AcDbCircle
 10
-17.512499999999999
 20
7.8875000000000028
 30
0.0
 40
0.2550000000000001
  0
CIRCLE
  5
20A
100
AcDbEntity
  8
None
370
               9
390
0
  6
Continuous
 62
               7
100
AcDbCircle
 10
-16.512500000000003
 20
7.8875000000000028
 30
0.0
 40
0.2550000000000001
  0
CIRCLE
  5
20B
100
AcDbEntity
  8
None
370
               9
390
0
  6
Continuous
 62
               7
100
AcDbCircle
 10
-15.512500000000006
 20
7.8875000000000028
 30
0.0
 40
0.2550000000000001
  0
CIRCLE
  5
20C
100
AcDbEntity
  8
None
370
               9
390
0
  6
Continuous
 62
               7
100
AcDbCircle
 10
-14.51250000000001
 20
7.8875000000000028
 30
0.0
 40
0.2550000000000001
  0
CIRCLE
  5
20D
100
AcDbEntity
  8
None
370
               9
390
0
  6
Continuous
 62
               7
100
AcDbCircle
 10
-13.512500000000017
 20
7.8875000000000028
 30
0.0
 40
0.254999999999997
  0
CIRCLE
  5
20E
100
AcDbEntity
  8
None
370
               9
390
0
  6
Continuous
 62
               7
100
AcDbCircle
 10
-12.512500000000021
 20
7.8875000000000028
 30
0.0
 40
0.254999999999997
  0
CIRCLE
  5
20F
100
AcDbEntity
  8
None
370
               9
390
0
  6
Continuous
 62
               7
100
AcDbCircle
 10
-11.512500000000024
 20
7.8875000000000028
 30
0.0
 40
0.254999999999997
  0
CIRCLE
  5
210
100
AcDbEntity
  8
None
370
               9
390
0
  6
Continuous
 62
               7
100
AcDbCircle
 10
-10.512500000000024
 20
7.8875000000000028
 30
0.0
 40
0.2550000000000001
  0
CIRCLE
  5
211
100
AcDbEntity
  8
None
370
               9
390
0
  6
Continuous
 62
               7
100
AcDbCircle
 10
-9.5125000000000224
 20
7.8875000000000028
 30
0.0
 40
0.2550000000000001
  0
CIRCLE
  5
212
100
AcDbEntity
  8
None
370
               9
390
0
  6
Continuous
 62
               7
100
AcDbCircle
 10
-8.5125000000000224
 20
7.8875000000000028
 30
0.0
 40
0.2550000000000001
  0
CIRCLE
  5
213
100
AcDbEntity
  8
None
370
               9
390
0
  6
Continuous
 62
               7
100
AcDbCircle
 10
-7.5125000000000224
 20
7.8875000000000028
 30
0.0
 40
0.2550000000000001
  0
CIRCLE
  5
214
100
AcDbEntity
  8
None
370
               9
390
0
  6
Continuous
 62
               7
100
AcDbCircle
 10
-6.5125000000000224
 20
7.8875000000000028
 30
0.0
 40
0.2550000000000001
  0
CIRCLE
  5
215
100
AcDbEntity
  8
None
370
               9
390
0
  6
Continuous
 62
               7
100
AcDbCircle
 10
-5.5125000000000224
 20
7.8875000000000028
 30
0.0
 40
0.2550000000000001
  0
CIRCLE
  5
216
100
AcDbEntity
  8
None
370
               9
390
0
  6
Continuous
 62
               7
100
AcDbCircle
 10
-4.5125000000000224
 20
7.8875000000000028
 30
0.0
 40
0.2550000000000001
  0
CIRCLE
  5
217
100
AcDbEntity
  8
None
370
               9
390
0
  6
Continuous
 62
               7
100
AcDbCircle
 10
-3.5125000000000228
 20
7.8875000000000028
 30
0.0
 40
0.2550000000000001
  0
CIRCLE
  5
218
100
AcDbEntity
  8
None
370
               9
390
0
  6
Continuous
 62
               7
100
AcDbCircle
 10
-2.5125000000000233
 20
7.8875000000000028
 30
0.0
 40
0.2550000000000001
  0
CIRCLE
  5
219
100
AcDbEntity
  8
None
370
               9
390
0
  6
Continuous
 62
               7
100
AcDbCircle
 10
-1.5125000000000233
 20
7.8875000000000028
 30
0.0
 40
0.2550000000000001
  0
CIRCLE
  5
21A
100
AcDbEntity
  8
None
370
               9
390
0
  6
Continuous
 62
               7
100
AcDbCircle
 10
-0.5125000000000206
 20
7.8875000000000028
 30
0.0
 40
0.2550000000000009
  0
CIRCLE
  5
21B
100
AcDbEntity
  8
None
370
               9
390
0
  6
Continuous
 62
               7
100
AcDbCircle
 10
0.4874999999999838
 20
7.8875000000000028
 30
0.0
 40
0.2550000000000009
  0
CIRCLE
  5
21C
100
AcDbEntity
  8
None
370
               9
390
0
  6
Continuous
 62
               7
100
AcDbCircle
 10
1.4874999999999874
 20
7.8875000000000028
 30
0.0
 40
0.2550000000000009
  0
CIRCLE
  5
21D
100
AcDbEntity
  8
None
370
               9
390
0
  6
Continuous
 62
               7
100
AcDbCircle
 10
2.4874999999999918
 20
7.8875000000000028
 30
0.0
 40
0.2550000000000009
  0
CIRCLE
  5
21E
100
AcDbEntity
  8
None
370
               9
390
0
  6
Continuous
 62
               7
100
AcDbCircle
 10
3.4874999999999954
 20
7.8875000000000028
 30
0.0
 40
0.2550000000000009
  0
CIRCLE
  5
21F
100
AcDbEntity
  8
None
370
               9
390
0
  6
Continuous
 62
               7
100
AcDbCircle
 10
4.4874999999999989
 20
7.8875000000000028
 30
0.0
 40
0.2550000000000009
  0
CIRCLE
  5
220
100
AcDbEntity
  8
None
370
               9
390
0
  6
Continuous
 62
               7
100
AcDbCircle
 10
5.4874999999999998
 20
7.8875000000000028
 30
0.0
 40
0.2550000000000001
  0
CIRCLE
  5
221
100
AcDbEntity
  8
None
370
               9
390
0
  6
Continuous
 62
               7
100
AcDbCircle
 10
6.4874999999999998
 20
7.8875000000000028
 30
0.0
 40
0.2550000000000001
  0
CIRCLE
  5
222
100
AcDbEntity
  8
None
370
               9
390
0
  6
Continuous
 62
               7
100
AcDbCircle
 10
7.487499999999998
 20
7.8875000000000028
 30
0.0
 40
0.254999999999997
  0
CIRCLE
  5
223
100
AcDbEntity
  8
None
370
               9
390
0
  6
Continuous
 62
               7
100
AcDbCircle
 10
8.4874999999999972
 20
7.8875000000000028
 30
0.0
 40
0.254999999999997
  0
CIRCLE
  5
224
100
AcDbEntity
  8
None
370
               9
390
0
  6
Continuous
 62
               7
100
AcDbCircle
 10
9.4874999999999972
 20
7.8875000000000028
 30
0.0
 40
0.254999999999997
  0
CIRCLE
  5
225
100
AcDbEntity
  8
None
370
               9
390
0
  6
Continuous
 62
               7
100
AcDbCircle
 10
10.487499999999997
 20
7.8875000000000028
 30
0.0
 40
0.254999999999997
  0
CIRCLE
  5
226
100
AcDbEntity
  8
None
370
               9
390
0
  6
Continuous
 62
               7
100
AcDbCircle
 10
11.487499999999997
 20
7.8875000000000028
 30
0.0
 40
0.254999999999997
  0
CIRCLE
  5
227
100
AcDbEntity
  8
None
370
               9
390
0
  6
Continuous
 62
               7
100
AcDbCircle
 10
12.487499999999997
 20
7.8875000000000028
 30
0.0
 40
0.254999999999997
  0
CIRCLE
  5
228
100
AcDbEntity
  8
None
370
               9
390
0
  6
Continuous
 62
               7
100
AcDbCircle
 10
13.487499999999997
 20
7.8875000000000028
 30
0.0
 40
0.254999999999997
  0
CIRCLE
  5
229
100
AcDbEntity
  8
None
370
               9
390
0
  6
Continuous
 62
               7
100
AcDbCircle
 10
14.487499999999997
 20
7.8875000000000028
 30
0.0
 40
0.254999999999997
  0
CIRCLE
  5
22A
100
AcDbEntity
  8
None
370
               9
390
0
  6
Continuous
 62
               7
100
AcDbCircle
 10
-20.512500000000003
 20
6.8875000000000028
 30
0.0
 40
0.2550000000000001
  0
CIRCLE
  5
22B
100
AcDbEntity
  8
None
370
               9
390
0
  6
Continuous
 62
               7
100
AcDbCircle
 10
-19.512500000000003
 20
6.8875000000000028
 30
0.0
 40
0.2550000000000001
  0
CIRCLE
  5
22C
100
AcDbEntity
  8
None
370
               9
390
0
  6
Continuous
 62
               7
100
AcDbCircle
 10
-18.512499999999999
 20
6.8875000000000028
 30
0.0
 40
0.2550000000000001
  0
CIRCLE
  5
22D
100
AcDbEntity
  8
None
370
               9
390
0
  6
Continuous
 62
               7
100
AcDbCircle
 10
-17.512499999999999
 20
6.8875000000000028
 30
0.0
 40
0.2550000000000001
  0
CIRCLE
  5
22E
100
AcDbEntity
  8
None
370
               9
390
0
  6
Continuous
 62
               7
100
AcDbCircle
 10
-16.512500000000003
 20
6.8875000000000028
 30
0.0
 40
0.2550000000000001
  0
CIRCLE
  5
22F
100
AcDbEntity
  8
None
370
               9
390
0
  6
Continuous
 62
               7
100
AcDbCircle
 10
-15.512500000000006
 20
6.8875000000000028
 30
0.0
 40
0.2550000000000001
  0
CIRCLE
  5
230
100
AcDbEntity
  8
None
370
               9
390
0
  6
Continuous
 62
               7
100
AcDbCircle
 10
-14.51250000000001
 20
6.8875000000000028
 30
0.0
 40
0.2550000000000001
  0
CIRCLE
  5
231
100
AcDbEntity
  8
None
370
               9
390
0
  6
Continuous
 62
               7
100
AcDbCircle
 10
-13.512500000000017
 20
6.8875000000000028
 30
0.0
 40
0.254999999999997
  0
CIRCLE
  5
232
100
AcDbEntity
  8
None
370
               9
390
0
  6
Continuous
 62
               7
100
AcDbCircle
 10
-12.512500000000021
 20
6.8875000000000028
 30
0.0
 40
0.254999999999997
  0
CIRCLE
  5
233
100
AcDbEntity
  8
None
370
               9
390
0
  6
Continuous
 62
               7
100
AcDbCircle
 10
-11.512500000000024
 20
6.8875000000000028
 30
0.0
 40
0.254999999999997
  0
CIRCLE
  5
234
100
AcDbEntity
  8
None
370
               9
390
0
  6
Continuous
 62
               7
100
AcDbCircle
 10
-10.512500000000024
 20
6.8875000000000028
 30
0.0
 40
0.2550000000000001
  0
CIRCLE
  5
235
100
AcDbEntity
  8
None
370
               9
390
0
  6
Continuous
 62
               7
100
AcDbCircle
 10
-9.5125000000000224
 20
6.8875000000000028
 30
0.0
 40
0.2550000000000001
  0
CIRCLE
  5
236
100
AcDbEntity
  8
None
370
               9
390
0
  6
Continuous
 62
               7
100
AcDbCircle
 10
-8.5125000000000224
 20
6.8875000000000028
 30
0.0
 40
0.2550000000000001
  0
CIRCLE
  5
237
100
AcDbEntity
  8
None
370
               9
390
0
  6
Continuous
 62
               7
100
AcDbCircle
 10
-7.5125000000000224
 20
6.8875000000000028
 30
0.0
 40
0.2550000000000001
  0
CIRCLE
  5
238
100
AcDbEntity
  8
None
370
               9
390
0
  6
Continuous
 62
               7
100
AcDbCircle
 10
-6.5125000000000224
 20
6.8875000000000028
 30
0.0
 40
0.2550000000000001
  0
CIRCLE
  5
239
100
AcDbEntity
  8
None
370
               9
390
0
  6
Continuous
 62
               7
100
AcDbCircle
 10
-5.5125000000000224
 20
6.8875000000000028
 30
0.0
 40
0.2550000000000001
  0
CIRCLE
  5
23A
100
AcDbEntity
  8
None
370
               9
390
0
  6
Continuous
 62
               7
100
AcDbCircle
 10
-4.5125000000000224
 20
6.8875000000000028
 30
0.0
 40
0.2550000000000001
  0
CIRCLE
  5
23B
100
AcDbEntity
  8
None
370
               9
390
0
  6
Continuous
 62
               7
100
AcDbCircle
 10
-3.5125000000000228
 20
6.8875000000000028
 30
0.0
 40
0.2550000000000001
  0
CIRCLE
  5
23C
100
AcDbEntity
  8
None
370
               9
390
0
  6
Continuous
 62
               7
100
AcDbCircle
 10
-2.5125000000000233
 20
6.8875000000000028
 30
0.0
 40
0.2550000000000001
  0
CIRCLE
  5
23D
100
AcDbEntity
  8
None
370
               9
390
0
  6
Continuous
 62
               7
100
AcDbCircle
 10
-1.5125000000000233
 20
6.8875000000000028
 30
0.0
 40
0.2550000000000001
  0
CIRCLE
  5
23E
100
AcDbEntity
  8
None
370
               9
390
0
  6
Continuous
 62
               7
100
AcDbCircle
 10
-0.5125000000000206
 20
6.8875000000000028
 30
0.0
 40
0.2550000000000009
  0
CIRCLE
  5
23F
100
AcDbEntity
  8
None
370
               9
390
0
  6
Continuous
 62
               7
100
AcDbCircle
 10
0.4874999999999838
 20
6.8875000000000028
 30
0.0
 40
0.2550000000000009
  0
CIRCLE
  5
240
100
AcDbEntity
  8
None
370
               9
390
0
  6
Continuous
 62
               7
100
AcDbCircle
 10
1.4874999999999874
 20
6.8875000000000028
 30
0.0
 40
0.2550000000000009
  0
CIRCLE
  5
241
100
AcDbEntity
  8
None
370
               9
390
0
  6
Continuous
 62
               7
100
AcDbCircle
 10
2.4874999999999918
 20
6.8875000000000028
 30
0.0
 40
0.2550000000000009
  0
CIRCLE
  5
242
100
AcDbEntity
  8
None
370
               9
390
0
  6
Continuous
 62
               7
100
AcDbCircle
 10
3.4874999999999954
 20
6.8875000000000028
 30
0.0
 40
0.2550000000000009
  0
CIRCLE
  5
243
100
AcDbEntity
  8
None
370
               9
390
0
  6
Continuous
 62
               7
100
AcDbCircle
 10
4.4874999999999989
 20
6.8875000000000028
 30
0.0
 40
0.2550000000000009
  0
CIRCLE
  5
244
100
AcDbEntity
  8
None
370
               9
390
0
  6
Continuous
 62
               7
100
AcDbCircle
 10
5.4874999999999998
 20
6.8875000000000028
 30
0.0
 40
0.2550000000000001
  0
CIRCLE
  5
245
100
AcDbEntity
  8
None
370
               9
390
0
  6
Continuous
 62
               7
100
AcDbCircle
 10
6.4874999999999998
 20
6.8875000000000028
 30
0.0
 40
0.2550000000000001
  0
CIRCLE
  5
246
100
AcDbEntity
  8
None
370
               9
390
0
  6
Continuous
 62
               7
100
AcDbCircle
 10
7.487499999999998
 20
6.8875000000000028
 30
0.0
 40
0.254999999999997
  0
CIRCLE
  5
247
100
AcDbEntity
  8
None
370
               9
390
0
  6
Continuous
 62
               7
100
AcDbCircle
 10
8.4874999999999972
 20
6.8875000000000028
 30
0.0
 40
0.254999999999997
  0
CIRCLE
  5
248
100
AcDbEntity
  8
None
370
               9
390
0
  6
Continuous
 62
               7
100
AcDbCircle
 10
9.4874999999999972
 20
6.8875000000000028
 30
0.0
 40
0.254999999999997
  0
CIRCLE
  5
249
100
AcDbEntity
  8
None
370
               9
390
0
  6
Continuous
 62
               7
100
AcDbCircle
 10
10.487499999999997
 20
6.8875000000000028
 30
0.0
 40
0.254999999999997
  0
CIRCLE
  5
24A
100
AcDbEntity
  8
None
370
               9
390
0
  6
Continuous
 62
               7
100
AcDbCircle
 10
11.487499999999997
 20
6.8875000000000028
 30
0.0
 40
0.254999999999997
  0
CIRCLE
  5
24B
100
AcDbEntity
  8
None
370
               9
390
0
  6
Continuous
 62
               7
100
AcDbCircle
 10
12.487499999999997
 20
6.8875000000000028
 30
0.0
 40
0.254999999999997
  0
CIRCLE
  5
24C
100
AcDbEntity
  8
None
370
               9
390
0
  6
Continuous
 62
               7
100
AcDbCircle
 10
13.487499999999997
 20
6.8875000000000028
 30
0.0
 40
0.254999999999997
  0
CIRCLE
  5
24D
100
AcDbEntity
  8
None
370
               9
390
0
  6
Continuous
 62
               7
100
AcDbCircle
 10
14.487499999999997
 20
6.8875000000000028
 30
0.0
 40
0.254999999999997
  0
CIRCLE
  5
24E
100
AcDbEntity
  8
None
370
               9
390
0
  6
Continuous
 62
               7
100
AcDbCircle
 10
-20.512500000000003
 20
5.8875000000000028
 30
0.0
 40
0.2550000000000001
  0
CIRCLE
  5
24F
100
AcDbEntity
  8
None
370
               9
390
0
  6
Continuous
 62
               7
100
AcDbCircle
 10
-19.512500000000003
 20
5.8875000000000028
 30
0.0
 40
0.2550000000000001
  0
CIRCLE
  5
250
100
AcDbEntity
  8
None
370
               9
390
0
  6
Continuous
 62
               7
100
AcDbCircle
 10
-18.512499999999999
 20
5.8875000000000028
 30
0.0
 40
0.2550000000000001
  0
CIRCLE
  5
251
100
AcDbEntity
  8
None
370
               9
390
0
  6
Continuous
 62
               7
100
AcDbCircle
 10
-17.512499999999999
 20
5.8875000000000028
 30
0.0
 40
0.2550000000000001
  0
CIRCLE
  5
252
100
AcDbEntity
  8
None
370
               9
390
0
  6
Continuous
 62
               7
100
AcDbCircle
 10
-16.512500000000003
 20
5.8875000000000028
 30
0.0
 40
0.2550000000000001
  0
CIRCLE
  5
253
100
AcDbEntity
  8
None
370
               9
390
0
  6
Continuous
 62
               7
100
AcDbCircle
 10
-15.512500000000006
 20
5.8875000000000028
 30
0.0
 40
0.2550000000000001
  0
CIRCLE
  5
254
100
AcDbEntity
  8
None
370
               9
390
0
  6
Continuous
 62
               7
100
AcDbCircle
 10
-14.51250000000001
 20
5.8875000000000028
 30
0.0
 40
0.2550000000000001
  0
CIRCLE
  5
255
100
AcDbEntity
  8
None
370
               9
390
0
  6
Continuous
 62
               7
100
AcDbCircle
 10
-13.512500000000017
 20
5.8875000000000028
 30
0.0
 40
0.254999999999997
  0
CIRCLE
  5
256
100
AcDbEntity
  8
None
370
               9
390
0
  6
Continuous
 62
               7
100
AcDbCircle
 10
-12.512500000000021
 20
5.8875000000000028
 30
0.0
 40
0.254999999999997
  0
CIRCLE
  5
257
100
AcDbEntity
  8
None
370
               9
390
0
  6
Continuous
 62
               7
100
AcDbCircle
 10
-11.512500000000024
 20
5.8875000000000028
 30
0.0
 40
0.254999999999997
  0
CIRCLE
  5
258
100
AcDbEntity
  8
None
370
               9
390
0
  6
Continuous
 62
               7
100
AcDbCircle
 10
-10.512500000000024
 20
5.8875000000000028
 30
0.0
 40
0.2550000000000001
  0
CIRCLE
  5
259
100
AcDbEntity
  8
None
370
               9
390
0
  6
Continuous
 62
               7
100
AcDbCircle
 10
-9.5125000000000224
 20
5.8875000000000028
 30
0.0
 40
0.2550000000000001
  0
CIRCLE
  5
25A
100
AcDbEntity
  8
None
370
               9
390
0
  6
Continuous
 62
               7
100
AcDbCircle
 10
-8.5125000000000224
 20
5.8875000000000028
 30
0.0
 40
0.2550000000000001
  0
CIRCLE
  5
25B
100
AcDbEntity
  8
None
370
               9
390
0
  6
Continuous
 62
               7
100
AcDbCircle
 10
-7.5125000000000224
 20
5.8875000000000028
 30
0.0
 40
0.2550000000000001
  0
CIRCLE
  5
25C
100
AcDbEntity
  8
None
370
               9
390
0
  6
Continuous
 62
               7
100
AcDbCircle
 10
-6.5125000000000224
 20
5.8875000000000028
 30
0.0
 40
0.2550000000000001
  0
CIRCLE
  5
25D
100
AcDbEntity
  8
None
370
               9
390
0
  6
Continuous
 62
               7
100
AcDbCircle
 10
-5.5125000000000224
 20
5.8875000000000028
 30
0.0
 40
0.2550000000000001
  0
CIRCLE
  5
25E
100
AcDbEntity
  8
None
370
               9
390
0
  6
Continuous
 62
               7
100
AcDbCircle
 10
-4.5125000000000224
 20
5.8875000000000028
 30
0.0
 40
0.2550000000000001
  0
CIRCLE
  5
25F
100
AcDbEntity
  8
None
370
               9
390
0
  6
Continuous
 62
               7
100
AcDbCircle
 10
-3.5125000000000228
 20
5.8875000000000028
 30
0.0
 40
0.2550000000000001
  0
CIRCLE
  5
260
100
AcDbEntity
  8
None
370
               9
390
0
  6
Continuous
 62
               7
100
AcDbCircle
 10
-2.5125000000000233
 20
5.8875000000000028
 30
0.0
 40
0.2550000000000001
  0
CIRCLE
  5
261
100
AcDbEntity
  8
None
370
               9
390
0
  6
Continuous
 62
               7
100
AcDbCircle
 10
-1.5125000000000233
 20
5.8875000000000028
 30
0.0
 40
0.2550000000000001
  0
CIRCLE
  5
262
100
AcDbEntity
  8
None
370
               9
390
0
  6
Continuous
 62
               7
100
AcDbCircle
 10
-0.5125000000000206
 20
5.8875000000000028
 30
0.0
 40
0.2550000000000009
  0
CIRCLE
  5
263
100
AcDbEntity
  8
None
370
               9
390
0
  6
Continuous
 62
               7
100
AcDbCircle
 10
0.4874999999999838
 20
5.8875000000000028
 30
0.0
 40
0.2550000000000009
  0
CIRCLE
  5
264
100
AcDbEntity
  8
None
370
               9
390
0
  6
Continuous
 62
               7
100
AcDbCircle
 10
1.4874999999999874
 20
5.8875000000000028
 30
0.0
 40
0.2550000000000009
  0
CIRCLE
  5
265
100
AcDbEntity
  8
None
370
               9
390
0
  6
Continuous
 62
               7
100
AcDbCircle
 10
2.4874999999999918
 20
5.8875000000000028
 30
0.0
 40
0.2550000000000009
  0
CIRCLE
  5
266
100
AcDbEntity
  8
None
370
               9
390
0
  6
Continuous
 62
               7
100
AcDbCircle
 10
3.4874999999999954
 20
5.8875000000000028
 30
0.0
 40
0.2550000000000009
  0
CIRCLE
  5
267
100
AcDbEntity
  8
None
370
               9
390
0
  6
Continuous
 62
               7
100
AcDbCircle
 10
4.4874999999999989
 20
5.8875000000000028
 30
0.0
 40
0.2550000000000009
  0
CIRCLE
  5
268
100
AcDbEntity
  8
None
370
               9
390
0
  6
Continuous
 62
               7
100
AcDbCircle
 10
5.4874999999999998
 20
5.8875000000000028
 30
0.0
 40
0.2550000000000001
  0
CIRCLE
  5
269
100
AcDbEntity
  8
None
370
               9
390
0
  6
Continuous
 62
               7
100
AcDbCircle
 10
6.4874999999999998
 20
5.8875000000000028
 30
0.0
 40
0.2550000000000001
  0
CIRCLE
  5
26A
100
AcDbEntity
  8
None
370
               9
390
0
  6
Continuous
 62
               7
100
AcDbCircle
 10
7.487499999999998
 20
5.8875000000000028
 30
0.0
 40
0.254999999999997
  0
CIRCLE
  5
26B
100
AcDbEntity
  8
None
370
               9
390
0
  6
Continuous
 62
               7
100
AcDbCircle
 10
8.4874999999999972
 20
5.8875000000000028
 30
0.0
 40
0.254999999999997
  0
CIRCLE
  5
26C
100
AcDbEntity
  8
None
370
               9
390
0
  6
Continuous
 62
               7
100
AcDbCircle
 10
9.4874999999999972
 20
5.8875000000000028
 30
0.0
 40
0.254999999999997
  0
CIRCLE
  5
26D
100
AcDbEntity
  8
None
370
               9
390
0
  6
Continuous
 62
               7
100
AcDbCircle
 10
10.487499999999997
 20
5.8875000000000028
 30
0.0
 40
0.254999999999997
  0
CIRCLE
  5
26E
100
AcDbEntity
  8
None
370
               9
390
0
  6
Continuous
 62
               7
100
AcDbCircle
 10
11.487499999999997
 20
5.8875000000000028
 30
0.0
 40
0.254999999999997
  0
CIRCLE
  5
26F
100
AcDbEntity
  8
None
370
               9
390
0
  6
Continuous
 62
               7
100
AcDbCircle
 10
12.487499999999997
 20
5.8875000000000028
 30
0.0
 40
0.254999999999997
  0
CIRCLE
  5
270
100
AcDbEntity
  8
None
370
               9
390
0
  6
Continuous
 62
               7
100
AcDbCircle
 10
13.487499999999997
 20
5.8875000000000028
 30
0.0
 40
0.254999999999997
  0
CIRCLE
  5
271
100
AcDbEntity
  8
None
370
               9
390
0
  6
Continuous
 62
               7
100
AcDbCircle
 10
14.487499999999997
 20
5.8875000000000028
 30
0.0
 40
0.254999999999997
  0
CIRCLE
  5
272
100
AcDbEntity
  8
None
370
               9
390
0
  6
Continuous
 62
               7
100
AcDbCircle
 10
-20.512500000000003
 20
4.8875000000000028
 30
0.0
 40
0.2550000000000001
  0
CIRCLE
  5
273
100
AcDbEntity
  8
None
370
               9
390
0
  6
Continuous
 62
               7
100
AcDbCircle
 10
-19.512500000000003
 20
4.8875000000000028
 30
0.0
 40
0.2550000000000001
  0
CIRCLE
  5
274
100
AcDbEntity
  8
None
370
               9
390
0
  6
Continuous
 62
               7
100
AcDbCircle
 10
-18.512499999999999
 20
4.8875000000000028
 30
0.0
 40
0.2550000000000001
  0
CIRCLE
  5
275
100
AcDbEntity
  8
None
370
               9
390
0
  6
Continuous
 62
               7
100
AcDbCircle
 10
-17.512499999999999
 20
4.8875000000000028
 30
0.0
 40
0.2550000000000001
  0
CIRCLE
  5
276
100
AcDbEntity
  8
None
370
               9
390
0
  6
Continuous
 62
               7
100
AcDbCircle
 10
-16.512500000000003
 20
4.8875000000000028
 30
0.0
 40
0.2550000000000001
  0
CIRCLE
  5
277
100
AcDbEntity
  8
None
370
               9
390
0
  6
Continuous
 62
               7
100
AcDbCircle
 10
-15.512500000000006
 20
4.8875000000000028
 30
0.0
 40
0.2550000000000001
  0
CIRCLE
  5
278
100
AcDbEntity
  8
None
370
               9
390
0
  6
Continuous
 62
               7
100
AcDbCircle
 10
-14.51250000000001
 20
4.8875000000000028
 30
0.0
 40
0.2550000000000001
  0
CIRCLE
  5
279
100
AcDbEntity
  8
None
370
               9
390
0
  6
Continuous
 62
               7
100
AcDbCircle
 10
-13.512500000000017
 20
4.8875000000000028
 30
0.0
 40
0.254999999999997
  0
CIRCLE
  5
27A
100
AcDbEntity
  8
None
370
               9
390
0
  6
Continuous
 62
               7
100
AcDbCircle
 10
-12.512500000000021
 20
4.8875000000000028
 30
0.0
 40
0.254999999999997
  0
CIRCLE
  5
27B
100
AcDbEntity
  8
None
370
               9
390
0
  6
Continuous
 62
               7
100
AcDbCircle
 10
-11.512500000000024
 20
4.8875000000000028
 30
0.0
 40
0.254999999999997
  0
CIRCLE
  5
27C
100
AcDbEntity
  8
None
370
               9
390
0
  6
Continuous
 62
               7
100
AcDbCircle
 10
-10.512500000000024
 20
4.8875000000000028
 30
0.0
 40
0.2550000000000001
  0
CIRCLE
  5
27D
100
AcDbEntity
  8
None
370
               9
390
0
  6
Continuous
 62
               7
100
AcDbCircle
 10
-9.5125000000000224
 20
4.8875000000000028
 30
0.0
 40
0.2550000000000001
  0
CIRCLE
  5
27E
100
AcDbEntity
  8
None
370
               9
390
0
  6
Continuous
 62
               7
100
AcDbCircle
 10
-8.5125000000000224
 20
4.8875000000000028
 30
0.0
 40
0.2550000000000001
  0
CIRCLE
  5
27F
100
AcDbEntity
  8
None
370
               9
390
0
  6
Continuous
 62
               7
100
AcDbCircle
 10
-7.5125000000000224
 20
4.8875000000000028
 30
0.0
 40
0.2550000000000001
  0
CIRCLE
  5
280
100
AcDbEntity
  8
None
370
               9
390
0
  6
Continuous
 62
               7
100
AcDbCircle
 10
-6.5125000000000224
 20
4.8875000000000028
 30
0.0
 40
0.2550000000000001
  0
CIRCLE
  5
281
100
AcDbEntity
  8
None
370
               9
390
0
  6
Continuous
 62
               7
100
AcDbCircle
 10
-5.5125000000000224
 20
4.8875000000000028
 30
0.0
 40
0.2550000000000001
  0
CIRCLE
  5
282
100
AcDbEntity
  8
None
370
               9
390
0
  6
Continuous
 62
               7
100
AcDbCircle
 10
-4.5125000000000224
 20
4.8875000000000028
 30
0.0
 40
0.2550000000000001
  0
CIRCLE
  5
283
100
AcDbEntity
  8
None
370
               9
390
0
  6
Continuous
 62
               7
100
AcDbCircle
 10
-3.5125000000000228
 20
4.8875000000000028
 30
0.0
 40
0.2550000000000001
  0
CIRCLE
  5
284
100
AcDbEntity
  8
None
370
               9
390
0
  6
Continuous
 62
               7
100
AcDbCircle
 10
-2.5125000000000233
 20
4.8875000000000028
 30
0.0
 40
0.2550000000000001
  0
CIRCLE
  5
285
100
AcDbEntity
  8
None
370
               9
390
0
  6
Continuous
 62
               7
100
AcDbCircle
 10
-1.5125000000000233
 20
4.8875000000000028
 30
0.0
 40
0.2550000000000001
  0
CIRCLE
  5
286
100
AcDbEntity
  8
None
370
               9
390
0
  6
Continuous
 62
               7
100
AcDbCircle
 10
-0.5125000000000206
 20
4.8875000000000028
 30
0.0
 40
0.2550000000000009
  0
CIRCLE
  5
287
100
AcDbEntity
  8
None
370
               9
390
0
  6
Continuous
 62
               7
100
AcDbCircle
 10
0.4874999999999838
 20
4.8875000000000028
 30
0.0
 40
0.2550000000000009
  0
CIRCLE
  5
288
100
AcDbEntity
  8
None
370
               9
390
0
  6
Continuous
 62
               7
100
AcDbCircle
 10
1.4874999999999874
 20
4.8875000000000028
 30
0.0
 40
0.2550000000000009
  0
CIRCLE
  5
289
100
AcDbEntity
  8
None
370
               9
390
0
  6
Continuous
 62
               7
100
AcDbCircle
 10
2.4874999999999918
 20
4.8875000000000028
 30
0.0
 40
0.2550000000000009
  0
CIRCLE
  5
28A
100
AcDbEntity
  8
None
370
               9
390
0
  6
Continuous
 62
               7
100
AcDbCircle
 10
3.4874999999999954
 20
4.8875000000000028
 30
0.0
 40
0.2550000000000009
  0
CIRCLE
  5
28B
100
AcDbEntity
  8
None
370
               9
390
0
  6
Continuous
 62
               7
100
AcDbCircle
 10
4.4874999999999989
 20
4.8875000000000028
 30
0.0
 40
0.2550000000000009
  0
CIRCLE
  5
28C
100
AcDbEntity
  8
None
370
               9
390
0
  6
Continuous
 62
               7
100
AcDbCircle
 10
5.4874999999999998
 20
4.8875000000000028
 30
0.0
 40
0.2550000000000001
  0
CIRCLE
  5
28D
100
AcDbEntity
  8
None
370
               9
390
0
  6
Continuous
 62
               7
100
AcDbCircle
 10
6.4874999999999998
 20
4.8875000000000028
 30
0.0
 40
0.2550000000000001
  0
CIRCLE
  5
28E
100
AcDbEntity
  8
None
370
               9
390
0
  6
Continuous
 62
               7
100
AcDbCircle
 10
7.487499999999998
 20
4.8875000000000028
 30
0.0
 40
0.254999999999997
  0
CIRCLE
  5
28F
100
AcDbEntity
  8
None
370
               9
390
0
  6
Continuous
 62
               7
100
AcDbCircle
 10
8.4874999999999972
 20
4.8875000000000028
 30
0.0
 40
0.254999999999997
  0
CIRCLE
  5
290
100
AcDbEntity
  8
None
370
               9
390
0
  6
Continuous
 62
               7
100
AcDbCircle
 10
9.4874999999999972
 20
4.8875000000000028
 30
0.0
 40
0.254999999999997
  0
CIRCLE
  5
291
100
AcDbEntity
  8
None
370
               9
390
0
  6
Continuous
 62
               7
100
AcDbCircle
 10
10.487499999999997
 20
4.8875000000000028
 30
0.0
 40
0.254999999999997
  0
CIRCLE
  5
292
100
AcDbEntity
  8
None
370
               9
390
0
  6
Continuous
 62
               7
100
AcDbCircle
 10
11.487499999999997
 20
4.8875000000000028
 30
0.0
 40
0.254999999999997
  0
CIRCLE
  5
293
100
AcDbEntity
  8
None
370
               9
390
0
  6
Continuous
 62
               7
100
AcDbCircle
 10
12.487499999999997
 20
4.8875000000000028
 30
0.0
 40
0.254999999999997
  0
CIRCLE
  5
294
100
AcDbEntity
  8
None
370
               9
390
0
  6
Continuous
 62
               7
100
AcDbCircle
 10
13.487499999999997
 20
4.8875000000000028
 30
0.0
 40
0.254999999999997
  0
CIRCLE
  5
295
100
AcDbEntity
  8
None
370
               9
390
0
  6
Continuous
 62
               7
100
AcDbCircle
 10
14.487499999999997
 20
4.8875000000000028
 30
0.0
 40
0.254999999999997
  0
CIRCLE
  5
296
100
AcDbEntity
  8
None
370
               9
390
0
  6
Continuous
 62
               7
100
AcDbCircle
 10
-20.512500000000003
 20
3.8875000000000028
 30
0.0
 40
0.2550000000000001
  0
CIRCLE
  5
297
100
AcDbEntity
  8
None
370
               9
390
0
  6
Continuous
 62
               7
100
AcDbCircle
 10
-19.512500000000003
 20
3.8875000000000028
 30
0.0
 40
0.2550000000000001
  0
CIRCLE
  5
298
100
AcDbEntity
  8
None
370
               9
390
0
  6
Continuous
 62
               7
100
AcDbCircle
 10
-18.512499999999999
 20
3.8875000000000028
 30
0.0
 40
0.2550000000000001
  0
CIRCLE
  5
299
100
AcDbEntity
  8
None
370
               9
390
0
  6
Continuous
 62
               7
100
AcDbCircle
 10
-17.512499999999999
 20
3.8875000000000028
 30
0.0
 40
0.2550000000000001
  0
CIRCLE
  5
29A
100
AcDbEntity
  8
None
370
               9
390
0
  6
Continuous
 62
               7
100
AcDbCircle
 10
-16.512500000000003
 20
3.8875000000000028
 30
0.0
 40
0.2550000000000001
  0
CIRCLE
  5
29B
100
AcDbEntity
  8
None
370
               9
390
0
  6
Continuous
 62
               7
100
AcDbCircle
 10
-15.512500000000006
 20
3.8875000000000028
 30
0.0
 40
0.2550000000000001
  0
CIRCLE
  5
29C
100
AcDbEntity
  8
None
370
               9
390
0
  6
Continuous
 62
               7
100
AcDbCircle
 10
-14.51250000000001
 20
3.8875000000000028
 30
0.0
 40
0.2550000000000001
  0
CIRCLE
  5
29D
100
AcDbEntity
  8
None
370
               9
390
0
  6
Continuous
 62
               7
100
AcDbCircle
 10
-13.512500000000017
 20
3.8875000000000028
 30
0.0
 40
0.254999999999997
  0
CIRCLE
  5
29E
100
AcDbEntity
  8
None
370
               9
390
0
  6
Continuous
 62
               7
100
AcDbCircle
 10
-12.512500000000021
 20
3.8875000000000028
 30
0.0
 40
0.254999999999997
  0
CIRCLE
  5
29F
100
AcDbEntity
  8
None
370
               9
390
0
  6
Continuous
 62
               7
100
AcDbCircle
 10
-11.512500000000024
 20
3.8875000000000028
 30
0.0
 40
0.254999999999997
  0
CIRCLE
  5
2A0
100
AcDbEntity
  8
None
370
               9
390
0
  6
Continuous
 62
               7
100
AcDbCircle
 10
-10.512500000000024
 20
3.8875000000000028
 30
0.0
 40
0.2550000000000001
  0
CIRCLE
  5
2A1
100
AcDbEntity
  8
None
370
               9
390
0
  6
Continuous
 62
               7
100
AcDbCircle
 10
-9.5125000000000224
 20
3.8875000000000028
 30
0.0
 40
0.2550000000000001
  0
CIRCLE
  5
2A2
100
AcDbEntity
  8
None
370
               9
390
0
  6
Continuous
 62
               7
100
AcDbCircle
 10
-8.5125000000000224
 20
3.8875000000000028
 30
0.0
 40
0.2550000000000001
  0
CIRCLE
  5
2A3
100
AcDbEntity
  8
None
370
               9
390
0
  6
Continuous
 62
               7
100
AcDbCircle
 10
-7.5125000000000224
 20
3.8875000000000028
 30
0.0
 40
0.2550000000000001
  0
CIRCLE
  5
2A4
100
AcDbEntity
  8
None
370
               9
390
0
  6
Continuous
 62
               7
100
AcDbCircle
 10
-6.5125000000000224
 20
3.8875000000000028
 30
0.0
 40
0.2550000000000001
  0
CIRCLE
  5
2A5
100
AcDbEntity
  8
None
370
               9
390
0
  6
Continuous
 62
               7
100
AcDbCircle
 10
-5.5125000000000224
 20
3.8875000000000028
 30
0.0
 40
0.2550000000000001
  0
CIRCLE
  5
2A6
100
AcDbEntity
  8
None
370
               9
390
0
  6
Continuous
 62
               7
100
AcDbCircle
 10
-4.5125000000000224
 20
3.8875000000000028
 30
0.0
 40
0.2550000000000001
  0
CIRCLE
  5
2A7
100
AcDbEntity
  8
None
370
               9
390
0
  6
Continuous
 62
               7
100
AcDbCircle
 10
-3.5125000000000228
 20
3.8875000000000028
 30
0.0
 40
0.2550000000000001
  0
CIRCLE
  5
2A8
100
AcDbEntity
  8
None
370
               9
390
0
  6
Continuous
 62
               7
100
AcDbCircle
 10
-2.5125000000000233
 20
3.8875000000000028
 30
0.0
 40
0.2550000000000001
  0
CIRCLE
  5
2A9
100
AcDbEntity
  8
None
370
               9
390
0
  6
Continuous
 62
               7
100
AcDbCircle
 10
-1.5125000000000233
 20
3.8875000000000028
 30
0.0
 40
0.2550000000000001
  0
CIRCLE
  5
2AA
100
AcDbEntity
  8
None
370
               9
390
0
  6
Continuous
 62
               7
100
AcDbCircle
 10
-0.5125000000000206
 20
3.8875000000000028
 30
0.0
 40
0.2550000000000009
  0
CIRCLE
  5
2AB
100
AcDbEntity
  8
None
370
               9
390
0
  6
Continuous
 62
               7
100
AcDbCircle
 10
0.4874999999999838
 20
3.8875000000000028
 30
0.0
 40
0.2550000000000009
  0
CIRCLE
  5
2AC
100
AcDbEntity
  8
None
370
               9
390
0
  6
Continuous
 62
               7
100
AcDbCircle
 10
1.4874999999999874
 20
3.8875000000000028
 30
0.0
 40
0.2550000000000009
  0
CIRCLE
  5
2AD
100
AcDbEntity
  8
None
370
               9
390
0
  6
Continuous
 62
               7
100
AcDbCircle
 10
2.4874999999999918
 20
3.8875000000000028
 30
0.0
 40
0.2550000000000009
  0
CIRCLE
  5
2AE
100
AcDbEntity
  8
None
370
               9
390
0
  6
Continuous
 62
               7
100
AcDbCircle
 10
3.4874999999999954
 20
3.8875000000000028
 30
0.0
 40
0.2550000000000009
  0
CIRCLE
  5
2AF
100
AcDbEntity
  8
None
370
               9
390
0
  6
Continuous
 62
               7
100
AcDbCircle
 10
4.4874999999999989
 20
3.8875000000000028
 30
0.0
 40
0.2550000000000009
  0
CIRCLE
  5
2B0
100
AcDbEntity
  8
None
370
               9
390
0
  6
Continuous
 62
               7
100
AcDbCircle
 10
5.4874999999999998
 20
3.8875000000000028
 30
0.0
 40
0.2550000000000001
  0
CIRCLE
  5
2B1
100
AcDbEntity
  8
None
370
               9
390
0
  6
Continuous
 62
               7
100
AcDbCircle
 10
6.4874999999999998
 20
3.8875000000000028
 30
0.0
 40
0.2550000000000001
  0
CIRCLE
  5
2B2
100
AcDbEntity
  8
None
370
               9
390
0
  6
Continuous
 62
               7
100
AcDbCircle
 10
7.487499999999998
 20
3.8875000000000028
 30
0.0
 40
0.254999999999997
  0
CIRCLE
  5
2B3
100
AcDbEntity
  8
None
370
               9
390
0
  6
Continuous
 62
               7
100
AcDbCircle
 10
8.4874999999999972
 20
3.8875000000000028
 30
0.0
 40
0.254999999999997
  0
CIRCLE
  5
2B4
100
AcDbEntity
  8
None
370
               9
390
0
  6
Continuous
 62
               7
100
AcDbCircle
 10
9.4874999999999972
 20
3.8875000000000028
 30
0.0
 40
0.254999999999997
  0
CIRCLE
  5
2B5
100
AcDbEntity
  8
None
370
               9
390
0
  6
Continuous
 62
               7
100
AcDbCircle
 10
10.487499999999997
 20
3.8875000000000028
 30
0.0
 40
0.254999999999997
  0
CIRCLE
  5
2B6
100
AcDbEntity
  8
None
370
               9
390
0
  6
Continuous
 62
               7
100
AcDbCircle
 10
11.487499999999997
 20
3.8875000000000028
 30
0.0
 40
0.254999999999997
  0
CIRCLE
  5
2B7
100
AcDbEntity
  8
None
370
               9
390
0
  6
Continuous
 62
               7
100
AcDbCircle
 10
12.487499999999997
 20
3.8875000000000028
 30
0.0
 40
0.254999999999997
  0
CIRCLE
  5
2B8
100
AcDbEntity
  8
None
370
               9
390
0
  6
Continuous
 62
               7
100
AcDbCircle
 10
13.487499999999997
 20
3.8875000000000028
 30
0.0
 40
0.254999999999997
  0
CIRCLE
  5
2B9
100
AcDbEntity
  8
None
370
               9
390
0
  6
Continuous
 62
               7
100
AcDbCircle
 10
14.487499999999997
 20
3.8875000000000028
 30
0.0
 40
0.254999999999997
  0
CIRCLE
  5
2BA
100
AcDbEntity
  8
None
370
               9
390
0
  6
Continuous
 62
               7
100
AcDbCircle
 10
-20.512500000000003
 20
2.8875000000000028
 30
0.0
 40
0.2550000000000001
  0
CIRCLE
  5
2BB
100
AcDbEntity
  8
None
370
               9
390
0
  6
Continuous
 62
               7
100
AcDbCircle
 10
-19.512500000000003
 20
2.8875000000000028
 30
0.0
 40
0.2550000000000001
  0
CIRCLE
  5
2BC
100
AcDbEntity
  8
None
370
               9
390
0
  6
Continuous
 62
               7
100
AcDbCircle
 10
-18.512499999999999
 20
2.8875000000000028
 30
0.0
 40
0.2550000000000001
  0
CIRCLE
  5
2BD
100
AcDbEntity
  8
None
370
               9
390
0
  6
Continuous
 62
               7
100
AcDbCircle
 10
-17.512499999999999
 20
2.8875000000000028
 30
0.0
 40
0.2550000000000001
  0
CIRCLE
  5
2BE
100
AcDbEntity
  8
None
370
               9
390
0
  6
Continuous
 62
               7
100
AcDbCircle
 10
-16.512500000000003
 20
2.8875000000000028
 30
0.0
 40
0.2550000000000001
  0
CIRCLE
  5
2BF
100
AcDbEntity
  8
None
370
               9
390
0
  6
Continuous
 62
               7
100
AcDbCircle
 10
-15.512500000000006
 20
2.8875000000000028
 30
0.0
 40
0.2550000000000001
  0
CIRCLE
  5
2C0
100
AcDbEntity
  8
None
370
               9
390
0
  6
Continuous
 62
               7
100
AcDbCircle
 10
-14.51250000000001
 20
2.8875000000000028
 30
0.0
 40
0.2550000000000001
  0
CIRCLE
  5
2C1
100
AcDbEntity
  8
None
370
               9
390
0
  6
Continuous
 62
               7
100
AcDbCircle
 10
-13.512500000000017
 20
2.8875000000000028
 30
0.0
 40
0.254999999999997
  0
CIRCLE
  5
2C2
100
AcDbEntity
  8
None
370
               9
390
0
  6
Continuous
 62
               7
100
AcDbCircle
 10
-12.512500000000021
 20
2.8875000000000028
 30
0.0
 40
0.254999999999997
  0
CIRCLE
  5
2C3
100
AcDbEntity
  8
None
370
               9
390
0
  6
Continuous
 62
               7
100
AcDbCircle
 10
-11.512500000000024
 20
2.8875000000000028
 30
0.0
 40
0.254999999999997
  0
CIRCLE
  5
2C4
100
AcDbEntity
  8
None
370
               9
390
0
  6
Continuous
 62
               7
100
AcDbCircle
 10
-10.512500000000024
 20
2.8875000000000028
 30
0.0
 40
0.2550000000000001
  0
CIRCLE
  5
2C5
100
AcDbEntity
  8
None
370
               9
390
0
  6
Continuous
 62
               7
100
AcDbCircle
 10
-9.5125000000000224
 20
2.8875000000000028
 30
0.0
 40
0.2550000000000001
  0
CIRCLE
  5
2C6
100
AcDbEntity
  8
None
370
               9
390
0
  6
Continuous
 62
               7
100
AcDbCircle
 10
-8.5125000000000224
 20
2.8875000000000028
 30
0.0
 40
0.2550000000000001
  0
CIRCLE
  5
2C7
100
AcDbEntity
  8
None
370
               9
390
0
  6
Continuous
 62
               7
100
AcDbCircle
 10
-7.5125000000000224
 20
2.8875000000000028
 30
0.0
 40
0.2550000000000001
  0
CIRCLE
  5
2C8
100
AcDbEntity
  8
None
370
               9
390
0
  6
Continuous
 62
               7
100
AcDbCircle
 10
-6.5125000000000224
 20
2.8875000000000028
 30
0.0
 40
0.2550000000000001
  0
CIRCLE
  5
2C9
100
AcDbEntity
  8
None
370
               9
390
0
  6
Continuous
 62
               7
100
AcDbCircle
 10
-5.5125000000000224
 20
2.8875000000000028
 30
0.0
 40
0.2550000000000001
  0
CIRCLE
  5
2CA
100
AcDbEntity
  8
None
370
               9
390
0
  6
Continuous
 62
               7
100
AcDbCircle
 10
-4.5125000000000224
 20
2.8875000000000028
 30
0.0
 40
0.2550000000000001
  0
CIRCLE
  5
2CB
100
AcDbEntity
  8
None
370
               9
390
0
  6
Continuous
 62
               7
100
AcDbCircle
 10
-3.5125000000000228
 20
2.8875000000000028
 30
0.0
 40
0.2550000000000001
  0
CIRCLE
  5
2CC
100
AcDbEntity
  8
None
370
               9
390
0
  6
Continuous
 62
               7
100
AcDbCircle
 10
-2.5125000000000233
 20
2.8875000000000028
 30
0.0
 40
0.2550000000000001
  0
CIRCLE
  5
2CD
100
AcDbEntity
  8
None
370
               9
390
0
  6
Continuous
 62
               7
100
AcDbCircle
 10
-1.5125000000000233
 20
2.8875000000000028
 30
0.0
 40
0.2550000000000001
  0
CIRCLE
  5
2CE
100
AcDbEntity
  8
None
370
               9
390
0
  6
Continuous
 62
               7
100
AcDbCircle
 10
-0.5125000000000206
 20
2.8875000000000028
 30
0.0
 40
0.2550000000000009
  0
CIRCLE
  5
2CF
100
AcDbEntity
  8
None
370
               9
390
0
  6
Continuous
 62
               7
100
AcDbCircle
 10
0.4874999999999838
 20
2.8875000000000028
 30
0.0
 40
0.2550000000000009
  0
CIRCLE
  5
2D0
100
AcDbEntity
  8
None
370
               9
390
0
  6
Continuous
 62
               7
100
AcDbCircle
 10
1.4874999999999874
 20
2.8875000000000028
 30
0.0
 40
0.2550000000000009
  0
CIRCLE
  5
2D1
100
AcDbEntity
  8
None
370
               9
390
0
  6
Continuous
 62
               7
100
AcDbCircle
 10
2.4874999999999918
 20
2.8875000000000028
 30
0.0
 40
0.2550000000000009
  0
CIRCLE
  5
2D2
100
AcDbEntity
  8
None
370
               9
390
0
  6
Continuous
 62
               7
100
AcDbCircle
 10
3.4874999999999954
 20
2.8875000000000028
 30
0.0
 40
0.2550000000000009
  0
CIRCLE
  5
2D3
100
AcDbEntity
  8
None
370
               9
390
0
  6
Continuous
 62
               7
100
AcDbCircle
 10
4.4874999999999989
 20
2.8875000000000028
 30
0.0
 40
0.2550000000000009
  0
CIRCLE
  5
2D4
100
AcDbEntity
  8
None
370
               9
390
0
  6
Continuous
 62
               7
100
AcDbCircle
 10
5.4874999999999998
 20
2.8875000000000028
 30
0.0
 40
0.2550000000000001
  0
CIRCLE
  5
2D5
100
AcDbEntity
  8
None
370
               9
390
0
  6
Continuous
 62
               7
100
AcDbCircle
 10
6.4874999999999998
 20
2.8875000000000028
 30
0.0
 40
0.2550000000000001
  0
CIRCLE
  5
2D6
100
AcDbEntity
  8
None
370
               9
390
0
  6
Continuous
 62
               7
100
AcDbCircle
 10
7.487499999999998
 20
2.8875000000000028
 30
0.0
 40
0.254999999999997
  0
CIRCLE
  5
2D7
100
AcDbEntity
  8
None
370
               9
390
0
  6
Continuous
 62
               7
100
AcDbCircle
 10
8.4874999999999972
 20
2.8875000000000028
 30
0.0
 40
0.254999999999997
  0
CIRCLE
  5
2D8
100
AcDbEntity
  8
None
370
               9
390
0
  6
Continuous
 62
               7
100
AcDbCircle
 10
9.4874999999999972
 20
2.8875000000000028
 30
0.0
 40
0.254999999999997
  0
CIRCLE
  5
2D9
100
AcDbEntity
  8
None
370
               9
390
0
  6
Continuous
 62
               7
100
AcDbCircle
 10
10.487499999999997
 20
2.8875000000000028
 30
0.0
 40
0.254999999999997
  0
CIRCLE
  5
2DA
100
AcDbEntity
  8
None
370
               9
390
0
  6
Continuous
 62
               7
100
AcDbCircle
 10
11.487499999999997
 20
2.8875000000000028
 30
0.0
 40
0.254999999999997
  0
CIRCLE
  5
2DB
100
AcDbEntity
  8
None
370
               9
390
0
  6
Continuous
 62
               7
100
AcDbCircle
 10
12.487499999999997
 20
2.8875000000000028
 30
0.0
 40
0.254999999999997
  0
CIRCLE
  5
2DC
100
AcDbEntity
  8
None
370
               9
390
0
  6
Continuous
 62
               7
100
AcDbCircle
 10
13.487499999999997
 20
2.8875000000000028
 30
0.0
 40
0.254999999999997
  0
CIRCLE
  5
2DD
100
AcDbEntity
  8
None
370
               9
390
0
  6
Continuous
 62
               7
100
AcDbCircle
 10
14.487499999999997
 20
2.8875000000000028
 30
0.0
 40
0.254999999999997
  0
CIRCLE
  5
2DE
100
AcDbEntity
  8
None
370
               9
390
0
  6
Continuous
 62
               7
100
AcDbCircle
 10
-20.512500000000003
 20
1.8875000000000028
 30
0.0
 40
0.2550000000000001
  0
CIRCLE
  5
2DF
100
AcDbEntity
  8
None
370
               9
390
0
  6
Continuous
 62
               7
100
AcDbCircle
 10
-19.512500000000003
 20
1.8875000000000028
 30
0.0
 40
0.2550000000000001
  0
CIRCLE
  5
2E0
100
AcDbEntity
  8
None
370
               9
390
0
  6
Continuous
 62
               7
100
AcDbCircle
 10
-18.512499999999999
 20
1.8875000000000028
 30
0.0
 40
0.2550000000000001
  0
CIRCLE
  5
2E1
100
AcDbEntity
  8
None
370
               9
390
0
  6
Continuous
 62
               7
100
AcDbCircle
 10
-17.512499999999999
 20
1.8875000000000028
 30
0.0
 40
0.2550000000000001
  0
CIRCLE
  5
2E2
100
AcDbEntity
  8
None
370
               9
390
0
  6
Continuous
 62
               7
100
AcDbCircle
 10
-16.512500000000003
 20
1.8875000000000028
 30
0.0
 40
0.2550000000000001
  0
CIRCLE
  5
2E3
100
AcDbEntity
  8
None
370
               9
390
0
  6
Continuous
 62
               7
100
AcDbCircle
 10
-15.512500000000006
 20
1.8875000000000028
 30
0.0
 40
0.2550000000000001
  0
CIRCLE
  5
2E4
100
AcDbEntity
  8
None
370
               9
390
0
  6
Continuous
 62
               7
100
AcDbCircle
 10
-14.51250000000001
 20
1.8875000000000028
 30
0.0
 40
0.2550000000000001
  0
CIRCLE
  5
2E5
100
AcDbEntity
  8
None
370
               9
390
0
  6
Continuous
 62
               7
100
AcDbCircle
 10
-13.512500000000017
 20
1.8875000000000028
 30
0.0
 40
0.254999999999997
  0
CIRCLE
  5
2E6
100
AcDbEntity
  8
None
370
               9
390
0
  6
Continuous
 62
               7
100
AcDbCircle
 10
-12.512500000000021
 20
1.8875000000000028
 30
0.0
 40
0.254999999999997
  0
CIRCLE
  5
2E7
100
AcDbEntity
  8
None
370
               9
390
0
  6
Continuous
 62
               7
100
AcDbCircle
 10
-11.512500000000024
 20
1.8875000000000028
 30
0.0
 40
0.254999999999997
  0
CIRCLE
  5
2E8
100
AcDbEntity
  8
None
370
               9
390
0
  6
Continuous
 62
               7
100
AcDbCircle
 10
-10.512500000000024
 20
1.8875000000000028
 30
0.0
 40
0.2550000000000001
  0
CIRCLE
  5
2E9
100
AcDbEntity
  8
None
370
               9
390
0
  6
Continuous
 62
               7
100
AcDbCircle
 10
-9.5125000000000224
 20
1.8875000000000028
 30
0.0
 40
0.2550000000000001
  0
CIRCLE
  5
2EA
100
AcDbEntity
  8
None
370
               9
390
0
  6
Continuous
 62
               7
100
AcDbCircle
 10
-8.5125000000000224
 20
1.8875000000000028
 30
0.0
 40
0.2550000000000001
  0
CIRCLE
  5
2EB
100
AcDbEntity
  8
None
370
               9
390
0
  6
Continuous
 62
               7
100
AcDbCircle
 10
-7.5125000000000224
 20
1.8875000000000028
 30
0.0
 40
0.2550000000000001
  0
CIRCLE
  5
2EC
100
AcDbEntity
  8
None
370
               9
390
0
  6
Continuous
 62
               7
100
AcDbCircle
 10
-6.5125000000000224
 20
1.8875000000000028
 30
0.0
 40
0.2550000000000001
  0
CIRCLE
  5
2ED
100
AcDbEntity
  8
None
370
               9
390
0
  6
Continuous
 62
               7
100
AcDbCircle
 10
-5.5125000000000224
 20
1.8875000000000028
 30
0.0
 40
0.2550000000000001
  0
CIRCLE
  5
2EE
100
AcDbEntity
  8
None
370
               9
390
0
  6
Continuous
 62
               7
100
AcDbCircle
 10
-4.5125000000000224
 20
1.8875000000000028
 30
0.0
 40
0.2550000000000001
  0
CIRCLE
  5
2EF
100
AcDbEntity
  8
None
370
               9
390
0
  6
Continuous
 62
               7
100
AcDbCircle
 10
-3.5125000000000228
 20
1.8875000000000028
 30
0.0
 40
0.2550000000000001
  0
CIRCLE
  5
2F0
100
AcDbEntity
  8
None
370
               9
390
0
  6
Continuous
 62
               7
100
AcDbCircle
 10
-2.5125000000000233
 20
1.8875000000000028
 30
0.0
 40
0.2550000000000001
  0
CIRCLE
  5
2F1
100
AcDbEntity
  8
None
370
               9
390
0
  6
Continuous
 62
               7
100
AcDbCircle
 10
-1.5125000000000233
 20
1.8875000000000028
 30
0.0
 40
0.2550000000000001
  0
CIRCLE
  5
2F2
100
AcDbEntity
  8
None
370
               9
390
0
  6
Continuous
 62
               7
100
AcDbCircle
 10
-0.5125000000000206
 20
1.8875000000000028
 30
0.0
 40
0.2550000000000009
  0
CIRCLE
  5
2F3
100
AcDbEntity
  8
None
370
               9
390
0
  6
Continuous
 62
               7
100
AcDbCircle
 10
0.4874999999999838
 20
1.8875000000000028
 30
0.0
 40
0.2550000000000009
  0
CIRCLE
  5
2F4
100
AcDbEntity
  8
None
370
               9
390
0
  6
Continuous
 62
               7
100
AcDbCircle
 10
1.4874999999999874
 20
1.8875000000000028
 30
0.0
 40
0.2550000000000009
  0
CIRCLE
  5
2F5
100
AcDbEntity
  8
None
370
               9
390
0
  6
Continuous
 62
               7
100
AcDbCircle
 10
2.4874999999999918
 20
1.8875000000000028
 30
0.0
 40
0.2550000000000009
  0
CIRCLE
  5
2F6
100
AcDbEntity
  8
None
370
               9
390
0
  6
Continuous
 62
               7
100
AcDbCircle
 10
3.4874999999999954
 20
1.8875000000000028
 30
0.0
 40
0.2550000000000009
  0
CIRCLE
  5
2F7
100
AcDbEntity
  8
None
370
               9
390
0
  6
Continuous
 62
               7
100
AcDbCircle
 10
4.4874999999999989
 20
1.8875000000000028
 30
0.0
 40
0.2550000000000009
  0
CIRCLE
  5
2F8
100
AcDbEntity
  8
None
370
               9
390
0
  6
Continuous
 62
               7
100
AcDbCircle
 10
5.4874999999999998
 20
1.8875000000000028
 30
0.0
 40
0.2550000000000001
  0
CIRCLE
  5
2F9
100
AcDbEntity
  8
None
370
               9
390
0
  6
Continuous
 62
               7
100
AcDbCircle
 10
6.4874999999999998
 20
1.8875000000000028
 30
0.0
 40
0.2550000000000001
  0
CIRCLE
  5
2FA
100
AcDbEntity
  8
None
370
               9
390
0
  6
Continuous
 62
               7
100
AcDbCircle
 10
7.487499999999998
 20
1.8875000000000028
 30
0.0
 40
0.254999999999997
  0
CIRCLE
  5
2FB
100
AcDbEntity
  8
None
370
               9
390
0
  6
Continuous
 62
               7
100
AcDbCircle
 10
8.4874999999999972
 20
1.8875000000000028
 30
0.0
 40
0.254999999999997
  0
CIRCLE
  5
2FC
100
AcDbEntity
  8
None
370
               9
390
0
  6
Continuous
 62
               7
100
AcDbCircle
 10
9.4874999999999972
 20
1.8875000000000028
 30
0.0
 40
0.254999999999997
  0
CIRCLE
  5
2FD
100
AcDbEntity
  8
None
370
               9
390
0
  6
Continuous
 62
               7
100
AcDbCircle
 10
10.487499999999997
 20
1.8875000000000028
 30
0.0
 40
0.254999999999997
  0
CIRCLE
  5
2FE
100
AcDbEntity
  8
None
370
               9
390
0
  6
Continuous
 62
               7
100
AcDbCircle
 10
11.487499999999997
 20
1.8875000000000028
 30
0.0
 40
0.254999999999997
  0
CIRCLE
  5
2FF
100
AcDbEntity
  8
None
370
               9
390
0
  6
Continuous
 62
               7
100
AcDbCircle
 10
12.487499999999997
 20
1.8875000000000028
 30
0.0
 40
0.254999999999997
  0
CIRCLE
  5
300
100
AcDbEntity
  8
None
370
               9
390
0
  6
Continuous
 62
               7
100
AcDbCircle
 10
13.487499999999997
 20
1.8875000000000028
 30
0.0
 40
0.254999999999997
  0
CIRCLE
  5
301
100
AcDbEntity
  8
None
370
               9
390
0
  6
Continuous
 62
               7
100
AcDbCircle
 10
14.487499999999997
 20
1.8875000000000028
 30
0.0
 40
0.254999999999997
  0
CIRCLE
  5
302
100
AcDbEntity
  8
None
370
               9
390
0
  6
Continuous
 62
               7
100
AcDbCircle
 10
-20.512500000000003
 20
0.8875000000000028
 30
0.0
 40
0.2550000000000001
  0
CIRCLE
  5
303
100
AcDbEntity
  8
None
370
               9
390
0
  6
Continuous
 62
               7
100
AcDbCircle
 10
-19.512500000000003
 20
0.8875000000000028
 30
0.0
 40
0.2550000000000001
  0
CIRCLE
  5
304
100
AcDbEntity
  8
None
370
               9
390
0
  6
Continuous
 62
               7
100
AcDbCircle
 10
-18.512499999999999
 20
0.8875000000000028
 30
0.0
 40
0.2550000000000001
  0
CIRCLE
  5
305
100
AcDbEntity
  8
None
370
               9
390
0
  6
Continuous
 62
               7
100
AcDbCircle
 10
-17.512499999999999
 20
0.8875000000000028
 30
0.0
 40
0.2550000000000001
  0
CIRCLE
  5
306
100
AcDbEntity
  8
None
370
               9
390
0
  6
Continuous
 62
               7
100
AcDbCircle
 10
-16.512500000000003
 20
0.8875000000000028
 30
0.0
 40
0.2550000000000001
  0
CIRCLE
  5
307
100
AcDbEntity
  8
None
370
               9
390
0
  6
Continuous
 62
               7
100
AcDbCircle
 10
-15.512500000000006
 20
0.8875000000000028
 30
0.0
 40
0.2550000000000001
  0
CIRCLE
  5
308
100
AcDbEntity
  8
None
370
               9
390
0
  6
Continuous
 62
               7
100
AcDbCircle
 10
-14.51250000000001
 20
0.8875000000000028
 30
0.0
 40
0.2550000000000001
  0
CIRCLE
  5
309
100
AcDbEntity
  8
None
370
               9
390
0
  6
Continuous
 62
               7
100
AcDbCircle
 10
-13.512500000000017
 20
0.8875000000000028
 30
0.0
 40
0.254999999999997
  0
CIRCLE
  5
30A
100
AcDbEntity
  8
None
370
               9
390
0
  6
Continuous
 62
               7
100
AcDbCircle
 10
-12.512500000000021
 20
0.8875000000000028
 30
0.0
 40
0.254999999999997
  0
CIRCLE
  5
30B
100
AcDbEntity
  8
None
370
               9
390
0
  6
Continuous
 62
               7
100
AcDbCircle
 10
-11.512500000000024
 20
0.8875000000000028
 30
0.0
 40
0.254999999999997
  0
CIRCLE
  5
30C
100
AcDbEntity
  8
None
370
               9
390
0
  6
Continuous
 62
               7
100
AcDbCircle
 10
-10.512500000000024
 20
0.8875000000000028
 30
0.0
 40
0.2550000000000001
  0
CIRCLE
  5
30D
100
AcDbEntity
  8
None
370
               9
390
0
  6
Continuous
 62
               7
100
AcDbCircle
 10
-9.5125000000000224
 20
0.8875000000000028
 30
0.0
 40
0.2550000000000001
  0
CIRCLE
  5
30E
100
AcDbEntity
  8
None
370
               9
390
0
  6
Continuous
 62
               7
100
AcDbCircle
 10
-8.5125000000000224
 20
0.8875000000000028
 30
0.0
 40
0.2550000000000001
  0
CIRCLE
  5
30F
100
AcDbEntity
  8
None
370
               9
390
0
  6
Continuous
 62
               7
100
AcDbCircle
 10
-7.5125000000000224
 20
0.8875000000000028
 30
0.0
 40
0.2550000000000001
  0
CIRCLE
  5
310
100
AcDbEntity
  8
None
370
               9
390
0
  6
Continuous
 62
               7
100
AcDbCircle
 10
-6.5125000000000224
 20
0.8875000000000028
 30
0.0
 40
0.2550000000000001
  0
CIRCLE
  5
311
100
AcDbEntity
  8
None
370
               9
390
0
  6
Continuous
 62
               7
100
AcDbCircle
 10
-5.5125000000000224
 20
0.8875000000000028
 30
0.0
 40
0.2550000000000001
  0
CIRCLE
  5
312
100
AcDbEntity
  8
None
370
               9
390
0
  6
Continuous
 62
               7
100
AcDbCircle
 10
-4.5125000000000224
 20
0.8875000000000028
 30
0.0
 40
0.2550000000000001
  0
CIRCLE
  5
313
100
AcDbEntity
  8
None
370
               9
390
0
  6
Continuous
 62
               7
100
AcDbCircle
 10
-3.5125000000000228
 20
0.8875000000000028
 30
0.0
 40
0.2550000000000001
  0
CIRCLE
  5
314
100
AcDbEntity
  8
None
370
               9
390
0
  6
Continuous
 62
               7
100
AcDbCircle
 10
-2.5125000000000233
 20
0.8875000000000028
 30
0.0
 40
0.2550000000000001
  0
CIRCLE
  5
315
100
AcDbEntity
  8
None
370
               9
390
0
  6
Continuous
 62
               7
100
AcDbCircle
 10
-1.5125000000000233
 20
0.8875000000000028
 30
0.0
 40
0.2550000000000001
  0
CIRCLE
  5
316
100
AcDbEntity
  8
None
370
               9
390
0
  6
Continuous
 62
               7
100
AcDbCircle
 10
-0.5125000000000206
 20
0.8875000000000028
 30
0.0
 40
0.2550000000000009
  0
CIRCLE
  5
317
100
AcDbEntity
  8
None
370
               9
390
0
  6
Continuous
 62
               7
100
AcDbCircle
 10
0.4874999999999838
 20
0.8875000000000028
 30
0.0
 40
0.2550000000000009
  0
CIRCLE
  5
318
100
AcDbEntity
  8
None
370
               9
390
0
  6
Continuous
 62
               7
100
AcDbCircle
 10
1.4874999999999874
 20
0.8875000000000028
 30
0.0
 40
0.2550000000000009
  0
CIRCLE
  5
319
100
AcDbEntity
  8
None
370
               9
390
0
  6
Continuous
 62
               7
100
AcDbCircle
 10
2.4874999999999918
 20
0.8875000000000028
 30
0.0
 40
0.2550000000000009
  0
CIRCLE
  5
31A
100
AcDbEntity
  8
None
370
               9
390
0
  6
Continuous
 62
               7
100
AcDbCircle
 10
3.4874999999999954
 20
0.8875000000000028
 30
0.0
 40
0.2550000000000009
  0
CIRCLE
  5
31B
100
AcDbEntity
  8
None
370
               9
390
0
  6
Continuous
 62
               7
100
AcDbCircle
 10
4.4874999999999989
 20
0.8875000000000028
 30
0.0
 40
0.2550000000000009
  0
CIRCLE
  5
31C
100
AcDbEntity
  8
None
370
               9
390
0
  6
Continuous
 62
               7
100
AcDbCircle
 10
5.4874999999999998
 20
0.8875000000000028
 30
0.0
 40
0.2550000000000001
  0
CIRCLE
  5
31D
100
AcDbEntity
  8
None
370
               9
390
0
  6
Continuous
 62
               7
100
AcDbCircle
 10
6.4874999999999998
 20
0.8875000000000028
 30
0.0
 40
0.2550000000000001
  0
CIRCLE
  5
31E
100
AcDbEntity
  8
None
370
               9
390
0
  6
Continuous
 62
               7
100
AcDbCircle
 10
7.487499999999998
 20
0.8875000000000028
 30
0.0
 40
0.254999999999997
  0
CIRCLE
  5
31F
100
AcDbEntity
  8
None
370
               9
390
0
  6
Continuous
 62
               7
100
AcDbCircle
 10
8.4874999999999972
 20
0.8875000000000028
 30
0.0
 40
0.254999999999997
  0
CIRCLE
  5
320
100
AcDbEntity
  8
None
370
               9
390
0
  6
Continuous
 62
               7
100
AcDbCircle
 10
9.4874999999999972
 20
0.8875000000000028
 30
0.0
 40
0.254999999999997
  0
CIRCLE
  5
321
100
AcDbEntity
  8
None
370
               9
390
0
  6
Continuous
 62
               7
100
AcDbCircle
 10
10.487499999999997
 20
0.8875000000000028
 30
0.0
 40
0.254999999999997
  0
CIRCLE
  5
322
100
AcDbEntity
  8
None
370
               9
390
0
  6
Continuous
 62
               7
100
AcDbCircle
 10
11.487499999999997
 20
0.8875000000000028
 30
0.0
 40
0.254999999999997
  0
CIRCLE
  5
323
100
AcDbEntity
  8
None
370
               9
390
0
  6
Continuous
 62
               7
100
AcDbCircle
 10
12.487499999999997
 20
0.8875000000000028
 30
0.0
 40
0.254999999999997
  0
CIRCLE
  5
324
100
AcDbEntity
  8
None
370
               9
390
0
  6
Continuous
 62
               7
100
AcDbCircle
 10
13.487499999999997
 20
0.8875000000000028
 30
0.0
 40
0.254999999999997
  0
CIRCLE
  5
325
100
AcDbEntity
  8
None
370
               9
390
0
  6
Continuous
 62
               7
100
AcDbCircle
 10
14.487499999999997
 20
0.8875000000000028
 30
0.0
 40
0.254999999999997
  0
CIRCLE
  5
326
100
AcDbEntity
  8
None
370
               9
390
0
  6
Continuous
 62
               7
100
AcDbCircle
 10
-20.512500000000003
 20
-0.1124999999999972
 30
0.0
 40
0.2550000000000001
  0
CIRCLE
  5
327
100
AcDbEntity
  8
None
370
               9
390
0
  6
Continuous
 62
               7
100
AcDbCircle
 10
-19.512500000000003
 20
-0.1124999999999972
 30
0.0
 40
0.2550000000000001
  0
CIRCLE
  5
328
100
AcDbEntity
  8
None
370
               9
390
0
  6
Continuous
 62
               7
100
AcDbCircle
 10
-18.512499999999999
 20
-0.1124999999999972
 30
0.0
 40
0.2550000000000001
  0
CIRCLE
  5
329
100
AcDbEntity
  8
None
370
               9
390
0
  6
Continuous
 62
               7
100
AcDbCircle
 10
-17.512499999999999
 20
-0.1124999999999972
 30
0.0
 40
0.2550000000000001
  0
CIRCLE
  5
32A
100
AcDbEntity
  8
None
370
               9
390
0
  6
Continuous
 62
               7
100
AcDbCircle
 10
-16.512500000000003
 20
-0.1124999999999972
 30
0.0
 40
0.2550000000000001
  0
CIRCLE
  5
32B
100
AcDbEntity
  8
None
370
               9
390
0
  6
Continuous
 62
               7
100
AcDbCircle
 10
-15.512500000000006
 20
-0.1124999999999972
 30
0.0
 40
0.2550000000000001
  0
CIRCLE
  5
32C
100
AcDbEntity
  8
None
370
               9
390
0
  6
Continuous
 62
               7
100
AcDbCircle
 10
-14.51250000000001
 20
-0.1124999999999972
 30
0.0
 40
0.2550000000000001
  0
CIRCLE
  5
32D
100
AcDbEntity
  8
None
370
               9
390
0
  6
Continuous
 62
               7
100
AcDbCircle
 10
-13.512500000000017
 20
-0.1124999999999972
 30
0.0
 40
0.254999999999997
  0
CIRCLE
  5
32E
100
AcDbEntity
  8
None
370
               9
390
0
  6
Continuous
 62
               7
100
AcDbCircle
 10
-12.512500000000021
 20
-0.1124999999999972
 30
0.0
 40
0.254999999999997
  0
CIRCLE
  5
32F
100
AcDbEntity
  8
None
370
               9
390
0
  6
Continuous
 62
               7
100
AcDbCircle
 10
-11.512500000000024
 20
-0.1124999999999972
 30
0.0
 40
0.254999999999997
  0
CIRCLE
  5
330
100
AcDbEntity
  8
None
370
               9
390
0
  6
Continuous
 62
               7
100
AcDbCircle
 10
-10.512500000000024
 20
-0.1124999999999972
 30
0.0
 40
0.2550000000000001
  0
CIRCLE
  5
331
100
AcDbEntity
  8
None
370
               9
390
0
  6
Continuous
 62
               7
100
AcDbCircle
 10
-9.5125000000000224
 20
-0.1124999999999972
 30
0.0
 40
0.2550000000000001
  0
CIRCLE
  5
332
100
AcDbEntity
  8
None
370
               9
390
0
  6
Continuous
 62
               7
100
AcDbCircle
 10
-8.5125000000000224
 20
-0.1124999999999972
 30
0.0
 40
0.2550000000000001
  0
CIRCLE
  5
333
100
AcDbEntity
  8
None
370
               9
390
0
  6
Continuous
 62
               7
100
AcDbCircle
 10
-7.5125000000000224
 20
-0.1124999999999972
 30
0.0
 40
0.2550000000000001
  0
CIRCLE
  5
334
100
AcDbEntity
  8
None
370
               9
390
0
  6
Continuous
 62
               7
100
AcDbCircle
 10
-6.5125000000000224
 20
-0.1124999999999972
 30
0.0
 40
0.2550000000000001
  0
CIRCLE
  5
335
100
AcDbEntity
  8
None
370
               9
390
0
  6
Continuous
 62
               7
100
AcDbCircle
 10
-5.5125000000000224
 20
-0.1124999999999972
 30
0.0
 40
0.2550000000000001
  0
CIRCLE
  5
336
100
AcDbEntity
  8
None
370
               9
390
0
  6
Continuous
 62
               7
100
AcDbCircle
 10
-4.5125000000000224
 20
-0.1124999999999972
 30
0.0
 40
0.2550000000000001
  0
CIRCLE
  5
337
100
AcDbEntity
  8
None
370
               9
390
0
  6
Continuous
 62
               7
100
AcDbCircle
 10
-3.5125000000000228
 20
-0.1124999999999972
 30
0.0
 40
0.2550000000000001
  0
CIRCLE
  5
338
100
AcDbEntity
  8
None
370
               9
390
0
  6
Continuous
 62
               7
100
AcDbCircle
 10
-2.5125000000000233
 20
-0.1124999999999972
 30
0.0
 40
0.2550000000000001
  0
CIRCLE
  5
339
100
AcDbEntity
  8
None
370
               9
390
0
  6
Continuous
 62
               7
100
AcDbCircle
 10
-1.5125000000000233
 20
-0.1124999999999972
 30
0.0
 40
0.2550000000000001
  0
CIRCLE
  5
33A
100
AcDbEntity
  8
None
370
               9
390
0
  6
Continuous
 62
               7
100
AcDbCircle
 10
-0.5125000000000206
 20
-0.1124999999999972
 30
0.0
 40
0.2550000000000009
  0
CIRCLE
  5
33B
100
AcDbEntity
  8
None
370
               9
390
0
  6
Continuous
 62
               7
100
AcDbCircle
 10
0.4874999999999838
 20
-0.1124999999999972
 30
0.0
 40
0.2550000000000009
  0
CIRCLE
  5
33C
100
AcDbEntity
  8
None
370
               9
390
0
  6
Continuous
 62
               7
100
AcDbCircle
 10
1.4874999999999874
 20
-0.1124999999999972
 30
0.0
 40
0.2550000000000009
  0
CIRCLE
  5
33D
100
AcDbEntity
  8
None
370
               9
390
0
  6
Continuous
 62
               7
100
AcDbCircle
 10
2.4874999999999918
 20
-0.1124999999999972
 30
0.0
 40
0.2550000000000009
  0
CIRCLE
  5
33E
100
AcDbEntity
  8
None
370
               9
390
0
  6
Continuous
 62
               7
100
AcDbCircle
 10
3.4874999999999954
 20
-0.1124999999999972
 30
0.0
 40
0.2550000000000009
  0
CIRCLE
  5
33F
100
AcDbEntity
  8
None
370
               9
390
0
  6
Continuous
 62
               7
100
AcDbCircle
 10
4.4874999999999989
 20
-0.1124999999999972
 30
0.0
 40
0.2550000000000009
  0
CIRCLE
  5
340
100
AcDbEntity
  8
None
370
               9
390
0
  6
Continuous
 62
               7
100
AcDbCircle
 10
5.4874999999999998
 20
-0.1124999999999972
 30
0.0
 40
0.2550000000000001
  0
CIRCLE
  5
341
100
AcDbEntity
  8
None
370
               9
390
0
  6
Continuous
 62
               7
100
AcDbCircle
 10
6.4874999999999998
 20
-0.1124999999999972
 30
0.0
 40
0.2550000000000001
  0
CIRCLE
  5
342
100
AcDbEntity
  8
None
370
               9
390
0
  6
Continuous
 62
               7
100
AcDbCircle
 10
7.487499999999998
 20
-0.1124999999999972
 30
0.0
 40
0.254999999999997
  0
CIRCLE
  5
343
100
AcDbEntity
  8
None
370
               9
390
0
  6
Continuous
 62
               7
100
AcDbCircle
 10
8.4874999999999972
 20
-0.1124999999999972
 30
0.0
 40
0.254999999999997
  0
CIRCLE
  5
344
100
AcDbEntity
  8
None
370
               9
390
0
  6
Continuous
 62
               7
100
AcDbCircle
 10
9.4874999999999972
 20
-0.1124999999999972
 30
0.0
 40
0.254999999999997
  0
CIRCLE
  5
345
100
AcDbEntity
  8
None
370
               9
390
0
  6
Continuous
 62
               7
100
AcDbCircle
 10
10.487499999999997
 20
-0.1124999999999972
 30
0.0
 40
0.254999999999997
  0
CIRCLE
  5
346
100
AcDbEntity
  8
None
370
               9
390
0
  6
Continuous
 62
               7
100
AcDbCircle
 10
11.487499999999997
 20
-0.1124999999999972
 30
0.0
 40
0.254999999999997
  0
CIRCLE
  5
347
100
AcDbEntity
  8
None
370
               9
390
0
  6
Continuous
 62
               7
100
AcDbCircle
 10
12.487499999999997
 20
-0.1124999999999972
 30
0.0
 40
0.254999999999997
  0
CIRCLE
  5
348
100
AcDbEntity
  8
None
370
               9
390
0
  6
Continuous
 62
               7
100
AcDbCircle
 10
13.487499999999997
 20
-0.1124999999999972
 30
0.0
 40
0.254999999999997
  0
CIRCLE
  5
349
100
AcDbEntity
  8
None
370
               9
390
0
  6
Continuous
 62
               7
100
AcDbCircle
 10
14.487499999999997
 20
-0.1124999999999972
 30
0.0
 40
0.254999999999997
  0
CIRCLE
  5
34A
100
AcDbEntity
  8
None
370
               9
390
0
  6
Continuous
 62
               7
100
AcDbCircle
 10
-20.512500000000003
 20
-1.1124999999999972
 30
0.0
 40
0.2550000000000001
  0
CIRCLE
  5
34B
100
AcDbEntity
  8
None
370
               9
390
0
  6
Continuous
 62
               7
100
AcDbCircle
 10
-19.512500000000003
 20
-1.1124999999999972
 30
0.0
 40
0.2550000000000001
  0
CIRCLE
  5
34C
100
AcDbEntity
  8
None
370
               9
390
0
  6
Continuous
 62
               7
100
AcDbCircle
 10
-18.512499999999999
 20
-1.1124999999999972
 30
0.0
 40
0.2550000000000001
  0
CIRCLE
  5
34D
100
AcDbEntity
  8
None
370
               9
390
0
  6
Continuous
 62
               7
100
AcDbCircle
 10
-17.512499999999999
 20
-1.1124999999999972
 30
0.0
 40
0.2550000000000001
  0
CIRCLE
  5
34E
100
AcDbEntity
  8
None
370
               9
390
0
  6
Continuous
 62
               7
100
AcDbCircle
 10
-16.512500000000003
 20
-1.1124999999999972
 30
0.0
 40
0.2550000000000001
  0
CIRCLE
  5
34F
100
AcDbEntity
  8
None
370
               9
390
0
  6
Continuous
 62
               7
100
AcDbCircle
 10
-15.512500000000006
 20
-1.1124999999999972
 30
0.0
 40
0.2550000000000001
  0
CIRCLE
  5
350
100
AcDbEntity
  8
None
370
               9
390
0
  6
Continuous
 62
               7
100
AcDbCircle
 10
-14.51250000000001
 20
-1.1124999999999972
 30
0.0
 40
0.2550000000000001
  0
CIRCLE
  5
351
100
AcDbEntity
  8
None
370
               9
390
0
  6
Continuous
 62
               7
100
AcDbCircle
 10
-13.512500000000017
 20
-1.1124999999999972
 30
0.0
 40
0.254999999999997
  0
CIRCLE
  5
352
100
AcDbEntity
  8
None
370
               9
390
0
  6
Continuous
 62
               7
100
AcDbCircle
 10
-12.512500000000021
 20
-1.1124999999999972
 30
0.0
 40
0.254999999999997
  0
CIRCLE
  5
353
100
AcDbEntity
  8
None
370
               9
390
0
  6
Continuous
 62
               7
100
AcDbCircle
 10
-11.512500000000024
 20
-1.1124999999999972
 30
0.0
 40
0.254999999999997
  0
CIRCLE
  5
354
100
AcDbEntity
  8
None
370
               9
390
0
  6
Continuous
 62
               7
100
AcDbCircle
 10
-10.512500000000024
 20
-1.1124999999999972
 30
0.0
 40
0.2550000000000001
  0
CIRCLE
  5
355
100
AcDbEntity
  8
None
370
               9
390
0
  6
Continuous
 62
               7
100
AcDbCircle
 10
-9.5125000000000224
 20
-1.1124999999999972
 30
0.0
 40
0.2550000000000001
  0
CIRCLE
  5
356
100
AcDbEntity
  8
None
370
               9
390
0
  6
Continuous
 62
               7
100
AcDbCircle
 10
-8.5125000000000224
 20
-1.1124999999999972
 30
0.0
 40
0.2550000000000001
  0
CIRCLE
  5
357
100
AcDbEntity
  8
None
370
               9
390
0
  6
Continuous
 62
               7
100
AcDbCircle
 10
-7.5125000000000224
 20
-1.1124999999999972
 30
0.0
 40
0.2550000000000001
  0
CIRCLE
  5
358
100
AcDbEntity
  8
None
370
               9
390
0
  6
Continuous
 62
               7
100
AcDbCircle
 10
-6.5125000000000224
 20
-1.1124999999999972
 30
0.0
 40
0.2550000000000001
  0
CIRCLE
  5
359
100
AcDbEntity
  8
None
370
               9
390
0
  6
Continuous
 62
               7
100
AcDbCircle
 10
-5.5125000000000224
 20
-1.1124999999999972
 30
0.0
 40
0.2550000000000001
  0
CIRCLE
  5
35A
100
AcDbEntity
  8
None
370
               9
390
0
  6
Continuous
 62
               7
100
AcDbCircle
 10
-4.5125000000000224
 20
-1.1124999999999972
 30
0.0
 40
0.2550000000000001
  0
CIRCLE
  5
35B
100
AcDbEntity
  8
None
370
               9
390
0
  6
Continuous
 62
               7
100
AcDbCircle
 10
-3.5125000000000228
 20
-1.1124999999999972
 30
0.0
 40
0.2550000000000001
  0
CIRCLE
  5
35C
100
AcDbEntity
  8
None
370
               9
390
0
  6
Continuous
 62
               7
100
AcDbCircle
 10
-2.5125000000000233
 20
-1.1124999999999972
 30
0.0
 40
0.2550000000000001
  0
CIRCLE
  5
35D
100
AcDbEntity
  8
None
370
               9
390
0
  6
Continuous
 62
               7
100
AcDbCircle
 10
-1.5125000000000233
 20
-1.1124999999999972
 30
0.0
 40
0.2550000000000001
  0
CIRCLE
  5
35E
100
AcDbEntity
  8
None
370
               9
390
0
  6
Continuous
 62
               7
100
AcDbCircle
 10
-0.5125000000000206
 20
-1.1124999999999972
 30
0.0
 40
0.2550000000000009
  0
CIRCLE
  5
35F
100
AcDbEntity
  8
None
370
               9
390
0
  6
Continuous
 62
               7
100
AcDbCircle
 10
0.4874999999999838
 20
-1.1124999999999972
 30
0.0
 40
0.2550000000000009
  0
CIRCLE
  5
360
100
AcDbEntity
  8
None
370
               9
390
0
  6
Continuous
 62
               7
100
AcDbCircle
 10
1.4874999999999874
 20
-1.1124999999999972
 30
0.0
 40
0.2550000000000009
  0
CIRCLE
  5
361
100
AcDbEntity
  8
None
370
               9
390
0
  6
Continuous
 62
               7
100
AcDbCircle
 10
2.4874999999999918
 20
-1.1124999999999972
 30
0.0
 40
0.2550000000000009
  0
CIRCLE
  5
362
100
AcDbEntity
  8
None
370
               9
390
0
  6
Continuous
 62
               7
100
AcDbCircle
 10
3.4874999999999954
 20
-1.1124999999999972
 30
0.0
 40
0.2550000000000009
  0
CIRCLE
  5
363
100
AcDbEntity
  8
None
370
               9
390
0
  6
Continuous
 62
               7
100
AcDbCircle
 10
4.4874999999999989
 20
-1.1124999999999972
 30
0.0
 40
0.2550000000000009
  0
CIRCLE
  5
364
100
AcDbEntity
  8
None
370
               9
390
0
  6
Continuous
 62
               7
100
AcDbCircle
 10
5.4874999999999998
 20
-1.1124999999999972
 30
0.0
 40
0.2550000000000001
  0
CIRCLE
  5
365
100
AcDbEntity
  8
None
370
               9
390
0
  6
Continuous
 62
               7
100
AcDbCircle
 10
6.4874999999999998
 20
-1.1124999999999972
 30
0.0
 40
0.2550000000000001
  0
CIRCLE
  5
366
100
AcDbEntity
  8
None
370
               9
390
0
  6
Continuous
 62
               7
100
AcDbCircle
 10
7.487499999999998
 20
-1.1124999999999972
 30
0.0
 40
0.254999999999997
  0
CIRCLE
  5
367
100
AcDbEntity
  8
None
370
               9
390
0
  6
Continuous
 62
               7
100
AcDbCircle
 10
8.4874999999999972
 20
-1.1124999999999972
 30
0.0
 40
0.254999999999997
  0
CIRCLE
  5
368
100
AcDbEntity
  8
None
370
               9
390
0
  6
Continuous
 62
               7
100
AcDbCircle
 10
9.4874999999999972
 20
-1.1124999999999972
 30
0.0
 40
0.254999999999997
  0
CIRCLE
  5
369
100
AcDbEntity
  8
None
370
               9
390
0
  6
Continuous
 62
               7
100
AcDbCircle
 10
10.487499999999997
 20
-1.1124999999999972
 30
0.0
 40
0.254999999999997
  0
CIRCLE
  5
36A
100
AcDbEntity
  8
None
370
               9
390
0
  6
Continuous
 62
               7
100
AcDbCircle
 10
11.487499999999997
 20
-1.1124999999999972
 30
0.0
 40
0.254999999999997
  0
CIRCLE
  5
36B
100
AcDbEntity
  8
None
370
               9
390
0
  6
Continuous
 62
               7
100
AcDbCircle
 10
12.487499999999997
 20
-1.1124999999999972
 30
0.0
 40
0.254999999999997
  0
CIRCLE
  5
36C
100
AcDbEntity
  8
None
370
               9
390
0
  6
Continuous
 62
               7
100
AcDbCircle
 10
13.487499999999997
 20
-1.1124999999999972
 30
0.0
 40
0.254999999999997
  0
CIRCLE
  5
36D
100
AcDbEntity
  8
None
370
               9
390
0
  6
Continuous
 62
               7
100
AcDbCircle
 10
14.487499999999997
 20
-1.1124999999999972
 30
0.0
 40
0.254999999999997
  0
CIRCLE
  5
36E
100
AcDbEntity
  8
None
370
               9
390
0
  6
Continuous
 62
               7
100
AcDbCircle
 10
-20.512500000000003
 20
-2.1124999999999972
 30
0.0
 40
0.2550000000000001
  0
CIRCLE
  5
36F
100
AcDbEntity
  8
None
370
               9
390
0
  6
Continuous
 62
               7
100
AcDbCircle
 10
-19.512500000000003
 20
-2.1124999999999972
 30
0.0
 40
0.2550000000000001
  0
CIRCLE
  5
370
100
AcDbEntity
  8
None
370
               9
390
0
  6
Continuous
 62
               7
100
AcDbCircle
 10
-18.512499999999999
 20
-2.1124999999999972
 30
0.0
 40
0.2550000000000001
  0
CIRCLE
  5
371
100
AcDbEntity
  8
None
370
               9
390
0
  6
Continuous
 62
               7
100
AcDbCircle
 10
-17.512499999999999
 20
-2.1124999999999972
 30
0.0
 40
0.2550000000000001
  0
CIRCLE
  5
372
100
AcDbEntity
  8
None
370
               9
390
0
  6
Continuous
 62
               7
100
AcDbCircle
 10
-16.512500000000003
 20
-2.1124999999999972
 30
0.0
 40
0.2550000000000001
  0
CIRCLE
  5
373
100
AcDbEntity
  8
None
370
               9
390
0
  6
Continuous
 62
               7
100
AcDbCircle
 10
-15.512500000000006
 20
-2.1124999999999972
 30
0.0
 40
0.2550000000000001
  0
CIRCLE
  5
374
100
AcDbEntity
  8
None
370
               9
390
0
  6
Continuous
 62
               7
100
AcDbCircle
 10
-14.51250000000001
 20
-2.1124999999999972
 30
0.0
 40
0.2550000000000001
  0
CIRCLE
  5
375
100
AcDbEntity
  8
None
370
               9
390
0
  6
Continuous
 62
               7
100
AcDbCircle
 10
-13.512500000000017
 20
-2.1124999999999972
 30
0.0
 40
0.254999999999997
  0
CIRCLE
  5
376
100
AcDbEntity
  8
None
370
               9
390
0
  6
Continuous
 62
               7
100
AcDbCircle
 10
-12.512500000000021
 20
-2.1124999999999972
 30
0.0
 40
0.254999999999997
  0
CIRCLE
  5
377
100
AcDbEntity
  8
None
370
               9
390
0
  6
Continuous
 62
               7
100
AcDbCircle
 10
-11.512500000000024
 20
-2.1124999999999972
 30
0.0
 40
0.254999999999997
  0
CIRCLE
  5
378
100
AcDbEntity
  8
None
370
               9
390
0
  6
Continuous
 62
               7
100
AcDbCircle
 10
-10.512500000000024
 20
-2.1124999999999972
 30
0.0
 40
0.2550000000000001
  0
CIRCLE
  5
379
100
AcDbEntity
  8
None
370
               9
390
0
  6
Continuous
 62
               7
100
AcDbCircle
 10
-9.5125000000000224
 20
-2.1124999999999972
 30
0.0
 40
0.2550000000000001
  0
CIRCLE
  5
37A
100
AcDbEntity
  8
None
370
               9
390
0
  6
Continuous
 62
               7
100
AcDbCircle
 10
-8.5125000000000224
 20
-2.1124999999999972
 30
0.0
 40
0.2550000000000001
  0
CIRCLE
  5
37B
100
AcDbEntity
  8
None
370
               9
390
0
  6
Continuous
 62
               7
100
AcDbCircle
 10
-7.5125000000000224
 20
-2.1124999999999972
 30
0.0
 40
0.2550000000000001
  0
CIRCLE
  5
37C
100
AcDbEntity
  8
None
370
               9
390
0
  6
Continuous
 62
               7
100
AcDbCircle
 10
-6.5125000000000224
 20
-2.1124999999999972
 30
0.0
 40
0.2550000000000001
  0
CIRCLE
  5
37D
100
AcDbEntity
  8
None
370
               9
390
0
  6
Continuous
 62
               7
100
AcDbCircle
 10
-5.5125000000000224
 20
-2.1124999999999972
 30
0.0
 40
0.2550000000000001
  0
CIRCLE
  5
37E
100
AcDbEntity
  8
None
370
               9
390
0
  6
Continuous
 62
               7
100
AcDbCircle
 10
-4.5125000000000224
 20
-2.1124999999999972
 30
0.0
 40
0.2550000000000001
  0
CIRCLE
  5
37F
100
AcDbEntity
  8
None
370
               9
390
0
  6
Continuous
 62
               7
100
AcDbCircle
 10
-3.5125000000000228
 20
-2.1124999999999972
 30
0.0
 40
0.2550000000000001
  0
CIRCLE
  5
380
100
AcDbEntity
  8
None
370
               9
390
0
  6
Continuous
 62
               7
100
AcDbCircle
 10
-2.5125000000000233
 20
-2.1124999999999972
 30
0.0
 40
0.2550000000000001
  0
CIRCLE
  5
381
100
AcDbEntity
  8
None
370
               9
390
0
  6
Continuous
 62
               7
100
AcDbCircle
 10
-1.5125000000000233
 20
-2.1124999999999972
 30
0.0
 40
0.2550000000000001
  0
CIRCLE
  5
382
100
AcDbEntity
  8
None
370
               9
390
0
  6
Continuous
 62
               7
100
AcDbCircle
 10
-0.5125000000000206
 20
-2.1124999999999972
 30
0.0
 40
0.2550000000000009
  0
CIRCLE
  5
383
100
AcDbEntity
  8
None
370
               9
390
0
  6
Continuous
 62
               7
100
AcDbCircle
 10
0.4874999999999838
 20
-2.1124999999999972
 30
0.0
 40
0.2550000000000009
  0
CIRCLE
  5
384
100
AcDbEntity
  8
None
370
               9
390
0
  6
Continuous
 62
               7
100
AcDbCircle
 10
1.4874999999999874
 20
-2.1124999999999972
 30
0.0
 40
0.2550000000000009
  0
CIRCLE
  5
385
100
AcDbEntity
  8
None
370
               9
390
0
  6
Continuous
 62
               7
100
AcDbCircle
 10
2.4874999999999918
 20
-2.1124999999999972
 30
0.0
 40
0.2550000000000009
  0
CIRCLE
  5
386
100
AcDbEntity
  8
None
370
               9
390
0
  6
Continuous
 62
               7
100
AcDbCircle
 10
3.4874999999999954
 20
-2.1124999999999972
 30
0.0
 40
0.2550000000000009
  0
CIRCLE
  5
387
100
AcDbEntity
  8
None
370
               9
390
0
  6
Continuous
 62
               7
100
AcDbCircle
 10
4.4874999999999989
 20
-2.1124999999999972
 30
0.0
 40
0.2550000000000009
  0
CIRCLE
  5
388
100
AcDbEntity
  8
None
370
               9
390
0
  6
Continuous
 62
               7
100
AcDbCircle
 10
5.4874999999999998
 20
-2.1124999999999972
 30
0.0
 40
0.2550000000000001
  0
CIRCLE
  5
389
100
AcDbEntity
  8
None
370
               9
390
0
  6
Continuous
 62
               7
100
AcDbCircle
 10
6.4874999999999998
 20
-2.1124999999999972
 30
0.0
 40
0.2550000000000001
  0
CIRCLE
  5
38A
100
AcDbEntity
  8
None
370
               9
390
0
  6
Continuous
 62
               7
100
AcDbCircle
 10
7.487499999999998
 20
-2.1124999999999972
 30
0.0
 40
0.254999999999997
  0
CIRCLE
  5
38B
100
AcDbEntity
  8
None
370
               9
390
0
  6
Continuous
 62
               7
100
AcDbCircle
 10
8.4874999999999972
 20
-2.1124999999999972
 30
0.0
 40
0.254999999999997
  0
CIRCLE
  5
38C
100
AcDbEntity
  8
None
370
               9
390
0
  6
Continuous
 62
               7
100
AcDbCircle
 10
9.4874999999999972
 20
-2.1124999999999972
 30
0.0
 40
0.254999999999997
  0
CIRCLE
  5
38D
100
AcDbEntity
  8
None
370
               9
390
0
  6
Continuous
 62
               7
100
AcDbCircle
 10
10.487499999999997
 20
-2.1124999999999972
 30
0.0
 40
0.254999999999997
  0
CIRCLE
  5
38E
100
AcDbEntity
  8
None
370
               9
390
0
  6
Continuous
 62
               7
100
AcDbCircle
 10
11.487499999999997
 20
-2.1124999999999972
 30
0.0
 40
0.254999999999997
  0
CIRCLE
  5
38F
100
AcDbEntity
  8
None
370
               9
390
0
  6
Continuous
 62
               7
100
AcDbCircle
 10
12.487499999999997
 20
-2.1124999999999972
 30
0.0
 40
0.254999999999997
  0
CIRCLE
  5
390
100
AcDbEntity
  8
None
370
               9
390
0
  6
Continuous
 62
               7
100
AcDbCircle
 10
13.487499999999997
 20
-2.1124999999999972
 30
0.0
 40
0.254999999999997
  0
CIRCLE
  5
391
100
AcDbEntity
  8
None
370
               9
390
0
  6
Continuous
 62
               7
100
AcDbCircle
 10
14.487499999999997
 20
-2.1124999999999972
 30
0.0
 40
0.254999999999997
  0
CIRCLE
  5
392
100
AcDbEntity
  8
None
370
               9
390
0
  6
Continuous
 62
               7
100
AcDbCircle
 10
-20.512500000000003
 20
-3.1124999999999972
 30
0.0
 40
0.2550000000000001
  0
CIRCLE
  5
393
100
AcDbEntity
  8
None
370
               9
390
0
  6
Continuous
 62
               7
100
AcDbCircle
 10
-19.512500000000003
 20
-3.1124999999999972
 30
0.0
 40
0.2550000000000001
  0
CIRCLE
  5
394
100
AcDbEntity
  8
None
370
               9
390
0
  6
Continuous
 62
               7
100
AcDbCircle
 10
-18.512499999999999
 20
-3.1124999999999972
 30
0.0
 40
0.2550000000000001
  0
CIRCLE
  5
395
100
AcDbEntity
  8
None
370
               9
390
0
  6
Continuous
 62
               7
100
AcDbCircle
 10
-17.512499999999999
 20
-3.1124999999999972
 30
0.0
 40
0.2550000000000001
  0
CIRCLE
  5
396
100
AcDbEntity
  8
None
370
               9
390
0
  6
Continuous
 62
               7
100
AcDbCircle
 10
-16.512500000000003
 20
-3.1124999999999972
 30
0.0
 40
0.2550000000000001
  0
CIRCLE
  5
397
100
AcDbEntity
  8
None
370
               9
390
0
  6
Continuous
 62
               7
100
AcDbCircle
 10
-15.512500000000006
 20
-3.1124999999999972
 30
0.0
 40
0.2550000000000001
  0
CIRCLE
  5
398
100
AcDbEntity
  8
None
370
               9
390
0
  6
Continuous
 62
               7
100
AcDbCircle
 10
-14.51250000000001
 20
-3.1124999999999972
 30
0.0
 40
0.2550000000000001
  0
CIRCLE
  5
399
100
AcDbEntity
  8
None
370
               9
390
0
  6
Continuous
 62
               7
100
AcDbCircle
 10
-13.512500000000017
 20
-3.1124999999999972
 30
0.0
 40
0.254999999999997
  0
CIRCLE
  5
39A
100
AcDbEntity
  8
None
370
               9
390
0
  6
Continuous
 62
               7
100
AcDbCircle
 10
-12.512500000000021
 20
-3.1124999999999972
 30
0.0
 40
0.254999999999997
  0
CIRCLE
  5
39B
100
AcDbEntity
  8
None
370
               9
390
0
  6
Continuous
 62
               7
100
AcDbCircle
 10
-11.512500000000024
 20
-3.1124999999999972
 30
0.0
 40
0.254999999999997
  0
CIRCLE
  5
39C
100
AcDbEntity
  8
None
370
               9
390
0
  6
Continuous
 62
               7
100
AcDbCircle
 10
-10.512500000000024
 20
-3.1124999999999972
 30
0.0
 40
0.2550000000000001
  0
CIRCLE
  5
39D
100
AcDbEntity
  8
None
370
               9
390
0
  6
Continuous
 62
               7
100
AcDbCircle
 10
-9.5125000000000224
 20
-3.1124999999999972
 30
0.0
 40
0.2550000000000001
  0
CIRCLE
  5
39E
100
AcDbEntity
  8
None
370
               9
390
0
  6
Continuous
 62
               7
100
AcDbCircle
 10
-8.5125000000000224
 20
-3.1124999999999972
 30
0.0
 40
0.2550000000000001
  0
CIRCLE
  5
39F
100
AcDbEntity
  8
None
370
               9
390
0
  6
Continuous
 62
               7
100
AcDbCircle
 10
-7.5125000000000224
 20
-3.1124999999999972
 30
0.0
 40
0.2550000000000001
  0
CIRCLE
  5
3A0
100
AcDbEntity
  8
None
370
               9
390
0
  6
Continuous
 62
               7
100
AcDbCircle
 10
-6.5125000000000224
 20
-3.1124999999999972
 30
0.0
 40
0.2550000000000001
  0
CIRCLE
  5
3A1
100
AcDbEntity
  8
None
370
               9
390
0
  6
Continuous
 62
               7
100
AcDbCircle
 10
-5.5125000000000224
 20
-3.1124999999999972
 30
0.0
 40
0.2550000000000001
  0
CIRCLE
  5
3A2
100
AcDbEntity
  8
None
370
               9
390
0
  6
Continuous
 62
               7
100
AcDbCircle
 10
-4.5125000000000224
 20
-3.1124999999999972
 30
0.0
 40
0.2550000000000001
  0
CIRCLE
  5
3A3
100
AcDbEntity
  8
None
370
               9
390
0
  6
Continuous
 62
               7
100
AcDbCircle
 10
-3.5125000000000228
 20
-3.1124999999999972
 30
0.0
 40
0.2550000000000001
  0
CIRCLE
  5
3A4
100
AcDbEntity
  8
None
370
               9
390
0
  6
Continuous
 62
               7
100
AcDbCircle
 10
-2.5125000000000233
 20
-3.1124999999999972
 30
0.0
 40
0.2550000000000001
  0
CIRCLE
  5
3A5
100
AcDbEntity
  8
None
370
               9
390
0
  6
Continuous
 62
               7
100
AcDbCircle
 10
-1.5125000000000233
 20
-3.1124999999999972
 30
0.0
 40
0.2550000000000001
  0
CIRCLE
  5
3A6
100
AcDbEntity
  8
None
370
               9
390
0
  6
Continuous
 62
               7
100
AcDbCircle
 10
-0.5125000000000206
 20
-3.1124999999999972
 30
0.0
 40
0.2550000000000009
  0
CIRCLE
  5
3A7
100
AcDbEntity
  8
None
370
               9
390
0
  6
Continuous
 62
               7
100
AcDbCircle
 10
0.4874999999999838
 20
-3.1124999999999972
 30
0.0
 40
0.2550000000000009
  0
CIRCLE
  5
3A8
100
AcDbEntity
  8
None
370
               9
390
0
  6
Continuous
 62
               7
100
AcDbCircle
 10
1.4874999999999874
 20
-3.1124999999999972
 30
0.0
 40
0.2550000000000009
  0
CIRCLE
  5
3A9
100
AcDbEntity
  8
None
370
               9
390
0
  6
Continuous
 62
               7
100
AcDbCircle
 10
2.4874999999999918
 20
-3.1124999999999972
 30
0.0
 40
0.2550000000000009
  0
CIRCLE
  5
3AA
100
AcDbEntity
  8
None
370
               9
390
0
  6
Continuous
 62
               7
100
AcDbCircle
 10
3.4874999999999954
 20
-3.1124999999999972
 30
0.0
 40
0.2550000000000009
  0
CIRCLE
  5
3AB
100
AcDbEntity
  8
None
370
               9
390
0
  6
Continuous
 62
               7
100
AcDbCircle
 10
4.4874999999999989
 20
-3.1124999999999972
 30
0.0
 40
0.2550000000000009
  0
CIRCLE
  5
3AC
100
AcDbEntity
  8
None
370
               9
390
0
  6
Continuous
 62
               7
100
AcDbCircle
 10
5.4874999999999998
 20
-3.1124999999999972
 30
0.0
 40
0.2550000000000001
  0
CIRCLE
  5
3AD
100
AcDbEntity
  8
None
370
               9
390
0
  6
Continuous
 62
               7
100
AcDbCircle
 10
6.4874999999999998
 20
-3.1124999999999972
 30
0.0
 40
0.2550000000000001
  0
CIRCLE
  5
3AE
100
AcDbEntity
  8
None
370
               9
390
0
  6
Continuous
 62
               7
100
AcDbCircle
 10
7.487499999999998
 20
-3.1124999999999972
 30
0.0
 40
0.254999999999997
  0
CIRCLE
  5
3AF
100
AcDbEntity
  8
None
370
               9
390
0
  6
Continuous
 62
               7
100
AcDbCircle
 10
8.4874999999999972
 20
-3.1124999999999972
 30
0.0
 40
0.254999999999997
  0
CIRCLE
  5
3B0
100
AcDbEntity
  8
None
370
               9
390
0
  6
Continuous
 62
               7
100
AcDbCircle
 10
9.4874999999999972
 20
-3.1124999999999972
 30
0.0
 40
0.254999999999997
  0
CIRCLE
  5
3B1
100
AcDbEntity
  8
None
370
               9
390
0
  6
Continuous
 62
               7
100
AcDbCircle
 10
10.487499999999997
 20
-3.1124999999999972
 30
0.0
 40
0.254999999999997
  0
CIRCLE
  5
3B2
100
AcDbEntity
  8
None
370
               9
390
0
  6
Continuous
 62
               7
100
AcDbCircle
 10
11.487499999999997
 20
-3.1124999999999972
 30
0.0
 40
0.254999999999997
  0
CIRCLE
  5
3B3
100
AcDbEntity
  8
None
370
               9
390
0
  6
Continuous
 62
               7
100
AcDbCircle
 10
12.487499999999997
 20
-3.1124999999999972
 30
0.0
 40
0.254999999999997
  0
CIRCLE
  5
3B4
100
AcDbEntity
  8
None
370
               9
390
0
  6
Continuous
 62
               7
100
AcDbCircle
 10
13.487499999999997
 20
-3.1124999999999972
 30
0.0
 40
0.254999999999997
  0
CIRCLE
  5
3B5
100
AcDbEntity
  8
None
370
               9
390
0
  6
Continuous
 62
               7
100
AcDbCircle
 10
14.487499999999997
 20
-3.1124999999999972
 30
0.0
 40
0.254999999999997
  0
CIRCLE
  5
3B6
100
AcDbEntity
  8
None
370
               9
390
0
  6
Continuous
 62
               7
100
AcDbCircle
 10
-20.512500000000003
 20
-4.1124999999999972
 30
0.0
 40
0.2550000000000001
  0
CIRCLE
  5
3B7
100
AcDbEntity
  8
None
370
               9
390
0
  6
Continuous
 62
               7
100
AcDbCircle
 10
-19.512500000000003
 20
-4.1124999999999972
 30
0.0
 40
0.2550000000000001
  0
CIRCLE
  5
3B8
100
AcDbEntity
  8
None
370
               9
390
0
  6
Continuous
 62
               7
100
AcDbCircle
 10
-18.512499999999999
 20
-4.1124999999999972
 30
0.0
 40
0.2550000000000001
  0
CIRCLE
  5
3B9
100
AcDbEntity
  8
None
370
               9
390
0
  6
Continuous
 62
               7
100
AcDbCircle
 10
-17.512499999999999
 20
-4.1124999999999972
 30
0.0
 40
0.2550000000000001
  0
CIRCLE
  5
3BA
100
AcDbEntity
  8
None
370
               9
390
0
  6
Continuous
 62
               7
100
AcDbCircle
 10
-16.512500000000003
 20
-4.1124999999999972
 30
0.0
 40
0.2550000000000001
  0
CIRCLE
  5
3BB
100
AcDbEntity
  8
None
370
               9
390
0
  6
Continuous
 62
               7
100
AcDbCircle
 10
-15.512500000000006
 20
-4.1124999999999972
 30
0.0
 40
0.2550000000000001
  0
CIRCLE
  5
3BC
100
AcDbEntity
  8
None
370
               9
390
0
  6
Continuous
 62
               7
100
AcDbCircle
 10
-14.51250000000001
 20
-4.1124999999999972
 30
0.0
 40
0.2550000000000001
  0
CIRCLE
  5
3BD
100
AcDbEntity
  8
None
370
               9
390
0
  6
Continuous
 62
               7
100
AcDbCircle
 10
-13.512500000000017
 20
-4.1124999999999972
 30
0.0
 40
0.254999999999997
  0
CIRCLE
  5
3BE
100
AcDbEntity
  8
None
370
               9
390
0
  6
Continuous
 62
               7
100
AcDbCircle
 10
-12.512500000000021
 20
-4.1124999999999972
 30
0.0
 40
0.254999999999997
  0
CIRCLE
  5
3BF
100
AcDbEntity
  8
None
370
               9
390
0
  6
Continuous
 62
               7
100
AcDbCircle
 10
-11.512500000000024
 20
-4.1124999999999972
 30
0.0
 40
0.254999999999997
  0
CIRCLE
  5
3C0
100
AcDbEntity
  8
None
370
               9
390
0
  6
Continuous
 62
               7
100
AcDbCircle
 10
-10.512500000000024
 20
-4.1124999999999972
 30
0.0
 40
0.2550000000000001
  0
CIRCLE
  5
3C1
100
AcDbEntity
  8
None
370
               9
390
0
  6
Continuous
 62
               7
100
AcDbCircle
 10
-9.5125000000000224
 20
-4.1124999999999972
 30
0.0
 40
0.2550000000000001
  0
CIRCLE
  5
3C2
100
AcDbEntity
  8
None
370
               9
390
0
  6
Continuous
 62
               7
100
AcDbCircle
 10
-8.5125000000000224
 20
-4.1124999999999972
 30
0.0
 40
0.2550000000000001
  0
CIRCLE
  5
3C3
100
AcDbEntity
  8
None
370
               9
390
0
  6
Continuous
 62
               7
100
AcDbCircle
 10
-7.5125000000000224
 20
-4.1124999999999972
 30
0.0
 40
0.2550000000000001
  0
CIRCLE
  5
3C4
100
AcDbEntity
  8
None
370
               9
390
0
  6
Continuous
 62
               7
100
AcDbCircle
 10
-6.5125000000000224
 20
-4.1124999999999972
 30
0.0
 40
0.2550000000000001
  0
CIRCLE
  5
3C5
100
AcDbEntity
  8
None
370
               9
390
0
  6
Continuous
 62
               7
100
AcDbCircle
 10
-5.5125000000000224
 20
-4.1124999999999972
 30
0.0
 40
0.2550000000000001
  0
CIRCLE
  5
3C6
100
AcDbEntity
  8
None
370
               9
390
0
  6
Continuous
 62
               7
100
AcDbCircle
 10
-4.5125000000000224
 20
-4.1124999999999972
 30
0.0
 40
0.2550000000000001
  0
CIRCLE
  5
3C7
100
AcDbEntity
  8
None
370
               9
390
0
  6
Continuous
 62
               7
100
AcDbCircle
 10
-3.5125000000000228
 20
-4.1124999999999972
 30
0.0
 40
0.2550000000000001
  0
CIRCLE
  5
3C8
100
AcDbEntity
  8
None
370
               9
390
0
  6
Continuous
 62
               7
100
AcDbCircle
 10
-2.5125000000000233
 20
-4.1124999999999972
 30
0.0
 40
0.2550000000000001
  0
CIRCLE
  5
3C9
100
AcDbEntity
  8
None
370
               9
390
0
  6
Continuous
 62
               7
100
AcDbCircle
 10
-1.5125000000000233
 20
-4.1124999999999972
 30
0.0
 40
0.2550000000000001
  0
CIRCLE
  5
3CA
100
AcDbEntity
  8
None
370
               9
390
0
  6
Continuous
 62
               7
100
AcDbCircle
 10
-0.5125000000000206
 20
-4.1124999999999972
 30
0.0
 40
0.2550000000000009
  0
CIRCLE
  5
3CB
100
AcDbEntity
  8
None
370
               9
390
0
  6
Continuous
 62
               7
100
AcDbCircle
 10
0.4874999999999838
 20
-4.1124999999999972
 30
0.0
 40
0.2550000000000009
  0
CIRCLE
  5
3CC
100
AcDbEntity
  8
None
370
               9
390
0
  6
Continuous
 62
               7
100
AcDbCircle
 10
1.4874999999999874
 20
-4.1124999999999972
 30
0.0
 40
0.2550000000000009
  0
CIRCLE
  5
3CD
100
AcDbEntity
  8
None
370
               9
390
0
  6
Continuous
 62
               7
100
AcDbCircle
 10
2.4874999999999918
 20
-4.1124999999999972
 30
0.0
 40
0.2550000000000009
  0
CIRCLE
  5
3CE
100
AcDbEntity
  8
None
370
               9
390
0
  6
Continuous
 62
               7
100
AcDbCircle
 10
3.4874999999999954
 20
-4.1124999999999972
 30
0.0
 40
0.2550000000000009
  0
CIRCLE
  5
3CF
100
AcDbEntity
  8
None
370
               9
390
0
  6
Continuous
 62
               7
100
AcDbCircle
 10
4.4874999999999989
 20
-4.1124999999999972
 30
0.0
 40
0.2550000000000009
  0
CIRCLE
  5
3D0
100
AcDbEntity
  8
None
370
               9
390
0
  6
Continuous
 62
               7
100
AcDbCircle
 10
5.4874999999999998
 20
-4.1124999999999972
 30
0.0
 40
0.2550000000000001
  0
CIRCLE
  5
3D1
100
AcDbEntity
  8
None
370
               9
390
0
  6
Continuous
 62
               7
100
AcDbCircle
 10
6.4874999999999998
 20
-4.1124999999999972
 30
0.0
 40
0.2550000000000001
  0
CIRCLE
  5
3D2
100
AcDbEntity
  8
None
370
               9
390
0
  6
Continuous
 62
               7
100
AcDbCircle
 10
7.487499999999998
 20
-4.1124999999999972
 30
0.0
 40
0.254999999999997
  0
CIRCLE
  5
3D3
100
AcDbEntity
  8
None
370
               9
390
0
  6
Continuous
 62
               7
100
AcDbCircle
 10
8.4874999999999972
 20
-4.1124999999999972
 30
0.0
 40
0.254999999999997
  0
CIRCLE
  5
3D4
100
AcDbEntity
  8
None
370
               9
390
0
  6
Continuous
 62
               7
100
AcDbCircle
 10
9.4874999999999972
 20
-4.1124999999999972
 30
0.0
 40
0.254999999999997
  0
CIRCLE
  5
3D5
100
AcDbEntity
  8
None
370
               9
390
0
  6
Continuous
 62
               7
100
AcDbCircle
 10
10.487499999999997
 20
-4.1124999999999972
 30
0.0
 40
0.254999999999997
  0
CIRCLE
  5
3D6
100
AcDbEntity
  8
None
370
               9
390
0
  6
Continuous
 62
               7
100
AcDbCircle
 10
11.487499999999997
 20
-4.1124999999999972
 30
0.0
 40
0.254999999999997
  0
CIRCLE
  5
3D7
100
AcDbEntity
  8
None
370
               9
390
0
  6
Continuous
 62
               7
100
AcDbCircle
 10
12.487499999999997
 20
-4.1124999999999972
 30
0.0
 40
0.254999999999997
  0
CIRCLE
  5
3D8
100
AcDbEntity
  8
None
370
               9
390
0
  6
Continuous
 62
               7
100
AcDbCircle
 10
13.487499999999997
 20
-4.1124999999999972
 30
0.0
 40
0.254999999999997
  0
CIRCLE
  5
3D9
100
AcDbEntity
  8
None
370
               9
390
0
  6
Continuous
 62
               7
100
AcDbCircle
 10
14.487499999999997
 20
-4.1124999999999972
 30
0.0
 40
0.254999999999997
  0
CIRCLE
  5
3DA
100
AcDbEntity
  8
None
370
               9
390
0
  6
Continuous
 62
               7
100
AcDbCircle
 10
-20.512500000000003
 20
-5.1124999999999972
 30
0.0
 40
0.2550000000000001
  0
CIRCLE
  5
3DB
100
AcDbEntity
  8
None
370
               9
390
0
  6
Continuous
 62
               7
100
AcDbCircle
 10
-19.512500000000003
 20
-5.1124999999999972
 30
0.0
 40
0.2550000000000001
  0
CIRCLE
  5
3DC
100
AcDbEntity
  8
None
370
               9
390
0
  6
Continuous
 62
               7
100
AcDbCircle
 10
-18.512499999999999
 20
-5.1124999999999972
 30
0.0
 40
0.2550000000000001
  0
CIRCLE
  5
3DD
100
AcDbEntity
  8
None
370
               9
390
0
  6
Continuous
 62
               7
100
AcDbCircle
 10
-17.512499999999999
 20
-5.1124999999999972
 30
0.0
 40
0.2550000000000001
  0
CIRCLE
  5
3DE
100
AcDbEntity
  8
None
370
               9
390
0
  6
Continuous
 62
               7
100
AcDbCircle
 10
-16.512500000000003
 20
-5.1124999999999972
 30
0.0
 40
0.2550000000000001
  0
CIRCLE
  5
3DF
100
AcDbEntity
  8
None
370
               9
390
0
  6
Continuous
 62
               7
100
AcDbCircle
 10
-15.512500000000006
 20
-5.1124999999999972
 30
0.0
 40
0.2550000000000001
  0
CIRCLE
  5
3E0
100
AcDbEntity
  8
None
370
               9
390
0
  6
Continuous
 62
               7
100
AcDbCircle
 10
-14.51250000000001
 20
-5.1124999999999972
 30
0.0
 40
0.2550000000000001
  0
CIRCLE
  5
3E1
100
AcDbEntity
  8
None
370
               9
390
0
  6
Continuous
 62
               7
100
AcDbCircle
 10
-13.512500000000017
 20
-5.1124999999999972
 30
0.0
 40
0.254999999999997
  0
CIRCLE
  5
3E2
100
AcDbEntity
  8
None
370
               9
390
0
  6
Continuous
 62
               7
100
AcDbCircle
 10
-12.512500000000021
 20
-5.1124999999999972
 30
0.0
 40
0.254999999999997
  0
CIRCLE
  5
3E3
100
AcDbEntity
  8
None
370
               9
390
0
  6
Continuous
 62
               7
100
AcDbCircle
 10
-11.512500000000024
 20
-5.1124999999999972
 30
0.0
 40
0.254999999999997
  0
CIRCLE
  5
3E4
100
AcDbEntity
  8
None
370
               9
390
0
  6
Continuous
 62
               7
100
AcDbCircle
 10
-10.512500000000024
 20
-5.1124999999999972
 30
0.0
 40
0.2550000000000001
  0
CIRCLE
  5
3E5
100
AcDbEntity
  8
None
370
               9
390
0
  6
Continuous
 62
               7
100
AcDbCircle
 10
-9.5125000000000224
 20
-5.1124999999999972
 30
0.0
 40
0.2550000000000001
  0
CIRCLE
  5
3E6
100
AcDbEntity
  8
None
370
               9
390
0
  6
Continuous
 62
               7
100
AcDbCircle
 10
-8.5125000000000224
 20
-5.1124999999999972
 30
0.0
 40
0.2550000000000001
  0
CIRCLE
  5
3E7
100
AcDbEntity
  8
None
370
               9
390
0
  6
Continuous
 62
               7
100
AcDbCircle
 10
-7.5125000000000224
 20
-5.1124999999999972
 30
0.0
 40
0.2550000000000001
  0
CIRCLE
  5
3E8
100
AcDbEntity
  8
None
370
               9
390
0
  6
Continuous
 62
               7
100
AcDbCircle
 10
-6.5125000000000224
 20
-5.1124999999999972
 30
0.0
 40
0.2550000000000001
  0
CIRCLE
  5
3E9
100
AcDbEntity
  8
None
370
               9
390
0
  6
Continuous
 62
               7
100
AcDbCircle
 10
-5.5125000000000224
 20
-5.1124999999999972
 30
0.0
 40
0.2550000000000001
  0
CIRCLE
  5
3EA
100
AcDbEntity
  8
None
370
               9
390
0
  6
Continuous
 62
               7
100
AcDbCircle
 10
-4.5125000000000224
 20
-5.1124999999999972
 30
0.0
 40
0.2550000000000001
  0
CIRCLE
  5
3EB
100
AcDbEntity
  8
None
370
               9
390
0
  6
Continuous
 62
               7
100
AcDbCircle
 10
-3.5125000000000228
 20
-5.1124999999999972
 30
0.0
 40
0.2550000000000001
  0
CIRCLE
  5
3EC
100
AcDbEntity
  8
None
370
               9
390
0
  6
Continuous
 62
               7
100
AcDbCircle
 10
-2.5125000000000233
 20
-5.1124999999999972
 30
0.0
 40
0.2550000000000001
  0
CIRCLE
  5
3ED
100
AcDbEntity
  8
None
370
               9
390
0
  6
Continuous
 62
               7
100
AcDbCircle
 10
-1.5125000000000233
 20
-5.1124999999999972
 30
0.0
 40
0.2550000000000001
  0
CIRCLE
  5
3EE
100
AcDbEntity
  8
None
370
               9
390
0
  6
Continuous
 62
               7
100
AcDbCircle
 10
-0.5125000000000206
 20
-5.1124999999999972
 30
0.0
 40
0.2550000000000009
  0
CIRCLE
  5
3EF
100
AcDbEntity
  8
None
370
               9
390
0
  6
Continuous
 62
               7
100
AcDbCircle
 10
0.4874999999999838
 20
-5.1124999999999972
 30
0.0
 40
0.2550000000000009
  0
CIRCLE
  5
3F0
100
AcDbEntity
  8
None
370
               9
390
0
  6
Continuous
 62
               7
100
AcDbCircle
 10
1.4874999999999874
 20
-5.1124999999999972
 30
0.0
 40
0.2550000000000009
  0
CIRCLE
  5
3F1
100
AcDbEntity
  8
None
370
               9
390
0
  6
Continuous
 62
               7
100
AcDbCircle
 10
2.4874999999999918
 20
-5.1124999999999972
 30
0.0
 40
0.2550000000000009
  0
CIRCLE
  5
3F2
100
AcDbEntity
  8
None
370
               9
390
0
  6
Continuous
 62
               7
100
AcDbCircle
 10
3.4874999999999954
 20
-5.1124999999999972
 30
0.0
 40
0.2550000000000009
  0
CIRCLE
  5
3F3
100
AcDbEntity
  8
None
370
               9
390
0
  6
Continuous
 62
               7
100
AcDbCircle
 10
4.4874999999999989
 20
-5.1124999999999972
 30
0.0
 40
0.2550000000000009
  0
CIRCLE
  5
3F4
100
AcDbEntity
  8
None
370
               9
390
0
  6
Continuous
 62
               7
100
AcDbCircle
 10
5.4874999999999998
 20
-5.1124999999999972
 30
0.0
 40
0.2550000000000001
  0
CIRCLE
  5
3F5
100
AcDbEntity
  8
None
370
               9
390
0
  6
Continuous
 62
               7
100
AcDbCircle
 10
6.4874999999999998
 20
-5.1124999999999972
 30
0.0
 40
0.2550000000000001
  0
CIRCLE
  5
3F6
100
AcDbEntity
  8
None
370
               9
390
0
  6
Continuous
 62
               7
100
AcDbCircle
 10
7.487499999999998
 20
-5.1124999999999972
 30
0.0
 40
0.254999999999997
  0
CIRCLE
  5
3F7
100
AcDbEntity
  8
None
370
               9
390
0
  6
Continuous
 62
               7
100
AcDbCircle
 10
8.4874999999999972
 20
-5.1124999999999972
 30
0.0
 40
0.254999999999997
  0
CIRCLE
  5
3F8
100
AcDbEntity
  8
None
370
               9
390
0
  6
Continuous
 62
               7
100
AcDbCircle
 10
9.4874999999999972
 20
-5.1124999999999972
 30
0.0
 40
0.254999999999997
  0
CIRCLE
  5
3F9
100
AcDbEntity
  8
None
370
               9
390
0
  6
Continuous
 62
               7
100
AcDbCircle
 10
10.487499999999997
 20
-5.1124999999999972
 30
0.0
 40
0.254999999999997
  0
CIRCLE
  5
3FA
100
AcDbEntity
  8
None
370
               9
390
0
  6
Continuous
 62
               7
100
AcDbCircle
 10
11.487499999999997
 20
-5.1124999999999972
 30
0.0
 40
0.254999999999997
  0
CIRCLE
  5
3FB
100
AcDbEntity
  8
None
370
               9
390
0
  6
Continuous
 62
               7
100
AcDbCircle
 10
12.487499999999997
 20
-5.1124999999999972
 30
0.0
 40
0.254999999999997
  0
CIRCLE
  5
3FC
100
AcDbEntity
  8
None
370
               9
390
0
  6
Continuous
 62
               7
100
AcDbCircle
 10
13.487499999999997
 20
-5.1124999999999972
 30
0.0
 40
0.254999999999997
  0
CIRCLE
  5
3FD
100
AcDbEntity
  8
None
370
               9
390
0
  6
Continuous
 62
               7
100
AcDbCircle
 10
14.487499999999997
 20
-5.1124999999999972
 30
0.0
 40
0.254999999999997
  0
CIRCLE
  5
3FE
100
AcDbEntity
  8
None
370
               9
390
0
  6
Continuous
 62
               7
100
AcDbCircle
 10
-20.512500000000003
 20
-6.1124999999999972
 30
0.0
 40
0.2550000000000001
  0
CIRCLE
  5
3FF
100
AcDbEntity
  8
None
370
               9
390
0
  6
Continuous
 62
               7
100
AcDbCircle
 10
-19.512500000000003
 20
-6.1124999999999972
 30
0.0
 40
0.2550000000000001
  0
CIRCLE
  5
400
100
AcDbEntity
  8
None
370
               9
390
0
  6
Continuous
 62
               7
100
AcDbCircle
 10
-18.512499999999999
 20
-6.1124999999999972
 30
0.0
 40
0.2550000000000001
  0
CIRCLE
  5
401
100
AcDbEntity
  8
None
370
               9
390
0
  6
Continuous
 62
               7
100
AcDbCircle
 10
-17.512499999999999
 20
-6.1124999999999972
 30
0.0
 40
0.2550000000000001
  0
CIRCLE
  5
402
100
AcDbEntity
  8
None
370
               9
390
0
  6
Continuous
 62
               7
100
AcDbCircle
 10
-16.512500000000003
 20
-6.1124999999999972
 30
0.0
 40
0.2550000000000001
  0
CIRCLE
  5
403
100
AcDbEntity
  8
None
370
               9
390
0
  6
Continuous
 62
               7
100
AcDbCircle
 10
-15.512500000000006
 20
-6.1124999999999972
 30
0.0
 40
0.2550000000000001
  0
CIRCLE
  5
404
100
AcDbEntity
  8
None
370
               9
390
0
  6
Continuous
 62
               7
100
AcDbCircle
 10
-14.51250000000001
 20
-6.1124999999999972
 30
0.0
 40
0.2550000000000001
  0
CIRCLE
  5
405
100
AcDbEntity
  8
None
370
               9
390
0
  6
Continuous
 62
               7
100
AcDbCircle
 10
-13.512500000000017
 20
-6.1124999999999972
 30
0.0
 40
0.254999999999997
  0
CIRCLE
  5
406
100
AcDbEntity
  8
None
370
               9
390
0
  6
Continuous
 62
               7
100
AcDbCircle
 10
-12.512500000000021
 20
-6.1124999999999972
 30
0.0
 40
0.254999999999997
  0
CIRCLE
  5
407
100
AcDbEntity
  8
None
370
               9
390
0
  6
Continuous
 62
               7
100
AcDbCircle
 10
-11.512500000000024
 20
-6.1124999999999972
 30
0.0
 40
0.254999999999997
  0
CIRCLE
  5
408
100
AcDbEntity
  8
None
370
               9
390
0
  6
Continuous
 62
               7
100
AcDbCircle
 10
-10.512500000000024
 20
-6.1124999999999972
 30
0.0
 40
0.2550000000000001
  0
CIRCLE
  5
409
100
AcDbEntity
  8
None
370
               9
390
0
  6
Continuous
 62
               7
100
AcDbCircle
 10
-9.5125000000000224
 20
-6.1124999999999972
 30
0.0
 40
0.2550000000000001
  0
CIRCLE
  5
40A
100
AcDbEntity
  8
None
370
               9
390
0
  6
Continuous
 62
               7
100
AcDbCircle
 10
-8.5125000000000224
 20
-6.1124999999999972
 30
0.0
 40
0.2550000000000001
  0
CIRCLE
  5
40B
100
AcDbEntity
  8
None
370
               9
390
0
  6
Continuous
 62
               7
100
AcDbCircle
 10
-7.5125000000000224
 20
-6.1124999999999972
 30
0.0
 40
0.2550000000000001
  0
CIRCLE
  5
40C
100
AcDbEntity
  8
None
370
               9
390
0
  6
Continuous
 62
               7
100
AcDbCircle
 10
-6.5125000000000224
 20
-6.1124999999999972
 30
0.0
 40
0.2550000000000001
  0
CIRCLE
  5
40D
100
AcDbEntity
  8
None
370
               9
390
0
  6
Continuous
 62
               7
100
AcDbCircle
 10
-5.5125000000000224
 20
-6.1124999999999972
 30
0.0
 40
0.2550000000000001
  0
CIRCLE
  5
40E
100
AcDbEntity
  8
None
370
               9
390
0
  6
Continuous
 62
               7
100
AcDbCircle
 10
-4.5125000000000224
 20
-6.1124999999999972
 30
0.0
 40
0.2550000000000001
  0
CIRCLE
  5
40F
100
AcDbEntity
  8
None
370
               9
390
0
  6
Continuous
 62
               7
100
AcDbCircle
 10
-3.5125000000000228
 20
-6.1124999999999972
 30
0.0
 40
0.2550000000000001
  0
CIRCLE
  5
410
100
AcDbEntity
  8
None
370
               9
390
0
  6
Continuous
 62
               7
100
AcDbCircle
 10
-2.5125000000000233
 20
-6.1124999999999972
 30
0.0
 40
0.2550000000000001
  0
CIRCLE
  5
411
100
AcDbEntity
  8
None
370
               9
390
0
  6
Continuous
 62
               7
100
AcDbCircle
 10
-1.5125000000000233
 20
-6.1124999999999972
 30
0.0
 40
0.2550000000000001
  0
CIRCLE
  5
412
100
AcDbEntity
  8
None
370
               9
390
0
  6
Continuous
 62
               7
100
AcDbCircle
 10
-0.5125000000000206
 20
-6.1124999999999972
 30
0.0
 40
0.2550000000000009
  0
CIRCLE
  5
413
100
AcDbEntity
  8
None
370
               9
390
0
  6
Continuous
 62
               7
100
AcDbCircle
 10
0.4874999999999838
 20
-6.1124999999999972
 30
0.0
 40
0.2550000000000009
  0
CIRCLE
  5
414
100
AcDbEntity
  8
None
370
               9
390
0
  6
Continuous
 62
               7
100
AcDbCircle
 10
1.4874999999999874
 20
-6.1124999999999972
 30
0.0
 40
0.2550000000000009
  0
CIRCLE
  5
415
100
AcDbEntity
  8
None
370
               9
390
0
  6
Continuous
 62
               7
100
AcDbCircle
 10
2.4874999999999918
 20
-6.1124999999999972
 30
0.0
 40
0.2550000000000009
  0
CIRCLE
  5
416
100
AcDbEntity
  8
None
370
               9
390
0
  6
Continuous
 62
               7
100
AcDbCircle
 10
3.4874999999999954
 20
-6.1124999999999972
 30
0.0
 40
0.2550000000000009
  0
CIRCLE
  5
417
100
AcDbEntity
  8
None
370
               9
390
0
  6
Continuous
 62
               7
100
AcDbCircle
 10
4.4874999999999989
 20
-6.1124999999999972
 30
0.0
 40
0.2550000000000009
  0
CIRCLE
  5
418
100
AcDbEntity
  8
None
370
               9
390
0
  6
Continuous
 62
               7
100
AcDbCircle
 10
5.4874999999999998
 20
-6.1124999999999972
 30
0.0
 40
0.2550000000000001
  0
CIRCLE
  5
419
100
AcDbEntity
  8
None
370
               9
390
0
  6
Continuous
 62
               7
100
AcDbCircle
 10
6.4874999999999998
 20
-6.1124999999999972
 30
0.0
 40
0.2550000000000001
  0
CIRCLE
  5
41A
100
AcDbEntity
  8
None
370
               9
390
0
  6
Continuous
 62
               7
100
AcDbCircle
 10
7.487499999999998
 20
-6.1124999999999972
 30
0.0
 40
0.254999999999997
  0
CIRCLE
  5
41B
100
AcDbEntity
  8
None
370
               9
390
0
  6
Continuous
 62
               7
100
AcDbCircle
 10
8.4874999999999972
 20
-6.1124999999999972
 30
0.0
 40
0.254999999999997
  0
CIRCLE
  5
41C
100
AcDbEntity
  8
None
370
               9
390
0
  6
Continuous
 62
               7
100
AcDbCircle
 10
9.4874999999999972
 20
-6.1124999999999972
 30
0.0
 40
0.254999999999997
  0
CIRCLE
  5
41D
100
AcDbEntity
  8
None
370
               9
390
0
  6
Continuous
 62
               7
100
AcDbCircle
 10
10.487499999999997
 20
-6.1124999999999972
 30
0.0
 40
0.254999999999997
  0
CIRCLE
  5
41E
100
AcDbEntity
  8
None
370
               9
390
0
  6
Continuous
 62
               7
100
AcDbCircle
 10
11.487499999999997
 20
-6.1124999999999972
 30
0.0
 40
0.254999999999997
  0
CIRCLE
  5
41F
100
AcDbEntity
  8
None
370
               9
390
0
  6
Continuous
 62
               7
100
AcDbCircle
 10
12.487499999999997
 20
-6.1124999999999972
 30
0.0
 40
0.254999999999997
  0
CIRCLE
  5
420
100
AcDbEntity
  8
None
370
               9
390
0
  6
Continuous
 62
               7
100
AcDbCircle
 10
13.487499999999997
 20
-6.1124999999999972
 30
0.0
 40
0.254999999999997
  0
CIRCLE
  5
421
100
AcDbEntity
  8
None
370
               9
390
0
  6
Continuous
 62
               7
100
AcDbCircle
 10
14.487499999999997
 20
-6.1124999999999972
 30
0.0
 40
0.254999999999997
  0
CIRCLE
  5
422
100
AcDbEntity
  8
None
370
               9
390
0
  6
Continuous
 62
               7
100
AcDbCircle
 10
-20.512500000000003
 20
-7.1124999999999972
 30
0.0
 40
0.2550000000000001
  0
CIRCLE
  5
423
100
AcDbEntity
  8
None
370
               9
390
0
  6
Continuous
 62
               7
100
AcDbCircle
 10
-19.512500000000003
 20
-7.1124999999999972
 30
0.0
 40
0.2550000000000001
  0
CIRCLE
  5
424
100
AcDbEntity
  8
None
370
               9
390
0
  6
Continuous
 62
               7
100
AcDbCircle
 10
-18.512499999999999
 20
-7.1124999999999972
 30
0.0
 40
0.2550000000000001
  0
CIRCLE
  5
425
100
AcDbEntity
  8
None
370
               9
390
0
  6
Continuous
 62
               7
100
AcDbCircle
 10
-17.512499999999999
 20
-7.1124999999999972
 30
0.0
 40
0.2550000000000001
  0
CIRCLE
  5
426
100
AcDbEntity
  8
None
370
               9
390
0
  6
Continuous
 62
               7
100
AcDbCircle
 10
-16.512500000000003
 20
-7.1124999999999972
 30
0.0
 40
0.2550000000000001
  0
CIRCLE
  5
427
100
AcDbEntity
  8
None
370
               9
390
0
  6
Continuous
 62
               7
100
AcDbCircle
 10
-15.512500000000006
 20
-7.1124999999999972
 30
0.0
 40
0.2550000000000001
  0
CIRCLE
  5
428
100
AcDbEntity
  8
None
370
               9
390
0
  6
Continuous
 62
               7
100
AcDbCircle
 10
-14.51250000000001
 20
-7.1124999999999972
 30
0.0
 40
0.2550000000000001
  0
CIRCLE
  5
429
100
AcDbEntity
  8
None
370
               9
390
0
  6
Continuous
 62
               7
100
AcDbCircle
 10
-13.512500000000017
 20
-7.1124999999999972
 30
0.0
 40
0.254999999999997
  0
CIRCLE
  5
42A
100
AcDbEntity
  8
None
370
               9
390
0
  6
Continuous
 62
               7
100
AcDbCircle
 10
-12.512500000000021
 20
-7.1124999999999972
 30
0.0
 40
0.254999999999997
  0
CIRCLE
  5
42B
100
AcDbEntity
  8
None
370
               9
390
0
  6
Continuous
 62
               7
100
AcDbCircle
 10
-11.512500000000024
 20
-7.1124999999999972
 30
0.0
 40
0.254999999999997
  0
CIRCLE
  5
42C
100
AcDbEntity
  8
None
370
               9
390
0
  6
Continuous
 62
               7
100
AcDbCircle
 10
-10.512500000000024
 20
-7.1124999999999972
 30
0.0
 40
0.2550000000000001
  0
CIRCLE
  5
42D
100
AcDbEntity
  8
None
370
               9
390
0
  6
Continuous
 62
               7
100
AcDbCircle
 10
-9.5125000000000224
 20
-7.1124999999999972
 30
0.0
 40
0.2550000000000001
  0
CIRCLE
  5
42E
100
AcDbEntity
  8
None
370
               9
390
0
  6
Continuous
 62
               7
100
AcDbCircle
 10
-8.5125000000000224
 20
-7.1124999999999972
 30
0.0
 40
0.2550000000000001
  0
CIRCLE
  5
42F
100
AcDbEntity
  8
None
370
               9
390
0
  6
Continuous
 62
               7
100
AcDbCircle
 10
-7.5125000000000224
 20
-7.1124999999999972
 30
0.0
 40
0.2550000000000001
  0
CIRCLE
  5
430
100
AcDbEntity
  8
None
370
               9
390
0
  6
Continuous
 62
               7
100
AcDbCircle
 10
-6.5125000000000224
 20
-7.1124999999999972
 30
0.0
 40
0.2550000000000001
  0
CIRCLE
  5
431
100
AcDbEntity
  8
None
370
               9
390
0
  6
Continuous
 62
               7
100
AcDbCircle
 10
-5.5125000000000224
 20
-7.1124999999999972
 30
0.0
 40
0.2550000000000001
  0
CIRCLE
  5
432
100
AcDbEntity
  8
None
370
               9
390
0
  6
Continuous
 62
               7
100
AcDbCircle
 10
-4.5125000000000224
 20
-7.1124999999999972
 30
0.0
 40
0.2550000000000001
  0
CIRCLE
  5
433
100
AcDbEntity
  8
None
370
               9
390
0
  6
Continuous
 62
               7
100
AcDbCircle
 10
-3.5125000000000228
 20
-7.1124999999999972
 30
0.0
 40
0.2550000000000001
  0
CIRCLE
  5
434
100
AcDbEntity
  8
None
370
               9
390
0
  6
Continuous
 62
               7
100
AcDbCircle
 10
-2.5125000000000233
 20
-7.1124999999999972
 30
0.0
 40
0.2550000000000001
  0
CIRCLE
  5
435
100
AcDbEntity
  8
None
370
               9
390
0
  6
Continuous
 62
               7
100
AcDbCircle
 10
-1.5125000000000233
 20
-7.1124999999999972
 30
0.0
 40
0.2550000000000001
  0
CIRCLE
  5
436
100
AcDbEntity
  8
None
370
               9
390
0
  6
Continuous
 62
               7
100
AcDbCircle
 10
-0.5125000000000206
 20
-7.1124999999999972
 30
0.0
 40
0.2550000000000009
  0
CIRCLE
  5
437
100
AcDbEntity
  8
None
370
               9
390
0
  6
Continuous
 62
               7
100
AcDbCircle
 10
0.4874999999999838
 20
-7.1124999999999972
 30
0.0
 40
0.2550000000000009
  0
CIRCLE
  5
438
100
AcDbEntity
  8
None
370
               9
390
0
  6
Continuous
 62
               7
100
AcDbCircle
 10
1.4874999999999874
 20
-7.1124999999999972
 30
0.0
 40
0.2550000000000009
  0
CIRCLE
  5
439
100
AcDbEntity
  8
None
370
               9
390
0
  6
Continuous
 62
               7
100
AcDbCircle
 10
2.4874999999999918
 20
-7.1124999999999972
 30
0.0
 40
0.2550000000000009
  0
CIRCLE
  5
43A
100
AcDbEntity
  8
None
370
               9
390
0
  6
Continuous
 62
               7
100
AcDbCircle
 10
3.4874999999999954
 20
-7.1124999999999972
 30
0.0
 40
0.2550000000000009
  0
CIRCLE
  5
43B
100
AcDbEntity
  8
None
370
               9
390
0
  6
Continuous
 62
               7
100
AcDbCircle
 10
4.4874999999999989
 20
-7.1124999999999972
 30
0.0
 40
0.2550000000000009
  0
CIRCLE
  5
43C
100
AcDbEntity
  8
None
370
               9
390
0
  6
Continuous
 62
               7
100
AcDbCircle
 10
5.4874999999999998
 20
-7.1124999999999972
 30
0.0
 40
0.2550000000000001
  0
CIRCLE
  5
43D
100
AcDbEntity
  8
None
370
               9
390
0
  6
Continuous
 62
               7
100
AcDbCircle
 10
6.4874999999999998
 20
-7.1124999999999972
 30
0.0
 40
0.2550000000000001
  0
CIRCLE
  5
43E
100
AcDbEntity
  8
None
370
               9
390
0
  6
Continuous
 62
               7
100
AcDbCircle
 10
7.487499999999998
 20
-7.1124999999999972
 30
0.0
 40
0.254999999999997
  0
CIRCLE
  5
43F
100
AcDbEntity
  8
None
370
               9
390
0
  6
Continuous
 62
               7
100
AcDbCircle
 10
8.4874999999999972
 20
-7.1124999999999972
 30
0.0
 40
0.254999999999997
  0
CIRCLE
  5
440
100
AcDbEntity
  8
None
370
               9
390
0
  6
Continuous
 62
               7
100
AcDbCircle
 10
9.4874999999999972
 20
-7.1124999999999972
 30
0.0
 40
0.254999999999997
  0
CIRCLE
  5
441
100
AcDbEntity
  8
None
370
               9
390
0
  6
Continuous
 62
               7
100
AcDbCircle
 10
10.487499999999997
 20
-7.1124999999999972
 30
0.0
 40
0.254999999999997
  0
CIRCLE
  5
442
100
AcDbEntity
  8
None
370
               9
390
0
  6
Continuous
 62
               7
100
AcDbCircle
 10
11.487499999999997
 20
-7.1124999999999972
 30
0.0
 40
0.254999999999997
  0
CIRCLE
  5
443
100
AcDbEntity
  8
None
370
               9
390
0
  6
Continuous
 62
               7
100
AcDbCircle
 10
12.487499999999997
 20
-7.1124999999999972
 30
0.0
 40
0.254999999999997
  0
CIRCLE
  5
444
100
AcDbEntity
  8
None
370
               9
390
0
  6
Continuous
 62
               7
100
AcDbCircle
 10
13.487499999999997
 20
-7.1124999999999972
 30
0.0
 40
0.254999999999997
  0
CIRCLE
  5
445
100
AcDbEntity
  8
None
370
               9
390
0
  6
Continuous
 62
               7
100
AcDbCircle
 10
14.487499999999997
 20
-7.1124999999999972
 30
0.0
 40
0.254999999999997
  0
CIRCLE
  5
446
100
AcDbEntity
  8
None
370
               9
390
0
  6
Continuous
 62
               7
100
AcDbCircle
 10
-20.512500000000003
 20
-8.1124999999999972
 30
0.0
 40
0.2550000000000001
  0
CIRCLE
  5
447
100
AcDbEntity
  8
None
370
               9
390
0
  6
Continuous
 62
               7
100
AcDbCircle
 10
-19.512500000000003
 20
-8.1124999999999972
 30
0.0
 40
0.2550000000000001
  0
CIRCLE
  5
448
100
AcDbEntity
  8
None
370
               9
390
0
  6
Continuous
 62
               7
100
AcDbCircle
 10
-18.512499999999999
 20
-8.1124999999999972
 30
0.0
 40
0.2550000000000001
  0
CIRCLE
  5
449
100
AcDbEntity
  8
None
370
               9
390
0
  6
Continuous
 62
               7
100
AcDbCircle
 10
-17.512499999999999
 20
-8.1124999999999972
 30
0.0
 40
0.2550000000000001
  0
CIRCLE
  5
44A
100
AcDbEntity
  8
None
370
               9
390
0
  6
Continuous
 62
               7
100
AcDbCircle
 10
-16.512500000000003
 20
-8.1124999999999972
 30
0.0
 40
0.2550000000000001
  0
CIRCLE
  5
44B
100
AcDbEntity
  8
None
370
               9
390
0
  6
Continuous
 62
               7
100
AcDbCircle
 10
-15.512500000000006
 20
-8.1124999999999972
 30
0.0
 40
0.2550000000000001
  0
CIRCLE
  5
44C
100
AcDbEntity
  8
None
370
               9
390
0
  6
Continuous
 62
               7
100
AcDbCircle
 10
-14.51250000000001
 20
-8.1124999999999972
 30
0.0
 40
0.2550000000000001
  0
CIRCLE
  5
44D
100
AcDbEntity
  8
None
370
               9
390
0
  6
Continuous
 62
               7
100
AcDbCircle
 10
-13.512500000000017
 20
-8.1124999999999972
 30
0.0
 40
0.254999999999997
  0
CIRCLE
  5
44E
100
AcDbEntity
  8
None
370
               9
390
0
  6
Continuous
 62
               7
100
AcDbCircle
 10
-12.512500000000021
 20
-8.1124999999999972
 30
0.0
 40
0.254999999999997
  0
CIRCLE
  5
44F
100
AcDbEntity
  8
None
370
               9
390
0
  6
Continuous
 62
               7
100
AcDbCircle
 10
-11.512500000000024
 20
-8.1124999999999972
 30
0.0
 40
0.254999999999997
  0
CIRCLE
  5
450
100
AcDbEntity
  8
None
370
               9
390
0
  6
Continuous
 62
               7
100
AcDbCircle
 10
-10.512500000000024
 20
-8.1124999999999972
 30
0.0
 40
0.2550000000000001
  0
CIRCLE
  5
451
100
AcDbEntity
  8
None
370
               9
390
0
  6
Continuous
 62
               7
100
AcDbCircle
 10
-9.5125000000000224
 20
-8.1124999999999972
 30
0.0
 40
0.2550000000000001
  0
CIRCLE
  5
452
100
AcDbEntity
  8
None
370
               9
390
0
  6
Continuous
 62
               7
100
AcDbCircle
 10
-8.5125000000000224
 20
-8.1124999999999972
 30
0.0
 40
0.2550000000000001
  0
CIRCLE
  5
453
100
AcDbEntity
  8
None
370
               9
390
0
  6
Continuous
 62
               7
100
AcDbCircle
 10
-7.5125000000000224
 20
-8.1124999999999972
 30
0.0
 40
0.2550000000000001
  0
CIRCLE
  5
454
100
AcDbEntity
  8
None
370
               9
390
0
  6
Continuous
 62
               7
100
AcDbCircle
 10
-6.5125000000000224
 20
-8.1124999999999972
 30
0.0
 40
0.2550000000000001
  0
CIRCLE
  5
455
100
AcDbEntity
  8
None
370
               9
390
0
  6
Continuous
 62
               7
100
AcDbCircle
 10
-5.5125000000000224
 20
-8.1124999999999972
 30
0.0
 40
0.2550000000000001
  0
CIRCLE
  5
456
100
AcDbEntity
  8
None
370
               9
390
0
  6
Continuous
 62
               7
100
AcDbCircle
 10
-4.5125000000000224
 20
-8.1124999999999972
 30
0.0
 40
0.2550000000000001
  0
CIRCLE
  5
457
100
AcDbEntity
  8
None
370
               9
390
0
  6
Continuous
 62
               7
100
AcDbCircle
 10
-3.5125000000000228
 20
-8.1124999999999972
 30
0.0
 40
0.2550000000000001
  0
CIRCLE
  5
458
100
AcDbEntity
  8
None
370
               9
390
0
  6
Continuous
 62
               7
100
AcDbCircle
 10
-2.5125000000000233
 20
-8.1124999999999972
 30
0.0
 40
0.2550000000000001
  0
CIRCLE
  5
459
100
AcDbEntity
  8
None
370
               9
390
0
  6
Continuous
 62
               7
100
AcDbCircle
 10
-1.5125000000000233
 20
-8.1124999999999972
 30
0.0
 40
0.2550000000000001
  0
CIRCLE
  5
45A
100
AcDbEntity
  8
None
370
               9
390
0
  6
Continuous
 62
               7
100
AcDbCircle
 10
-0.5125000000000206
 20
-8.1124999999999972
 30
0.0
 40
0.2550000000000009
  0
CIRCLE
  5
45B
100
AcDbEntity
  8
None
370
               9
390
0
  6
Continuous
 62
               7
100
AcDbCircle
 10
0.4874999999999838
 20
-8.1124999999999972
 30
0.0
 40
0.2550000000000009
  0
CIRCLE
  5
45C
100
AcDbEntity
  8
None
370
               9
390
0
  6
Continuous
 62
               7
100
AcDbCircle
 10
1.4874999999999874
 20
-8.1124999999999972
 30
0.0
 40
0.2550000000000009
  0
CIRCLE
  5
45D
100
AcDbEntity
  8
None
370
               9
390
0
  6
Continuous
 62
               7
100
AcDbCircle
 10
2.4874999999999918
 20
-8.1124999999999972
 30
0.0
 40
0.2550000000000009
  0
CIRCLE
  5
45E
100
AcDbEntity
  8
None
370
               9
390
0
  6
Continuous
 62
               7
100
AcDbCircle
 10
3.4874999999999954
 20
-8.1124999999999972
 30
0.0
 40
0.2550000000000009
  0
CIRCLE
  5
45F
100
AcDbEntity
  8
None
370
               9
390
0
  6
Continuous
 62
               7
100
AcDbCircle
 10
4.4874999999999989
 20
-8.1124999999999972
 30
0.0
 40
0.2550000000000009
  0
CIRCLE
  5
460
100
AcDbEntity
  8
None
370
               9
390
0
  6
Continuous
 62
               7
100
AcDbCircle
 10
5.4874999999999998
 20
-8.1124999999999972
 30
0.0
 40
0.2550000000000001
  0
CIRCLE
  5
461
100
AcDbEntity
  8
None
370
               9
390
0
  6
Continuous
 62
               7
100
AcDbCircle
 10
6.4874999999999998
 20
-8.1124999999999972
 30
0.0
 40
0.2550000000000001
  0
CIRCLE
  5
462
100
AcDbEntity
  8
None
370
               9
390
0
  6
Continuous
 62
               7
100
AcDbCircle
 10
7.487499999999998
 20
-8.1124999999999972
 30
0.0
 40
0.254999999999997
  0
CIRCLE
  5
463
100
AcDbEntity
  8
None
370
               9
390
0
  6
Continuous
 62
               7
100
AcDbCircle
 10
8.4874999999999972
 20
-8.1124999999999972
 30
0.0
 40
0.254999999999997
  0
CIRCLE
  5
464
100
AcDbEntity
  8
None
370
               9
390
0
  6
Continuous
 62
               7
100
AcDbCircle
 10
9.4874999999999972
 20
-8.1124999999999972
 30
0.0
 40
0.254999999999997
  0
CIRCLE
  5
465
100
AcDbEntity
  8
None
370
               9
390
0
  6
Continuous
 62
               7
100
AcDbCircle
 10
10.487499999999997
 20
-8.1124999999999972
 30
0.0
 40
0.254999999999997
  0
CIRCLE
  5
466
100
AcDbEntity
  8
None
370
               9
390
0
  6
Continuous
 62
               7
100
AcDbCircle
 10
11.487499999999997
 20
-8.1124999999999972
 30
0.0
 40
0.254999999999997
  0
CIRCLE
  5
467
100
AcDbEntity
  8
None
370
               9
390
0
  6
Continuous
 62
               7
100
AcDbCircle
 10
12.487499999999997
 20
-8.1124999999999972
 30
0.0
 40
0.254999999999997
  0
CIRCLE
  5
468
100
AcDbEntity
  8
None
370
               9
390
0
  6
Continuous
 62
               7
100
AcDbCircle
 10
13.487499999999997
 20
-8.1124999999999972
 30
0.0
 40
0.254999999999997
  0
CIRCLE
  5
469
100
AcDbEntity
  8
None
370
               9
390
0
  6
Continuous
 62
               7
100
AcDbCircle
 10
14.487499999999997
 20
-8.1124999999999972
 30
0.0
 40
0.254999999999997
  0
CIRCLE
  5
46A
100
AcDbEntity
  8
None
370
               9
390
0
  6
Continuous
 62
               7
100
AcDbCircle
 10
-20.512500000000003
 20
-9.1124999999999972
 30
0.0
 40
0.2550000000000001
  0
CIRCLE
  5
46B
100
AcDbEntity
  8
None
370
               9
390
0
  6
Continuous
 62
               7
100
AcDbCircle
 10
-19.512500000000003
 20
-9.1124999999999972
 30
0.0
 40
0.2550000000000001
  0
CIRCLE
  5
46C
100
AcDbEntity
  8
None
370
               9
390
0
  6
Continuous
 62
               7
100
AcDbCircle
 10
-18.512499999999999
 20
-9.1124999999999972
 30
0.0
 40
0.2550000000000001
  0
CIRCLE
  5
46D
100
AcDbEntity
  8
None
370
               9
390
0
  6
Continuous
 62
               7
100
AcDbCircle
 10
-17.512499999999999
 20
-9.1124999999999972
 30
0.0
 40
0.2550000000000001
  0
CIRCLE
  5
46E
100
AcDbEntity
  8
None
370
               9
390
0
  6
Continuous
 62
               7
100
AcDbCircle
 10
-16.512500000000003
 20
-9.1124999999999972
 30
0.0
 40
0.2550000000000001
  0
CIRCLE
  5
46F
100
AcDbEntity
  8
None
370
               9
390
0
  6
Continuous
 62
               7
100
AcDbCircle
 10
-15.512500000000006
 20
-9.1124999999999972
 30
0.0
 40
0.2550000000000001
  0
CIRCLE
  5
470
100
AcDbEntity
  8
None
370
               9
390
0
  6
Continuous
 62
               7
100
AcDbCircle
 10
-14.51250000000001
 20
-9.1124999999999972
 30
0.0
 40
0.2550000000000001
  0
CIRCLE
  5
471
100
AcDbEntity
  8
None
370
               9
390
0
  6
Continuous
 62
               7
100
AcDbCircle
 10
-13.512500000000017
 20
-9.1124999999999972
 30
0.0
 40
0.254999999999997
  0
CIRCLE
  5
472
100
AcDbEntity
  8
None
370
               9
390
0
  6
Continuous
 62
               7
100
AcDbCircle
 10
-12.512500000000021
 20
-9.1124999999999972
 30
0.0
 40
0.254999999999997
  0
CIRCLE
  5
473
100
AcDbEntity
  8
None
370
               9
390
0
  6
Continuous
 62
               7
100
AcDbCircle
 10
-11.512500000000024
 20
-9.1124999999999972
 30
0.0
 40
0.254999999999997
  0
CIRCLE
  5
474
100
AcDbEntity
  8
None
370
               9
390
0
  6
Continuous
 62
               7
100
AcDbCircle
 10
-10.512500000000024
 20
-9.1124999999999972
 30
0.0
 40
0.2550000000000001
  0
CIRCLE
  5
475
100
AcDbEntity
  8
None
370
               9
390
0
  6
Continuous
 62
               7
100
AcDbCircle
 10
-9.5125000000000224
 20
-9.1124999999999972
 30
0.0
 40
0.2550000000000001
  0
CIRCLE
  5
476
100
AcDbEntity
  8
None
370
               9
390
0
  6
Continuous
 62
               7
100
AcDbCircle
 10
-8.5125000000000224
 20
-9.1124999999999972
 30
0.0
 40
0.2550000000000001
  0
CIRCLE
  5
477
100
AcDbEntity
  8
None
370
               9
390
0
  6
Continuous
 62
               7
100
AcDbCircle
 10
-7.5125000000000224
 20
-9.1124999999999972
 30
0.0
 40
0.2550000000000001
  0
CIRCLE
  5
478
100
AcDbEntity
  8
None
370
               9
390
0
  6
Continuous
 62
               7
100
AcDbCircle
 10
-6.5125000000000224
 20
-9.1124999999999972
 30
0.0
 40
0.2550000000000001
  0
CIRCLE
  5
479
100
AcDbEntity
  8
None
370
               9
390
0
  6
Continuous
 62
               7
100
AcDbCircle
 10
-5.5125000000000224
 20
-9.1124999999999972
 30
0.0
 40
0.2550000000000001
  0
CIRCLE
  5
47A
100
AcDbEntity
  8
None
370
               9
390
0
  6
Continuous
 62
               7
100
AcDbCircle
 10
-4.5125000000000224
 20
-9.1124999999999972
 30
0.0
 40
0.2550000000000001
  0
CIRCLE
  5
47B
100
AcDbEntity
  8
None
370
               9
390
0
  6
Continuous
 62
               7
100
AcDbCircle
 10
-3.5125000000000228
 20
-9.1124999999999972
 30
0.0
 40
0.2550000000000001
  0
CIRCLE
  5
47C
100
AcDbEntity
  8
None
370
               9
390
0
  6
Continuous
 62
               7
100
AcDbCircle
 10
-2.5125000000000233
 20
-9.1124999999999972
 30
0.0
 40
0.2550000000000001
  0
CIRCLE
  5
47D
100
AcDbEntity
  8
None
370
               9
390
0
  6
Continuous
 62
               7
100
AcDbCircle
 10
-1.5125000000000233
 20
-9.1124999999999972
 30
0.0
 40
0.2550000000000001
  0
CIRCLE
  5
47E
100
AcDbEntity
  8
None
370
               9
390
0
  6
Continuous
 62
               7
100
AcDbCircle
 10
-0.5125000000000206
 20
-9.1124999999999972
 30
0.0
 40
0.2550000000000009
  0
CIRCLE
  5
47F
100
AcDbEntity
  8
None
370
               9
390
0
  6
Continuous
 62
               7
100
AcDbCircle
 10
0.4874999999999838
 20
-9.1124999999999972
 30
0.0
 40
0.2550000000000009
  0
CIRCLE
  5
480
100
AcDbEntity
  8
None
370
               9
390
0
  6
Continuous
 62
               7
100
AcDbCircle
 10
1.4874999999999874
 20
-9.1124999999999972
 30
0.0
 40
0.2550000000000009
  0
CIRCLE
  5
481
100
AcDbEntity
  8
None
370
               9
390
0
  6
Continuous
 62
               7
100
AcDbCircle
 10
2.4874999999999918
 20
-9.1124999999999972
 30
0.0
 40
0.2550000000000009
  0
CIRCLE
  5
482
100
AcDbEntity
  8
None
370
               9
390
0
  6
Continuous
 62
               7
100
AcDbCircle
 10
3.4874999999999954
 20
-9.1124999999999972
 30
0.0
 40
0.2550000000000009
  0
CIRCLE
  5
483
100
AcDbEntity
  8
None
370
               9
390
0
  6
Continuous
 62
               7
100
AcDbCircle
 10
4.4874999999999989
 20
-9.1124999999999972
 30
0.0
 40
0.2550000000000009
  0
CIRCLE
  5
484
100
AcDbEntity
  8
None
370
               9
390
0
  6
Continuous
 62
               7
100
AcDbCircle
 10
5.4874999999999998
 20
-9.1124999999999972
 30
0.0
 40
0.2550000000000001
  0
CIRCLE
  5
485
100
AcDbEntity
  8
None
370
               9
390
0
  6
Continuous
 62
               7
100
AcDbCircle
 10
6.4874999999999998
 20
-9.1124999999999972
 30
0.0
 40
0.2550000000000001
  0
CIRCLE
  5
486
100
AcDbEntity
  8
None
370
               9
390
0
  6
Continuous
 62
               7
100
AcDbCircle
 10
7.487499999999998
 20
-9.1124999999999972
 30
0.0
 40
0.254999999999997
  0
CIRCLE
  5
487
100
AcDbEntity
  8
None
370
               9
390
0
  6
Continuous
 62
               7
100
AcDbCircle
 10
8.4874999999999972
 20
-9.1124999999999972
 30
0.0
 40
0.254999999999997
  0
CIRCLE
  5
488
100
AcDbEntity
  8
None
370
               9
390
0
  6
Continuous
 62
               7
100
AcDbCircle
 10
9.4874999999999972
 20
-9.1124999999999972
 30
0.0
 40
0.254999999999997
  0
CIRCLE
  5
489
100
AcDbEntity
  8
None
370
               9
390
0
  6
Continuous
 62
               7
100
AcDbCircle
 10
10.487499999999997
 20
-9.1124999999999972
 30
0.0
 40
0.254999999999997
  0
CIRCLE
  5
48A
100
AcDbEntity
  8
None
370
               9
390
0
  6
Continuous
 62
               7
100
AcDbCircle
 10
11.487499999999997
 20
-9.1124999999999972
 30
0.0
 40
0.254999999999997
  0
CIRCLE
  5
48B
100
AcDbEntity
  8
None
370
               9
390
0
  6
Continuous
 62
               7
100
AcDbCircle
 10
12.487499999999997
 20
-9.1124999999999972
 30
0.0
 40
0.254999999999997
  0
CIRCLE
  5
48C
100
AcDbEntity
  8
None
370
               9
390
0
  6
Continuous
 62
               7
100
AcDbCircle
 10
13.487499999999997
 20
-9.1124999999999972
 30
0.0
 40
0.254999999999997
  0
CIRCLE
  5
48D
100
AcDbEntity
  8
None
370
               9
390
0
  6
Continuous
 62
               7
100
AcDbCircle
 10
14.487499999999997
 20
-9.1124999999999972
 30
0.0
 40
0.254999999999997
  0
CIRCLE
  5
48E
100
AcDbEntity
  8
None
370
               9
390
0
  6
Continuous
 62
               7
100
AcDbCircle
 10
-20.512500000000003
 20
-10.112499999999997
 30
0.0
 40
0.2550000000000001
  0
CIRCLE
  5
48F
100
AcDbEntity
  8
None
370
               9
390
0
  6
Continuous
 62
               7
100
AcDbCircle
 10
-19.512500000000003
 20
-10.112499999999997
 30
0.0
 40
0.2550000000000001
  0
CIRCLE
  5
490
100
AcDbEntity
  8
None
370
               9
390
0
  6
Continuous
 62
               7
100
AcDbCircle
 10
-18.512499999999999
 20
-10.112499999999997
 30
0.0
 40
0.2550000000000001
  0
CIRCLE
  5
491
100
AcDbEntity
  8
None
370
               9
390
0
  6
Continuous
 62
               7
100
AcDbCircle
 10
-17.512499999999999
 20
-10.112499999999997
 30
0.0
 40
0.2550000000000001
  0
CIRCLE
  5
492
100
AcDbEntity
  8
None
370
               9
390
0
  6
Continuous
 62
               7
100
AcDbCircle
 10
-16.512500000000003
 20
-10.112499999999997
 30
0.0
 40
0.2550000000000001
  0
CIRCLE
  5
493
100
AcDbEntity
  8
None
370
               9
390
0
  6
Continuous
 62
               7
100
AcDbCircle
 10
-15.512500000000006
 20
-10.112499999999997
 30
0.0
 40
0.2550000000000001
  0
CIRCLE
  5
494
100
AcDbEntity
  8
None
370
               9
390
0
  6
Continuous
 62
               7
100
AcDbCircle
 10
-14.51250000000001
 20
-10.112499999999997
 30
0.0
 40
0.2550000000000001
  0
CIRCLE
  5
495
100
AcDbEntity
  8
None
370
               9
390
0
  6
Continuous
 62
               7
100
AcDbCircle
 10
-13.512500000000017
 20
-10.112499999999997
 30
0.0
 40
0.254999999999997
  0
CIRCLE
  5
496
100
AcDbEntity
  8
None
370
               9
390
0
  6
Continuous
 62
               7
100
AcDbCircle
 10
-12.512500000000021
 20
-10.112499999999997
 30
0.0
 40
0.254999999999997
  0
CIRCLE
  5
497
100
AcDbEntity
  8
None
370
               9
390
0
  6
Continuous
 62
               7
100
AcDbCircle
 10
-11.512500000000024
 20
-10.112499999999997
 30
0.0
 40
0.254999999999997
  0
CIRCLE
  5
498
100
AcDbEntity
  8
None
370
               9
390
0
  6
Continuous
 62
               7
100
AcDbCircle
 10
-10.512500000000024
 20
-10.112499999999997
 30
0.0
 40
0.2550000000000001
  0
CIRCLE
  5
499
100
AcDbEntity
  8
None
370
               9
390
0
  6
Continuous
 62
               7
100
AcDbCircle
 10
-9.5125000000000224
 20
-10.112499999999997
 30
0.0
 40
0.2550000000000001
  0
CIRCLE
  5
49A
100
AcDbEntity
  8
None
370
               9
390
0
  6
Continuous
 62
               7
100
AcDbCircle
 10
-8.5125000000000224
 20
-10.112499999999997
 30
0.0
 40
0.2550000000000001
  0
CIRCLE
  5
49B
100
AcDbEntity
  8
None
370
               9
390
0
  6
Continuous
 62
               7
100
AcDbCircle
 10
-7.5125000000000224
 20
-10.112499999999997
 30
0.0
 40
0.2550000000000001
  0
CIRCLE
  5
49C
100
AcDbEntity
  8
None
370
               9
390
0
  6
Continuous
 62
               7
100
AcDbCircle
 10
-6.5125000000000224
 20
-10.112499999999997
 30
0.0
 40
0.2550000000000001
  0
CIRCLE
  5
49D
100
AcDbEntity
  8
None
370
               9
390
0
  6
Continuous
 62
               7
100
AcDbCircle
 10
-5.5125000000000224
 20
-10.112499999999997
 30
0.0
 40
0.2550000000000001
  0
CIRCLE
  5
49E
100
AcDbEntity
  8
None
370
               9
390
0
  6
Continuous
 62
               7
100
AcDbCircle
 10
-4.5125000000000224
 20
-10.112499999999997
 30
0.0
 40
0.2550000000000001
  0
CIRCLE
  5
49F
100
AcDbEntity
  8
None
370
               9
390
0
  6
Continuous
 62
               7
100
AcDbCircle
 10
-3.5125000000000228
 20
-10.112499999999997
 30
0.0
 40
0.2550000000000001
  0
CIRCLE
  5
4A0
100
AcDbEntity
  8
None
370
               9
390
0
  6
Continuous
 62
               7
100
AcDbCircle
 10
-2.5125000000000233
 20
-10.112499999999997
 30
0.0
 40
0.2550000000000001
  0
CIRCLE
  5
4A1
100
AcDbEntity
  8
None
370
               9
390
0
  6
Continuous
 62
               7
100
AcDbCircle
 10
-1.5125000000000233
 20
-10.112499999999997
 30
0.0
 40
0.2550000000000001
  0
CIRCLE
  5
4A2
100
AcDbEntity
  8
None
370
               9
390
0
  6
Continuous
 62
               7
100
AcDbCircle
 10
-0.5125000000000206
 20
-10.112499999999997
 30
0.0
 40
0.2550000000000009
  0
CIRCLE
  5
4A3
100
AcDbEntity
  8
None
370
               9
390
0
  6
Continuous
 62
               7
100
AcDbCircle
 10
0.4874999999999838
 20
-10.112499999999997
 30
0.0
 40
0.2550000000000009
  0
CIRCLE
  5
4A4
100
AcDbEntity
  8
None
370
               9
390
0
  6
Continuous
 62
               7
100
AcDbCircle
 10
1.4874999999999874
 20
-10.112499999999997
 30
0.0
 40
0.2550000000000009
  0
CIRCLE
  5
4A5
100
AcDbEntity
  8
None
370
               9
390
0
  6
Continuous
 62
               7
100
AcDbCircle
 10
2.4874999999999918
 20
-10.112499999999997
 30
0.0
 40
0.2550000000000009
  0
CIRCLE
  5
4A6
100
AcDbEntity
  8
None
370
               9
390
0
  6
Continuous
 62
               7
100
AcDbCircle
 10
3.4874999999999954
 20
-10.112499999999997
 30
0.0
 40
0.2550000000000009
  0
CIRCLE
  5
4A7
100
AcDbEntity
  8
None
370
               9
390
0
  6
Continuous
 62
               7
100
AcDbCircle
 10
4.4874999999999989
 20
-10.112499999999997
 30
0.0
 40
0.2550000000000009
  0
CIRCLE
  5
4A8
100
AcDbEntity
  8
None
370
               9
390
0
  6
Continuous
 62
               7
100
AcDbCircle
 10
5.4874999999999998
 20
-10.112499999999997
 30
0.0
 40
0.2550000000000001
  0
CIRCLE
  5
4A9
100
AcDbEntity
  8
None
370
               9
390
0
  6
Continuous
 62
               7
100
AcDbCircle
 10
6.4874999999999998
 20
-10.112499999999997
 30
0.0
 40
0.2550000000000001
  0
CIRCLE
  5
4AA
100
AcDbEntity
  8
None
370
               9
390
0
  6
Continuous
 62
               7
100
AcDbCircle
 10
7.487499999999998
 20
-10.112499999999997
 30
0.0
 40
0.254999999999997
  0
CIRCLE
  5
4AB
100
AcDbEntity
  8
None
370
               9
390
0
  6
Continuous
 62
               7
100
AcDbCircle
 10
8.4874999999999972
 20
-10.112499999999997
 30
0.0
 40
0.254999999999997
  0
CIRCLE
  5
4AC
100
AcDbEntity
  8
None
370
               9
390
0
  6
Continuous
 62
               7
100
AcDbCircle
 10
9.4874999999999972
 20
-10.112499999999997
 30
0.0
 40
0.254999999999997
  0
CIRCLE
  5
4AD
100
AcDbEntity
  8
None
370
               9
390
0
  6
Continuous
 62
               7
100
AcDbCircle
 10
10.487499999999997
 20
-10.112499999999997
 30
0.0
 40
0.254999999999997
  0
CIRCLE
  5
4AE
100
AcDbEntity
  8
None
370
               9
390
0
  6
Continuous
 62
               7
100
AcDbCircle
 10
11.487499999999997
 20
-10.112499999999997
 30
0.0
 40
0.254999999999997
  0
CIRCLE
  5
4AF
100
AcDbEntity
  8
None
370
               9
390
0
  6
Continuous
 62
               7
100
AcDbCircle
 10
12.487499999999997
 20
-10.112499999999997
 30
0.0
 40
0.254999999999997
  0
CIRCLE
  5
4B0
100
AcDbEntity
  8
None
370
               9
390
0
  6
Continuous
 62
               7
100
AcDbCircle
 10
13.487499999999997
 20
-10.112499999999997
 30
0.0
 40
0.254999999999997
  0
CIRCLE
  5
4B1
100
AcDbEntity
  8
None
370
               9
390
0
  6
Continuous
 62
               7
100
AcDbCircle
 10
14.487499999999997
 20
-10.112499999999997
 30
0.0
 40
0.254999999999997
  0
CIRCLE
  5
4B2
100
AcDbEntity
  8
None
370
               9
390
0
  6
Continuous
 62
               7
100
AcDbCircle
 10
-20.512500000000003
 20
-11.112499999999997
 30
0.0
 40
0.2550000000000001
  0
CIRCLE
  5
4B3
100
AcDbEntity
  8
None
370
               9
390
0
  6
Continuous
 62
               7
100
AcDbCircle
 10
-19.512500000000003
 20
-11.112499999999997
 30
0.0
 40
0.2550000000000001
  0
CIRCLE
  5
4B4
100
AcDbEntity
  8
None
370
               9
390
0
  6
Continuous
 62
               7
100
AcDbCircle
 10
-18.512499999999999
 20
-11.112499999999997
 30
0.0
 40
0.2550000000000001
  0
CIRCLE
  5
4B5
100
AcDbEntity
  8
None
370
               9
390
0
  6
Continuous
 62
               7
100
AcDbCircle
 10
-17.512499999999999
 20
-11.112499999999997
 30
0.0
 40
0.2550000000000001
  0
CIRCLE
  5
4B6
100
AcDbEntity
  8
None
370
               9
390
0
  6
Continuous
 62
               7
100
AcDbCircle
 10
-16.512500000000003
 20
-11.112499999999997
 30
0.0
 40
0.2550000000000001
  0
CIRCLE
  5
4B7
100
AcDbEntity
  8
None
370
               9
390
0
  6
Continuous
 62
               7
100
AcDbCircle
 10
-15.512500000000006
 20
-11.112499999999997
 30
0.0
 40
0.2550000000000001
  0
CIRCLE
  5
4B8
100
AcDbEntity
  8
None
370
               9
390
0
  6
Continuous
 62
               7
100
AcDbCircle
 10
-14.51250000000001
 20
-11.112499999999997
 30
0.0
 40
0.2550000000000001
  0
CIRCLE
  5
4B9
100
AcDbEntity
  8
None
370
               9
390
0
  6
Continuous
 62
               7
100
AcDbCircle
 10
-13.512500000000017
 20
-11.112499999999997
 30
0.0
 40
0.254999999999997
  0
CIRCLE
  5
4BA
100
AcDbEntity
  8
None
370
               9
390
0
  6
Continuous
 62
               7
100
AcDbCircle
 10
-12.512500000000021
 20
-11.112499999999997
 30
0.0
 40
0.254999999999997
  0
CIRCLE
  5
4BB
100
AcDbEntity
  8
None
370
               9
390
0
  6
Continuous
 62
               7
100
AcDbCircle
 10
-11.512500000000024
 20
-11.112499999999997
 30
0.0
 40
0.254999999999997
  0
CIRCLE
  5
4BC
100
AcDbEntity
  8
None
370
               9
390
0
  6
Continuous
 62
               7
100
AcDbCircle
 10
-10.512500000000024
 20
-11.112499999999997
 30
0.0
 40
0.2550000000000001
  0
CIRCLE
  5
4BD
100
AcDbEntity
  8
None
370
               9
390
0
  6
Continuous
 62
               7
100
AcDbCircle
 10
-9.5125000000000224
 20
-11.112499999999997
 30
0.0
 40
0.2550000000000001
  0
CIRCLE
  5
4BE
100
AcDbEntity
  8
None
370
               9
390
0
  6
Continuous
 62
               7
100
AcDbCircle
 10
-8.5125000000000224
 20
-11.112499999999997
 30
0.0
 40
0.2550000000000001
  0
CIRCLE
  5
4BF
100
AcDbEntity
  8
None
370
               9
390
0
  6
Continuous
 62
               7
100
AcDbCircle
 10
-7.5125000000000224
 20
-11.112499999999997
 30
0.0
 40
0.2550000000000001
  0
CIRCLE
  5
4C0
100
AcDbEntity
  8
None
370
               9
390
0
  6
Continuous
 62
               7
100
AcDbCircle
 10
-6.5125000000000224
 20
-11.112499999999997
 30
0.0
 40
0.2550000000000001
  0
CIRCLE
  5
4C1
100
AcDbEntity
  8
None
370
               9
390
0
  6
Continuous
 62
               7
100
AcDbCircle
 10
-5.5125000000000224
 20
-11.112499999999997
 30
0.0
 40
0.2550000000000001
  0
CIRCLE
  5
4C2
100
AcDbEntity
  8
None
370
               9
390
0
  6
Continuous
 62
               7
100
AcDbCircle
 10
-4.5125000000000224
 20
-11.112499999999997
 30
0.0
 40
0.2550000000000001
  0
CIRCLE
  5
4C3
100
AcDbEntity
  8
None
370
               9
390
0
  6
Continuous
 62
               7
100
AcDbCircle
 10
-3.5125000000000228
 20
-11.112499999999997
 30
0.0
 40
0.2550000000000001
  0
CIRCLE
  5
4C4
100
AcDbEntity
  8
None
370
               9
390
0
  6
Continuous
 62
               7
100
AcDbCircle
 10
-2.5125000000000233
 20
-11.112499999999997
 30
0.0
 40
0.2550000000000001
  0
CIRCLE
  5
4C5
100
AcDbEntity
  8
None
370
               9
390
0
  6
Continuous
 62
               7
100
AcDbCircle
 10
-1.5125000000000233
 20
-11.112499999999997
 30
0.0
 40
0.2550000000000001
  0
CIRCLE
  5
4C6
100
AcDbEntity
  8
None
370
               9
390
0
  6
Continuous
 62
               7
100
AcDbCircle
 10
-0.5125000000000206
 20
-11.112499999999997
 30
0.0
 40
0.2550000000000009
  0
CIRCLE
  5
4C7
100
AcDbEntity
  8
None
370
               9
390
0
  6
Continuous
 62
               7
100
AcDbCircle
 10
0.4874999999999838
 20
-11.112499999999997
 30
0.0
 40
0.2550000000000009
  0
CIRCLE
  5
4C8
100
AcDbEntity
  8
None
370
               9
390
0
  6
Continuous
 62
               7
100
AcDbCircle
 10
1.4874999999999874
 20
-11.112499999999997
 30
0.0
 40
0.2550000000000009
  0
CIRCLE
  5
4C9
100
AcDbEntity
  8
None
370
               9
390
0
  6
Continuous
 62
               7
100
AcDbCircle
 10
2.4874999999999918
 20
-11.112499999999997
 30
0.0
 40
0.2550000000000009
  0
CIRCLE
  5
4CA
100
AcDbEntity
  8
None
370
               9
390
0
  6
Continuous
 62
               7
100
AcDbCircle
 10
3.4874999999999954
 20
-11.112499999999997
 30
0.0
 40
0.2550000000000009
  0
CIRCLE
  5
4CB
100
AcDbEntity
  8
None
370
               9
390
0
  6
Continuous
 62
               7
100
AcDbCircle
 10
4.4874999999999989
 20
-11.112499999999997
 30
0.0
 40
0.2550000000000009
  0
CIRCLE
  5
4CC
100
AcDbEntity
  8
None
370
               9
390
0
  6
Continuous
 62
               7
100
AcDbCircle
 10
5.4874999999999998
 20
-11.112499999999997
 30
0.0
 40
0.2550000000000001
  0
CIRCLE
  5
4CD
100
AcDbEntity
  8
None
370
               9
390
0
  6
Continuous
 62
               7
100
AcDbCircle
 10
6.4874999999999998
 20
-11.112499999999997
 30
0.0
 40
0.2550000000000001
  0
CIRCLE
  5
4CE
100
AcDbEntity
  8
None
370
               9
390
0
  6
Continuous
 62
               7
100
AcDbCircle
 10
7.487499999999998
 20
-11.112499999999997
 30
0.0
 40
0.254999999999997
  0
CIRCLE
  5
4CF
100
AcDbEntity
  8
None
370
               9
390
0
  6
Continuous
 62
               7
100
AcDbCircle
 10
8.4874999999999972
 20
-11.112499999999997
 30
0.0
 40
0.254999999999997
  0
CIRCLE
  5
4D0
100
AcDbEntity
  8
None
370
               9
390
0
  6
Continuous
 62
               7
100
AcDbCircle
 10
9.4874999999999972
 20
-11.112499999999997
 30
0.0
 40
0.254999999999997
  0
CIRCLE
  5
4D1
100
AcDbEntity
  8
None
370
               9
390
0
  6
Continuous
 62
               7
100
AcDbCircle
 10
10.487499999999997
 20
-11.112499999999997
 30
0.0
 40
0.254999999999997
  0
CIRCLE
  5
4D2
100
AcDbEntity
  8
None
370
               9
390
0
  6
Continuous
 62
               7
100
AcDbCircle
 10
11.487499999999997
 20
-11.112499999999997
 30
0.0
 40
0.254999999999997
  0
CIRCLE
  5
4D3
100
AcDbEntity
  8
None
370
               9
390
0
  6
Continuous
 62
               7
100
AcDbCircle
 10
12.487499999999997
 20
-11.112499999999997
 30
0.0
 40
0.254999999999997
  0
CIRCLE
  5
4D4
100
AcDbEntity
  8
None
370
               9
390
0
  6
Continuous
 62
               7
100
AcDbCircle
 10
13.487499999999997
 20
-11.112499999999997
 30
0.0
 40
0.254999999999997
  0
CIRCLE
  5
4D5
100
AcDbEntity
  8
None
370
               9
390
0
  6
Continuous
 62
               7
100
AcDbCircle
 10
14.487499999999997
 20
-11.112499999999997
 30
0.0
 40
0.254999999999997
  0
CIRCLE
  5
4D6
100
AcDbEntity
  8
None
370
               9
390
0
  6
Continuous
 62
               7
100
AcDbCircle
 10
-20.512500000000003
 20
-12.112499999999997
 30
0.0
 40
0.2550000000000001
  0
CIRCLE
  5
4D7
100
AcDbEntity
  8
None
370
               9
390
0
  6
Continuous
 62
               7
100
AcDbCircle
 10
-19.512500000000003
 20
-12.112499999999997
 30
0.0
 40
0.2550000000000001
  0
CIRCLE
  5
4D8
100
AcDbEntity
  8
None
370
               9
390
0
  6
Continuous
 62
               7
100
AcDbCircle
 10
-18.512499999999999
 20
-12.112499999999997
 30
0.0
 40
0.2550000000000001
  0
CIRCLE
  5
4D9
100
AcDbEntity
  8
None
370
               9
390
0
  6
Continuous
 62
               7
100
AcDbCircle
 10
-17.512499999999999
 20
-12.112499999999997
 30
0.0
 40
0.2550000000000001
  0
CIRCLE
  5
4DA
100
AcDbEntity
  8
None
370
               9
390
0
  6
Continuous
 62
               7
100
AcDbCircle
 10
-16.512500000000003
 20
-12.112499999999997
 30
0.0
 40
0.2550000000000001
  0
CIRCLE
  5
4DB
100
AcDbEntity
  8
None
370
               9
390
0
  6
Continuous
 62
               7
100
AcDbCircle
 10
-15.512500000000006
 20
-12.112499999999997
 30
0.0
 40
0.2550000000000001
  0
CIRCLE
  5
4DC
100
AcDbEntity
  8
None
370
               9
390
0
  6
Continuous
 62
               7
100
AcDbCircle
 10
-14.51250000000001
 20
-12.112499999999997
 30
0.0
 40
0.2550000000000001
  0
CIRCLE
  5
4DD
100
AcDbEntity
  8
None
370
               9
390
0
  6
Continuous
 62
               7
100
AcDbCircle
 10
-13.512500000000017
 20
-12.112499999999997
 30
0.0
 40
0.254999999999997
  0
CIRCLE
  5
4DE
100
AcDbEntity
  8
None
370
               9
390
0
  6
Continuous
 62
               7
100
AcDbCircle
 10
-12.512500000000021
 20
-12.112499999999997
 30
0.0
 40
0.254999999999997
  0
CIRCLE
  5
4DF
100
AcDbEntity
  8
None
370
               9
390
0
  6
Continuous
 62
               7
100
AcDbCircle
 10
-11.512500000000024
 20
-12.112499999999997
 30
0.0
 40
0.254999999999997
  0
CIRCLE
  5
4E0
100
AcDbEntity
  8
None
370
               9
390
0
  6
Continuous
 62
               7
100
AcDbCircle
 10
-10.512500000000024
 20
-12.112499999999997
 30
0.0
 40
0.2550000000000001
  0
CIRCLE
  5
4E1
100
AcDbEntity
  8
None
370
               9
390
0
  6
Continuous
 62
               7
100
AcDbCircle
 10
-9.5125000000000224
 20
-12.112499999999997
 30
0.0
 40
0.2550000000000001
  0
CIRCLE
  5
4E2
100
AcDbEntity
  8
None
370
               9
390
0
  6
Continuous
 62
               7
100
AcDbCircle
 10
-8.5125000000000224
 20
-12.112499999999997
 30
0.0
 40
0.2550000000000001
  0
CIRCLE
  5
4E3
100
AcDbEntity
  8
None
370
               9
390
0
  6
Continuous
 62
               7
100
AcDbCircle
 10
-7.5125000000000224
 20
-12.112499999999997
 30
0.0
 40
0.2550000000000001
  0
CIRCLE
  5
4E4
100
AcDbEntity
  8
None
370
               9
390
0
  6
Continuous
 62
               7
100
AcDbCircle
 10
-6.5125000000000224
 20
-12.112499999999997
 30
0.0
 40
0.2550000000000001
  0
CIRCLE
  5
4E5
100
AcDbEntity
  8
None
370
               9
390
0
  6
Continuous
 62
               7
100
AcDbCircle
 10
-5.5125000000000224
 20
-12.112499999999997
 30
0.0
 40
0.2550000000000001
  0
CIRCLE
  5
4E6
100
AcDbEntity
  8
None
370
               9
390
0
  6
Continuous
 62
               7
100
AcDbCircle
 10
-4.5125000000000224
 20
-12.112499999999997
 30
0.0
 40
0.2550000000000001
  0
CIRCLE
  5
4E7
100
AcDbEntity
  8
None
370
               9
390
0
  6
Continuous
 62
               7
100
AcDbCircle
 10
-3.5125000000000228
 20
-12.112499999999997
 30
0.0
 40
0.2550000000000001
  0
CIRCLE
  5
4E8
100
AcDbEntity
  8
None
370
               9
390
0
  6
Continuous
 62
               7
100
AcDbCircle
 10
-2.5125000000000233
 20
-12.112499999999997
 30
0.0
 40
0.2550000000000001
  0
CIRCLE
  5
4E9
100
AcDbEntity
  8
None
370
               9
390
0
  6
Continuous
 62
               7
100
AcDbCircle
 10
-1.5125000000000233
 20
-12.112499999999997
 30
0.0
 40
0.2550000000000001
  0
CIRCLE
  5
4EA
100
AcDbEntity
  8
None
370
               9
390
0
  6
Continuous
 62
               7
100
AcDbCircle
 10
-0.5125000000000206
 20
-12.112499999999997
 30
0.0
 40
0.2550000000000009
  0
CIRCLE
  5
4EB
100
AcDbEntity
  8
None
370
               9
390
0
  6
Continuous
 62
               7
100
AcDbCircle
 10
0.4874999999999838
 20
-12.112499999999997
 30
0.0
 40
0.2550000000000009
  0
CIRCLE
  5
4EC
100
AcDbEntity
  8
None
370
               9
390
0
  6
Continuous
 62
               7
100
AcDbCircle
 10
1.4874999999999874
 20
-12.112499999999997
 30
0.0
 40
0.2550000000000009
  0
CIRCLE
  5
4ED
100
AcDbEntity
  8
None
370
               9
390
0
  6
Continuous
 62
               7
100
AcDbCircle
 10
2.4874999999999918
 20
-12.112499999999997
 30
0.0
 40
0.2550000000000009
  0
CIRCLE
  5
4EE
100
AcDbEntity
  8
None
370
               9
390
0
  6
Continuous
 62
               7
100
AcDbCircle
 10
3.4874999999999954
 20
-12.112499999999997
 30
0.0
 40
0.2550000000000009
  0
CIRCLE
  5
4EF
100
AcDbEntity
  8
None
370
               9
390
0
  6
Continuous
 62
               7
100
AcDbCircle
 10
4.4874999999999989
 20
-12.112499999999997
 30
0.0
 40
0.2550000000000009
  0
CIRCLE
  5
4F0
100
AcDbEntity
  8
None
370
               9
390
0
  6
Continuous
 62
               7
100
AcDbCircle
 10
5.4874999999999998
 20
-12.112499999999997
 30
0.0
 40
0.2550000000000001
  0
CIRCLE
  5
4F1
100
AcDbEntity
  8
None
370
               9
390
0
  6
Continuous
 62
               7
100
AcDbCircle
 10
6.4874999999999998
 20
-12.112499999999997
 30
0.0
 40
0.2550000000000001
  0
CIRCLE
  5
4F2
100
AcDbEntity
  8
None
370
               9
390
0
  6
Continuous
 62
               7
100
AcDbCircle
 10
7.487499999999998
 20
-12.112499999999997
 30
0.0
 40
0.254999999999997
  0
CIRCLE
  5
4F3
100
AcDbEntity
  8
None
370
               9
390
0
  6
Continuous
 62
               7
100
AcDbCircle
 10
8.4874999999999972
 20
-12.112499999999997
 30
0.0
 40
0.254999999999997
  0
CIRCLE
  5
4F4
100
AcDbEntity
  8
None
370
               9
390
0
  6
Continuous
 62
               7
100
AcDbCircle
 10
9.4874999999999972
 20
-12.112499999999997
 30
0.0
 40
0.254999999999997
  0
CIRCLE
  5
4F5
100
AcDbEntity
  8
None
370
               9
390
0
  6
Continuous
 62
               7
100
AcDbCircle
 10
10.487499999999997
 20
-12.112499999999997
 30
0.0
 40
0.254999999999997
  0
CIRCLE
  5
4F6
100
AcDbEntity
  8
None
370
               9
390
0
  6
Continuous
 62
               7
100
AcDbCircle
 10
11.487499999999997
 20
-12.112499999999997
 30
0.0
 40
0.254999999999997
  0
CIRCLE
  5
4F7
100
AcDbEntity
  8
None
370
               9
390
0
  6
Continuous
 62
               7
100
AcDbCircle
 10
12.487499999999997
 20
-12.112499999999997
 30
0.0
 40
0.254999999999997
  0
CIRCLE
  5
4F8
100
AcDbEntity
  8
None
370
               9
390
0
  6
Continuous
 62
               7
100
AcDbCircle
 10
13.487499999999997
 20
-12.112499999999997
 30
0.0
 40
0.254999999999997
  0
CIRCLE
  5
4F9
100
AcDbEntity
  8
None
370
               9
390
0
  6
Continuous
 62
               7
100
AcDbCircle
 10
14.487499999999997
 20
-12.112499999999997
 30
0.0
 40
0.254999999999997
  0
CIRCLE
  5
4FA
100
AcDbEntity
  8
None
370
               9
390
0
  6
Continuous
 62
               7
100
AcDbCircle
 10
-20.512500000000003
 20
-13.112499999999997
 30
0.0
 40
0.2550000000000001
  0
CIRCLE
  5
4FB
100
AcDbEntity
  8
None
370
               9
390
0
  6
Continuous
 62
               7
100
AcDbCircle
 10
-19.512500000000003
 20
-13.112499999999997
 30
0.0
 40
0.2550000000000001
  0
CIRCLE
  5
4FC
100
AcDbEntity
  8
None
370
               9
390
0
  6
Continuous
 62
               7
100
AcDbCircle
 10
-18.512499999999999
 20
-13.112499999999997
 30
0.0
 40
0.2550000000000001
  0
CIRCLE
  5
4FD
100
AcDbEntity
  8
None
370
               9
390
0
  6
Continuous
 62
               7
100
AcDbCircle
 10
-17.512499999999999
 20
-13.112499999999997
 30
0.0
 40
0.2550000000000001
  0
CIRCLE
  5
4FE
100
AcDbEntity
  8
None
370
               9
390
0
  6
Continuous
 62
               7
100
AcDbCircle
 10
-16.512500000000003
 20
-13.112499999999997
 30
0.0
 40
0.2550000000000001
  0
CIRCLE
  5
4FF
100
AcDbEntity
  8
None
370
               9
390
0
  6
Continuous
 62
               7
100
AcDbCircle
 10
-15.512500000000006
 20
-13.112499999999997
 30
0.0
 40
0.2550000000000001
  0
CIRCLE
  5
500
100
AcDbEntity
  8
None
370
               9
390
0
  6
Continuous
 62
               7
100
AcDbCircle
 10
-14.51250000000001
 20
-13.112499999999997
 30
0.0
 40
0.2550000000000001
  0
CIRCLE
  5
501
100
AcDbEntity
  8
None
370
               9
390
0
  6
Continuous
 62
               7
100
AcDbCircle
 10
-13.512500000000017
 20
-13.112499999999997
 30
0.0
 40
0.254999999999997
  0
CIRCLE
  5
502
100
AcDbEntity
  8
None
370
               9
390
0
  6
Continuous
 62
               7
100
AcDbCircle
 10
-12.512500000000021
 20
-13.112499999999997
 30
0.0
 40
0.254999999999997
  0
CIRCLE
  5
503
100
AcDbEntity
  8
None
370
               9
390
0
  6
Continuous
 62
               7
100
AcDbCircle
 10
-11.512500000000024
 20
-13.112499999999997
 30
0.0
 40
0.254999999999997
  0
CIRCLE
  5
504
100
AcDbEntity
  8
None
370
               9
390
0
  6
Continuous
 62
               7
100
AcDbCircle
 10
-10.512500000000024
 20
-13.112499999999997
 30
0.0
 40
0.2550000000000001
  0
CIRCLE
  5
505
100
AcDbEntity
  8
None
370
               9
390
0
  6
Continuous
 62
               7
100
AcDbCircle
 10
-9.5125000000000224
 20
-13.112499999999997
 30
0.0
 40
0.2550000000000001
  0
CIRCLE
  5
506
100
AcDbEntity
  8
None
370
               9
390
0
  6
Continuous
 62
               7
100
AcDbCircle
 10
-8.5125000000000224
 20
-13.112499999999997
 30
0.0
 40
0.2550000000000001
  0
CIRCLE
  5
507
100
AcDbEntity
  8
None
370
               9
390
0
  6
Continuous
 62
               7
100
AcDbCircle
 10
-7.5125000000000224
 20
-13.112499999999997
 30
0.0
 40
0.2550000000000001
  0
CIRCLE
  5
508
100
AcDbEntity
  8
None
370
               9
390
0
  6
Continuous
 62
               7
100
AcDbCircle
 10
-6.5125000000000224
 20
-13.112499999999997
 30
0.0
 40
0.2550000000000001
  0
CIRCLE
  5
509
100
AcDbEntity
  8
None
370
               9
390
0
  6
Continuous
 62
               7
100
AcDbCircle
 10
-5.5125000000000224
 20
-13.112499999999997
 30
0.0
 40
0.2550000000000001
  0
CIRCLE
  5
50A
100
AcDbEntity
  8
None
370
               9
390
0
  6
Continuous
 62
               7
100
AcDbCircle
 10
-4.5125000000000224
 20
-13.112499999999997
 30
0.0
 40
0.2550000000000001
  0
CIRCLE
  5
50B
100
AcDbEntity
  8
None
370
               9
390
0
  6
Continuous
 62
               7
100
AcDbCircle
 10
-3.5125000000000228
 20
-13.112499999999997
 30
0.0
 40
0.2550000000000001
  0
CIRCLE
  5
50C
100
AcDbEntity
  8
None
370
               9
390
0
  6
Continuous
 62
               7
100
AcDbCircle
 10
-2.5125000000000233
 20
-13.112499999999997
 30
0.0
 40
0.2550000000000001
  0
CIRCLE
  5
50D
100
AcDbEntity
  8
None
370
               9
390
0
  6
Continuous
 62
               7
100
AcDbCircle
 10
-1.5125000000000233
 20
-13.112499999999997
 30
0.0
 40
0.2550000000000001
  0
CIRCLE
  5
50E
100
AcDbEntity
  8
None
370
               9
390
0
  6
Continuous
 62
               7
100
AcDbCircle
 10
-0.5125000000000206
 20
-13.112499999999997
 30
0.0
 40
0.2550000000000009
  0
CIRCLE
  5
50F
100
AcDbEntity
  8
None
370
               9
390
0
  6
Continuous
 62
               7
100
AcDbCircle
 10
0.4874999999999838
 20
-13.112499999999997
 30
0.0
 40
0.2550000000000009
  0
CIRCLE
  5
510
100
AcDbEntity
  8
None
370
               9
390
0
  6
Continuous
 62
               7
100
AcDbCircle
 10
1.4874999999999874
 20
-13.112499999999997
 30
0.0
 40
0.2550000000000009
  0
CIRCLE
  5
511
100
AcDbEntity
  8
None
370
               9
390
0
  6
Continuous
 62
               7
100
AcDbCircle
 10
2.4874999999999918
 20
-13.112499999999997
 30
0.0
 40
0.2550000000000009
  0
CIRCLE
  5
512
100
AcDbEntity
  8
None
370
               9
390
0
  6
Continuous
 62
               7
100
AcDbCircle
 10
3.4874999999999954
 20
-13.112499999999997
 30
0.0
 40
0.2550000000000009
  0
CIRCLE
  5
513
100
AcDbEntity
  8
None
370
               9
390
0
  6
Continuous
 62
               7
100
AcDbCircle
 10
4.4874999999999989
 20
-13.112499999999997
 30
0.0
 40
0.2550000000000009
  0
CIRCLE
  5
514
100
AcDbEntity
  8
None
370
               9
390
0
  6
Continuous
 62
               7
100
AcDbCircle
 10
5.4874999999999998
 20
-13.112499999999997
 30
0.0
 40
0.2550000000000001
  0
CIRCLE
  5
515
100
AcDbEntity
  8
None
370
               9
390
0
  6
Continuous
 62
               7
100
AcDbCircle
 10
6.4874999999999998
 20
-13.112499999999997
 30
0.0
 40
0.2550000000000001
  0
CIRCLE
  5
516
100
AcDbEntity
  8
None
370
               9
390
0
  6
Continuous
 62
               7
100
AcDbCircle
 10
7.487499999999998
 20
-13.112499999999997
 30
0.0
 40
0.254999999999997
  0
CIRCLE
  5
517
100
AcDbEntity
  8
None
370
               9
390
0
  6
Continuous
 62
               7
100
AcDbCircle
 10
8.4874999999999972
 20
-13.112499999999997
 30
0.0
 40
0.254999999999997
  0
CIRCLE
  5
518
100
AcDbEntity
  8
None
370
               9
390
0
  6
Continuous
 62
               7
100
AcDbCircle
 10
9.4874999999999972
 20
-13.112499999999997
 30
0.0
 40
0.254999999999997
  0
CIRCLE
  5
519
100
AcDbEntity
  8
None
370
               9
390
0
  6
Continuous
 62
               7
100
AcDbCircle
 10
10.487499999999997
 20
-13.112499999999997
 30
0.0
 40
0.254999999999997
  0
CIRCLE
  5
51A
100
AcDbEntity
  8
None
370
               9
390
0
  6
Continuous
 62
               7
100
AcDbCircle
 10
11.487499999999997
 20
-13.112499999999997
 30
0.0
 40
0.254999999999997
  0
CIRCLE
  5
51B
100
AcDbEntity
  8
None
370
               9
390
0
  6
Continuous
 62
               7
100
AcDbCircle
 10
12.487499999999997
 20
-13.112499999999997
 30
0.0
 40
0.254999999999997
  0
CIRCLE
  5
51C
100
AcDbEntity
  8
None
370
               9
390
0
  6
Continuous
 62
               7
100
AcDbCircle
 10
13.487499999999997
 20
-13.112499999999997
 30
0.0
 40
0.254999999999997
  0
CIRCLE
  5
51D
100
AcDbEntity
  8
None
370
               9
390
0
  6
Continuous
 62
               7
100
AcDbCircle
 10
14.487499999999997
 20
-13.112499999999997
 30
0.0
 40
0.254999999999997
  0
CIRCLE
  5
51E
100
AcDbEntity
  8
None
370
               9
390
0
  6
Continuous
 62
               7
100
AcDbCircle
 10
-20.512500000000003
 20
-14.112499999999997
 30
0.0
 40
0.2550000000000001
  0
CIRCLE
  5
51F
100
AcDbEntity
  8
None
370
               9
390
0
  6
Continuous
 62
               7
100
AcDbCircle
 10
-19.512500000000003
 20
-14.112499999999997
 30
0.0
 40
0.2550000000000001
  0
CIRCLE
  5
520
100
AcDbEntity
  8
None
370
               9
390
0
  6
Continuous
 62
               7
100
AcDbCircle
 10
-18.512499999999999
 20
-14.112499999999997
 30
0.0
 40
0.2550000000000001
  0
CIRCLE
  5
521
100
AcDbEntity
  8
None
370
               9
390
0
  6
Continuous
 62
               7
100
AcDbCircle
 10
-17.512499999999999
 20
-14.112499999999997
 30
0.0
 40
0.2550000000000001
  0
CIRCLE
  5
522
100
AcDbEntity
  8
None
370
               9
390
0
  6
Continuous
 62
               7
100
AcDbCircle
 10
-16.512500000000003
 20
-14.112499999999997
 30
0.0
 40
0.2550000000000001
  0
CIRCLE
  5
523
100
AcDbEntity
  8
None
370
               9
390
0
  6
Continuous
 62
               7
100
AcDbCircle
 10
-15.512500000000006
 20
-14.112499999999997
 30
0.0
 40
0.2550000000000001
  0
CIRCLE
  5
524
100
AcDbEntity
  8
None
370
               9
390
0
  6
Continuous
 62
               7
100
AcDbCircle
 10
-14.51250000000001
 20
-14.112499999999997
 30
0.0
 40
0.2550000000000001
  0
CIRCLE
  5
525
100
AcDbEntity
  8
None
370
               9
390
0
  6
Continuous
 62
               7
100
AcDbCircle
 10
-13.512500000000017
 20
-14.112499999999997
 30
0.0
 40
0.254999999999997
  0
CIRCLE
  5
526
100
AcDbEntity
  8
None
370
               9
390
0
  6
Continuous
 62
               7
100
AcDbCircle
 10
-12.512500000000021
 20
-14.112499999999997
 30
0.0
 40
0.254999999999997
  0
CIRCLE
  5
527
100
AcDbEntity
  8
None
370
               9
390
0
  6
Continuous
 62
               7
100
AcDbCircle
 10
-11.512500000000024
 20
-14.112499999999997
 30
0.0
 40
0.254999999999997
  0
CIRCLE
  5
528
100
AcDbEntity
  8
None
370
               9
390
0
  6
Continuous
 62
               7
100
AcDbCircle
 10
-10.512500000000024
 20
-14.112499999999997
 30
0.0
 40
0.2550000000000001
  0
CIRCLE
  5
529
100
AcDbEntity
  8
None
370
               9
390
0
  6
Continuous
 62
               7
100
AcDbCircle
 10
-9.5125000000000224
 20
-14.112499999999997
 30
0.0
 40
0.2550000000000001
  0
CIRCLE
  5
52A
100
AcDbEntity
  8
None
370
               9
390
0
  6
Continuous
 62
               7
100
AcDbCircle
 10
-8.5125000000000224
 20
-14.112499999999997
 30
0.0
 40
0.2550000000000001
  0
CIRCLE
  5
52B
100
AcDbEntity
  8
None
370
               9
390
0
  6
Continuous
 62
               7
100
AcDbCircle
 10
-7.5125000000000224
 20
-14.112499999999997
 30
0.0
 40
0.2550000000000001
  0
CIRCLE
  5
52C
100
AcDbEntity
  8
None
370
               9
390
0
  6
Continuous
 62
               7
100
AcDbCircle
 10
-6.5125000000000224
 20
-14.112499999999997
 30
0.0
 40
0.2550000000000001
  0
CIRCLE
  5
52D
100
AcDbEntity
  8
None
370
               9
390
0
  6
Continuous
 62
               7
100
AcDbCircle
 10
-5.5125000000000224
 20
-14.112499999999997
 30
0.0
 40
0.2550000000000001
  0
CIRCLE
  5
52E
100
AcDbEntity
  8
None
370
               9
390
0
  6
Continuous
 62
               7
100
AcDbCircle
 10
-4.5125000000000224
 20
-14.112499999999997
 30
0.0
 40
0.2550000000000001
  0
CIRCLE
  5
52F
100
AcDbEntity
  8
None
370
               9
390
0
  6
Continuous
 62
               7
100
AcDbCircle
 10
-3.5125000000000228
 20
-14.112499999999997
 30
0.0
 40
0.2550000000000001
  0
CIRCLE
  5
530
100
AcDbEntity
  8
None
370
               9
390
0
  6
Continuous
 62
               7
100
AcDbCircle
 10
-2.5125000000000233
 20
-14.112499999999997
 30
0.0
 40
0.2550000000000001
  0
CIRCLE
  5
531
100
AcDbEntity
  8
None
370
               9
390
0
  6
Continuous
 62
               7
100
AcDbCircle
 10
-1.5125000000000233
 20
-14.112499999999997
 30
0.0
 40
0.2550000000000001
  0
CIRCLE
  5
532
100
AcDbEntity
  8
None
370
               9
390
0
  6
Continuous
 62
               7
100
AcDbCircle
 10
-0.5125000000000206
 20
-14.112499999999997
 30
0.0
 40
0.2550000000000009
  0
CIRCLE
  5
533
100
AcDbEntity
  8
None
370
               9
390
0
  6
Continuous
 62
               7
100
AcDbCircle
 10
0.4874999999999838
 20
-14.112499999999997
 30
0.0
 40
0.2550000000000009
  0
CIRCLE
  5
534
100
AcDbEntity
  8
None
370
               9
390
0
  6
Continuous
 62
               7
100
AcDbCircle
 10
1.4874999999999874
 20
-14.112499999999997
 30
0.0
 40
0.2550000000000009
  0
CIRCLE
  5
535
100
AcDbEntity
  8
None
370
               9
390
0
  6
Continuous
 62
               7
100
AcDbCircle
 10
2.4874999999999918
 20
-14.112499999999997
 30
0.0
 40
0.2550000000000009
  0
CIRCLE
  5
536
100
AcDbEntity
  8
None
370
               9
390
0
  6
Continuous
 62
               7
100
AcDbCircle
 10
3.4874999999999954
 20
-14.112499999999997
 30
0.0
 40
0.2550000000000009
  0
CIRCLE
  5
537
100
AcDbEntity
  8
None
370
               9
390
0
  6
Continuous
 62
               7
100
AcDbCircle
 10
4.4874999999999989
 20
-14.112499999999997
 30
0.0
 40
0.2550000000000009
  0
CIRCLE
  5
538
100
AcDbEntity
  8
None
370
               9
390
0
  6
Continuous
 62
               7
100
AcDbCircle
 10
5.4874999999999998
 20
-14.112499999999997
 30
0.0
 40
0.2550000000000001
  0
CIRCLE
  5
539
100
AcDbEntity
  8
None
370
               9
390
0
  6
Continuous
 62
               7
100
AcDbCircle
 10
6.4874999999999998
 20
-14.112499999999997
 30
0.0
 40
0.2550000000000001
  0
CIRCLE
  5
53A
100
AcDbEntity
  8
None
370
               9
390
0
  6
Continuous
 62
               7
100
AcDbCircle
 10
7.487499999999998
 20
-14.112499999999997
 30
0.0
 40
0.254999999999997
  0
CIRCLE
  5
53B
100
AcDbEntity
  8
None
370
               9
390
0
  6
Continuous
 62
               7
100
AcDbCircle
 10
8.4874999999999972
 20
-14.112499999999997
 30
0.0
 40
0.254999999999997
  0
CIRCLE
  5
53C
100
AcDbEntity
  8
None
370
               9
390
0
  6
Continuous
 62
               7
100
AcDbCircle
 10
9.4874999999999972
 20
-14.112499999999997
 30
0.0
 40
0.254999999999997
  0
CIRCLE
  5
53D
100
AcDbEntity
  8
None
370
               9
390
0
  6
Continuous
 62
               7
100
AcDbCircle
 10
10.487499999999997
 20
-14.112499999999997
 30
0.0
 40
0.254999999999997
  0
CIRCLE
  5
53E
100
AcDbEntity
  8
None
370
               9
390
0
  6
Continuous
 62
               7
100
AcDbCircle
 10
11.487499999999997
 20
-14.112499999999997
 30
0.0
 40
0.254999999999997
  0
CIRCLE
  5
53F
100
AcDbEntity
  8
None
370
               9
390
0
  6
Continuous
 62
               7
100
AcDbCircle
 10
12.487499999999997
 20
-14.112499999999997
 30
0.0
 40
0.254999999999997
  0
CIRCLE
  5
540
100
AcDbEntity
  8
None
370
               9
390
0
  6
Continuous
 62
               7
100
AcDbCircle
 10
13.487499999999997
 20
-14.112499999999997
 30
0.0
 40
0.254999999999997
  0
CIRCLE
  5
541
100
AcDbEntity
  8
None
370
               9
390
0
  6
Continuous
 62
               7
100
AcDbCircle
 10
14.487499999999997
 20
-14.112499999999997
 30
0.0
 40
0.254999999999997
  0
ENDBLK
  5
542
100
AcDbEntity
  8
None
390
0
100
AcDbBlockEnd
  0
ENDSEC
  0
SECTION
  2
ENTITIES
  0
CIRCLE
  5
543
100
AcDbEntity
  8
None
370
               9
390
0
  6
Continuous
 62
               7
100
AcDbCircle
 10
20.112499999999997
 20
-20.112499999999997
 30
0.0
 40
0.8550000000000004
  0
CIRCLE
  5
544
100
AcDbEntity
  8
None
370
              15
390
0
  6
Continuous
 62
             180
100
AcDbCircle
 10
-17.838119999999989
 20
19.74718
 30
0.0
 40
0.2500014851955921
  0
CIRCLE
  5
545
100
AcDbEntity
  8
None
370
               9
390
0
  6
Continuous
 62
               7
100
AcDbCircle
 10
-20.112499999999997
 20
-15.032499999999999
 30
0.0
 40
0.4250000000000114
  0
POLYLINE
  5
546
100
AcDbEntity
  8
None
370
               9
390
0
  6
STYLE_11
 62
               7
100
AcDb2dPolyline
 66
               1
 10
0.0
 20
0.0
 30
0.0
 70
               1
 75
               5
  0
VERTEX
  5
547
100
AcDbEntity
  8
None
370
               9
390
0
  6
STYLE_11
 62
               7
100
AcDbVertex
100
AcDb2dVertex
 10
-21.362499999999997
 20
21.362499999999997
 30
0.0
  0
VERTEX
  5
548
100
AcDbEntity
  8
None
370
               9
390
0
  6
STYLE_11
 62
               7
100
AcDbVertex
100
AcDb2dVertex
 10
21.7425
 20
21.362499999999997
 30
0.0
  0
VERTEX
  5
549
100
AcDbEntity
  8
None
370
               9
390
0
  6
STYLE_11
 62
               7
100
AcDbVertex
100
AcDb2dVertex
 10
21.7425
 20
-21.362499999999997
 30
0.0
  0
VERTEX
  5
54A
100
AcDbEntity
  8
None
370
               9
390
0
  6
STYLE_11
 62
               7
100
AcDbVertex
100
AcDb2dVertex
 10
-21.362499999999997
 20
-21.362499999999997
 30
0.0
  0
SEQEND
  5
54B
100
AcDbEntity
  8
None
370
               9
390
0
  6
STYLE_11
 62
               7
  0
CIRCLE
  5
54C
100
AcDbEntity
  8
None
370
               9
390
0
  6
Continuous
 62
               7
100
AcDbCircle
 10
-20.112499999999997
 20
-20.112499999999997
 30
0.0
 40
0.8550000000000004
  0
CIRCLE
  5
54D
100
AcDbEntity
  8
None
370
               5
390
0
  6
Continuous
 62
               7
100
AcDbCircle
 10
20.112499999999997
 20
17.572500000000005
 30
0.0
 40
0.4250000000000114
  0
CIRCLE
  5
54E
100
AcDbEntity
  8
None
370
               9
390
0
  6
Continuous
 62
               7
100
AcDbCircle
 10
-20.112499999999997
 20
20.112499999999997
 30
0.0
 40
0.8550000000000004
  0
CIRCLE
  5
54F
100
AcDbEntity
  8
None
370
               9
390
0
  6
Continuous
 62
               7
100
AcDbCircle
 10
20.112499999999997
 20
20.112499999999997
 30
0.0
 40
0.8550000000000004
  0
CIRCLE
  5
550
100
AcDbEntity
  8
None
370
               9
390
0
  6
Continuous
 62
               7
100
AcDbCircle
 10
-20.112499999999997
 20
0.0
 30
0.0
 40
0.8550000000000004
  0
CIRCLE
  5
551
100
AcDbEntity
  8
None
370
               9
390
0
  6
Continuous
 62
               7
100
AcDbCircle
 10
20.112499999999997
 20
0.0
 30
0.0
 40
0.8550000000000004
  0
CIRCLE
  5
552
100
AcDbEntity
  8
None
370
               9
390
0
  6
Continuous
 62
               7
100
AcDbCircle
 10
-0.0000000000000075
 20
20.112499999999997
 30
0.0
 40
0.8549999999999898
  0
CIRCLE
  5
553
100
AcDbEntity
  8
None
370
               9
390
0
  6
Continuous
 62
               7
100
AcDbCircle
 10
-0.0000000000000075
 20
-20.112499999999997
 30
0.0
 40
0.855000000000004
  0
LINE
  5
554
100
AcDbEntity
  8
None
370
               9
390
0
  6
Continuous
 62
               7
100
AcDbLine
 10
-21.362499999999997
 20
0.0
 30
0.0
 11
21.362499999999997
 21
0.0
 31
0.0
  0
LINE
  5
555
100
AcDbEntity
  8
None
370
               9
390
0
  6
Continuous
 62
               7
100
AcDbLine
 10
-0.0000000000000075
 20
21.362499999999997
 30
0.0
 11
-0.0000000000000075
 21
-21.362499999999997
 31
0.0
  0
INSERT
  5
556
100
AcDbEntity
  8
None
390
0
 62
               7
100
AcDbBlockReference
  2
Group
 10
3.3875000000000028
 20
-3.3875000000000028
 30
0.0
  0
ENDSEC
  0
SECTION
  2
OBJECTS
  0
DICTIONARY
  5
19
100
AcDbDictionary
280
               0
281
               1
  3
ACAD_GROUP
350
1A
  3
ACAD_MLINESTYLE
350
1B
  3
ACAD_LAYOUT
350
1E
  3
ACAD_PLOTSETTINGS
350
22
  3
ACAD_PLOTSTYLENAME
350
1F
  0
DICTIONARY
  5
1A
102
{ACAD_REACTORS
330
19
102
}
100
AcDbDictionary
280
               0
281
               1
  0
DICTIONARY
  5
1B
102
{ACAD_REACTORS
330
19
102
}
100
AcDbDictionary
280
               0
281
               1
  3
Standard
350
1C
  0
MLINESTYLE
  5
1C
102
{ACAD_REACTORS
330
1B
102
}
100
AcDbMlineStyle
  2
Standard
 70
               0
  3

 62
               0
 51
90.0
 52
90.0
 71
               2
 49
0.5
 62
             256
  6
ByLayer
 49
-0.5
 62
             256
  6
ByLayer
  0
ACDBDICTIONARYWDFLT
  5
1F
102
{ACAD_REACTORS
330
19
102
}
100
AcDbDictionary
281
               1
  3
Normal
350
1D
100
AcDbDictionaryWithDefault
340
1D
  0
ACDBPLACEHOLDER
  5
1D
102
{ACAD_REACTORS
330
1F
102
}
  0
LAYOUT
  5
20
102
{ACAD_REACTORS
330
1E
102
}
100
AcDbPlotSettings
  1

  2

  4

  6

 40
0.0
 41
0.0
 42
0.0
 43
0.0
 44
0.0
 45
0.0
 46
0.0
 47
0.0
 48
0.0
 49
0.0
140
0.0
141
0.0
142
1.0
143
1.0
 70
            1024
 72
               0
 73
               0
 74
               0
  7

 75
               0
147
1.0
148
0.0
149
0.0
100
AcDbLayout
  1
Model
 70
               0
 71
               0
 10
0.0
 20
0.0
 11
0.0
 21
0.0
 12
0.0
 22
0.0
 32
0.0
 14
0.0
 24
0.0
 34
0.0
 15
0.0
 25
0.0
 35
0.0
146
0.0
 13
0.0
 23
0.0
 33
0.0
 16
0.0
 26
0.0
 36
0.0
 17
0.0
 27
0.0
 37
0.0
 76
               0
330
A
331
0
345
0
346
0
  0
LAYOUT
  5
21
102
{ACAD_REACTORS
330
1E
102
}
100
AcDbPlotSettings
  1

  2

  4

  6

 40
0.0
 41
0.0
 42
0.0
 43
0.0
 44
0.0
 45
0.0
 46
0.0
 47
0.0
 48
0.0
 49
0.0
140
0.0
141
0.0
142
1.0
143
1.0
 70
               0
 72
               0
 73
               0
 74
               0
  7

 75
               0
147
1.0
148
0.0
149
0.0
100
AcDbLayout
  1
Layout1
 70
               0
 71
               0
 10
0.0
 20
0.0
 11
0.0
 21
0.0
 12
0.0
 22
0.0
 32
0.0
 14
0.0
 24
0.0
 34
0.0
 15
0.0
 25
0.0
 35
0.0
146
0.0
 13
0.0
 23
0.0
 33
0.0
 16
0.0
 26
0.0
 36
0.0
 17
0.0
 27
0.0
 37
0.0
 76
               0
330
B
331
0
345
0
346
0
  0
DICTIONARY
  5
1E
102
{ACAD_REACTORS
330
19
102
}
100
AcDbDictionary
280
               0
281
               1
  3
Layout1
350
21
  3
Model
350
20
  0
DICTIONARY
  5
22
102
{ACAD_REACTORS
330
19
102
}
100
AcDbDictionary
280
               0
281
               1
  0
ENDSEC
  0
EOF
