  0
SECTION
  2
HEADER
  9
$ACADVER
  1
AC1015
  9
$ACADMAINTVER
 70
     6
  9
$DWGCODEPAGE
  3
ANSI_1252
  9
$INSBASE
 10
0.0
 20
0.0
 30
0.0
  9
$EXTMIN
 10
0.0
 20
0.0
 30
0.0
  9
$EXTMAX
 10
99.7857142857
 20
77.1071428571
 30
0.0
  9
$LIMMIN
 10
0.0
 20
0.0
  9
$LIMMAX
 10
99.7857142857
 20
77.1071428571
  9
$ORTHOMODE
 70
     0
  9
$REGENMODE
 70
     1
  9
$FILLMODE
 70
     1
  9
$QTEXTMODE
 70
     0
  9
$MIRRTEXT
 70
     1
  9
$LTSCALE
 40
0.3571428571
  9
$ATTMODE
 70
     1
  9
$TEXTSIZE
 40
1.1339285714
  9
$TRACEWID
 40
1.0
  9
$TEXTSTYLE
  7
Standard
  9
$CLAYER
  8
0
  9
$CELTYPE
  6
ByLayer
  9
$CECOLOR
 62
   256
  9
$CELTSCALE
 40
1.0
  9
$DISPSILH
 70
     0
  9
$DIMSCALE
 40
1.0
  9
$DIMASZ
 40
1.1792857143
  9
$DIMEXO
 40
0.4535714286
  9
$DIMDLI
 40
3.75
  9
$DIMRND
 40
0.0
  9
$DIMDLE
 40
0.0
  9
$DIMEXE
 40
1.1339285714
  9
$DIMTP
 40
0.0
  9
$DIMTM
 40
0.0
  9
$DIMTXT
 40
1.1339285714
  9
$DIMCEN
 40
2.5
  9
$DIMTSZ
 40
0.0
  9
$DIMTOL
 70
     0
  9
$DIMLIM
 70
     0
  9
$DIMTIH
 70
     1
  9
$DIMTOH
 70
     1
  9
$DIMSE1
 70
     0
  9
$DIMSE2
 70
     0
  9
$DIMTAD
 70
     0
  9
$DIMZIN
 70
     1
  9
$DIMBLK
  1

  9
$DIMASO
 70
     1
  9
$DIMSHO
 70
     1
  9
$DIMPOST
  1

  9
$DIMAPOST
  1

  9
$DIMALT
 70
     0
  9
$DIMALTD
 70
     3
  9
$DIMALTF
 40
0.0393700787
  9
$DIMLFAC
 40
1.0
  9
$DIMTOFL
 70
     1
  9
$DIMTVP
 40
0.0
  9
$DIMTIX
 70
     0
  9
$DIMSOXD
 70
     0
  9
$DIMSAH
 70
     0
  9
$DIMBLK1
  1

  9
$DIMBLK2
  1

  9
$DIMSTYLE
  2
ISO-25
  9
$DIMCLRD
 70
     0
  9
$DIMCLRE
 70
     0
  9
$DIMCLRT
 70
     0
  9
$DIMTFAC
 40
1.0
  9
$DIMGAP
 40
0.5442857143
  9
$DIMJUST
 70
     0
  9
$DIMSD1
 70
     0
  9
$DIMSD2
 70
     0
  9
$DIMTOLJ
 70
     0
  9
$DIMTZIN
 70
     1
  9
$DIMALTZ
 70
     0
  9
$DIMALTTZ
 70
     0
  9
$DIMUPT
 70
     0
  9
$DIMDEC
 70
     4
  9
$DIMTDEC
 70
     4
  9
$DIMALTU
 70
     2
  9
$DIMALTTD
 70
     3
  9
$DIMTXSTY
  7
Standard
  9
$DIMAUNIT
 70
     0
  9
$DIMADEC
 70
     2
  9
$DIMALTRND
 40
0.0
  9
$DIMAZIN
 70
     0
  9
$DIMDSEP
 70
    44
  9
$DIMATFIT
 70
     3
  9
$DIMFRAC
 70
     0
  9
$DIMLDRBLK
  1

  9
$DIMLUNIT
 70
     2
  9
$DIMLWD
 70
    -2
  9
$DIMLWE
 70
    -2
  9
$DIMTMOVE
 70
     0
  9
$LUNITS
 70
     2
  9
$LUPREC
 70
     4
  9
$SKETCHINC
 40
1.0
  9
$FILLETRAD
 40
10.0
  9
$AUNITS
 70
     0
  9
$AUPREC
 70
     2
  9
$MENU
  1
.
  9
$ELEVATION
 40
0.0
  9
$PELEVATION
 40
0.0
  9
$THICKNESS
 40
0.0
  9
$LIMCHECK
 70
     0
  9
$CHAMFERA
 40
0.0
  9
$CHAMFERB
 40
0.0
  9
$CHAMFERC
 40
0.0
  9
$CHAMFERD
 40
0.0
  9
$SKPOLY
 70
     0
  9
$TDCREATE
 40
2457121.380488137
  9
$TDUCREATE
 40
2457121.58882147
  9
$TDUPDATE
 40
2457121.380490695
  9
$TDUUPDATE
 40
2457121.588824028
  9
$TDINDWG
 40
0.0000000116
  9
$TDUSRTIMER
 40
0.0000000116
  9
$USRTIMER
 70
     1
  9
$ANGBASE
 50
0.0
  9
$ANGDIR
 70
     0
  9
$PDMODE
 70
     0
  9
$PDSIZE
 40
-1.0
  9
$PLINEWID
 40
0.0
  9
$SPLFRAME
 70
     0
  9
$SPLINETYPE
 70
     6
  9
$SPLINESEGS
 70
     8
  9
$HANDSEED
  5
556
  9
$SURFTAB1
 70
     6
  9
$SURFTAB2
 70
     6
  9
$SURFTYPE
 70
     6
  9
$SURFU
 70
     6
  9
$SURFV
 70
     6
  9
$UCSBASE
  2

  9
$UCSNAME
  2

  9
$UCSORG
 10
0.0
 20
0.0
 30
0.0
  9
$UCSXDIR
 10
1.0
 20
0.0
 30
0.0
  9
$UCSYDIR
 10
0.0
 20
1.0
 30
0.0
  9
$UCSORTHOREF
  2

  9
$UCSORTHOVIEW
 70
     0
  9
$UCSORGTOP
 10
0.0
 20
0.0
 30
0.0
  9
$UCSORGBOTTOM
 10
0.0
 20
0.0
 30
0.0
  9
$UCSORGLEFT
 10
0.0
 20
0.0
 30
0.0
  9
$UCSORGRIGHT
 10
0.0
 20
0.0
 30
0.0
  9
$UCSORGFRONT
 10
0.0
 20
0.0
 30
0.0
  9
$UCSORGBACK
 10
0.0
 20
0.0
 30
0.0
  9
$PUCSBASE
  2

  9
$PUCSNAME
  2

  9
$PUCSORG
 10
0.0
 20
0.0
 30
0.0
  9
$PUCSXDIR
 10
1.0
 20
0.0
 30
0.0
  9
$PUCSYDIR
 10
0.0
 20
1.0
 30
0.0
  9
$PUCSORTHOREF
  2

  9
$PUCSORTHOVIEW
 70
     0
  9
$PUCSORGTOP
 10
0.0
 20
0.0
 30
0.0
  9
$PUCSORGBOTTOM
 10
0.0
 20
0.0
 30
0.0
  9
$PUCSORGLEFT
 10
0.0
 20
0.0
 30
0.0
  9
$PUCSORGRIGHT
 10
0.0
 20
0.0
 30
0.0
  9
$PUCSORGFRONT
 10
0.0
 20
0.0
 30
0.0
  9
$PUCSORGBACK
 10
0.0
 20
0.0
 30
0.0
  9
$USERI1
 70
     0
  9
$USERI2
 70
     0
  9
$USERI3
 70
     0
  9
$USERI4
 70
     0
  9
$USERI5
 70
     0
  9
$USERR1
 40
0.0
  9
$USERR2
 40
0.0
  9
$USERR3
 40
0.0
  9
$USERR4
 40
0.0
  9
$USERR5
 40
0.0
  9
$WORLDVIEW
 70
     1
  9
$SHADEDGE
 70
     3
  9
$SHADEDIF
 70
    70
  9
$TILEMODE
 70
     1
  9
$MAXACTVP
 70
    64
  9
$PINSBASE
 10
0.0
 20
0.0
 30
0.0
  9
$PLIMCHECK
 70
     0
  9
$PEXTMIN
 10
1.0000000000E+20
 20
1.0000000000E+20
 30
1.0000000000E+20
  9
$PEXTMAX
 10
-1.0000000000E+20
 20
-1.0000000000E+20
 30
-1.0000000000E+20
  9
$PLIMMIN
 10
0.0
 20
0.0
  9
$PLIMMAX
 10
420.0
 20
297.0
  9
$UNITMODE
 70
     0
  9
$VISRETAIN
 70
     1
  9
$PLINEGEN
 70
     0
  9
$PSLTSCALE
 70
     1
  9
$TREEDEPTH
 70
  3020
  9
$CMLSTYLE
  2
Standard
  9
$CMLJUST
 70
     0
  9
$CMLSCALE
 40
20.0
  9
$PROXYGRAPHICS
 70
     1
  9
$MEASUREMENT
 70
     1
  9
$CELWEIGHT
370
    -1
  9
$ENDCAPS
280
     0
  9
$JOINSTYLE
280
     0
  9
$LWDISPLAY
290
     1
  9
$INSUNITS
 70
     4
  9
$HYPERLINKBASE
  1

  9
$STYLESHEET
  1

  9
$XEDIT
290
     1
  9
$CEPSNTYPE
380
     0
  9
$PSTYLEMODE
290
     1
  9
$FINGERPRINTGUID
  2
{63BEA3AB-6A44-4419-9C1C-AB99F27DE23C}
  9
$VERSIONGUID
  2
{FAEB1C32-E019-11D5-929B-00C0DF256EC4}
  9
$EXTNAMES
290
     1
  9
$PSVPSCALE
 40
0.0
  9
$OLESTARTUP
290
     0
  0
ENDSEC
  0
SECTION
  2
CLASSES
  0
CLASS
  1
ACDBDICTIONARYWDFLT
  2
AcDbDictionaryWithDefault
  3
ObjectDBX Classes
 90
        0
280
     0
281
     0
  0
CLASS
  1
VISUALSTYLE
  2
AcDbVisualStyle
  3
ObjectDBX Classes
 90
     4095
280
     0
281
     0
  0
CLASS
  1
MATERIAL
  2
AcDbMaterial
  3
ObjectDBX Classes
 90
     1153
280
     0
281
     0
  0
CLASS
  1
SCALE
  2
AcDbScale
  3
ObjectDBX Classes
 90
     1153
280
     0
281
     0
  0
CLASS
  1
SUN
  2
AcDbSun
  3
SCENEOE
 90
     1153
280
     0
281
     0
  0
CLASS
  1
ACDBPLACEHOLDER
  2
AcDbPlaceHolder
  3
ObjectDBX Classes
 90
        0
280
     0
281
     0
  0
CLASS
  1
LAYOUT
  2
AcDbLayout
  3
ObjectDBX Classes
 90
        0
280
     0
281
     0
  0
ENDSEC
  0
SECTION
  2
TABLES
  0
TABLE
  2
VPORT
  5
8
330
0
100
AcDbSymbolTable
 70
     1
  0
VPORT
  5
29
330
8
100
AcDbSymbolTableRecord
100
AcDbViewportTableRecord
  2
*Active
 70
     0
 10
0.0
 20
0.0
 11
1.0
 21
1.0
 12
49.8928571429
 22
38.5535714286
 13
0.0
 23
0.0
 14
10.0
 24
10.0
 15
10.0
 25
10.0
 16
0.0
 26
0.0
 36
1.0
 17
0.0
 27
0.0
 37
0.0
 40
77.1071428571
 41
1.2941176471
 42
50.0
 43
0.0
 44
0.0
 50
0.0
 51
0.0
 71
     0
 72
  2000
 73
     1
 74
     3
 75
     0
 76
     0
 77
     0
 78
     0
281
     0
 65
     1
110
0.0
120
0.0
130
0.0
111
1.0
121
0.0
131
0.0
112
0.0
122
1.0
132
0.0
 79
     0
146
0.0
  0
ENDTAB
  0
TABLE
  2
LTYPE
  5
5
330
0
100
AcDbSymbolTable
 70
     6
  0
LTYPE
  5
14
330
5
100
AcDbSymbolTableRecord
100
AcDbLinetypeTableRecord
  2
ByBlock
 70
     0
  3

 72
    65
 73
     0
 40
0.0
  0
LTYPE
  5
15
330
5
100
AcDbSymbolTableRecord
100
AcDbLinetypeTableRecord
  2
ByLayer
 70
     0
  3

 72
    65
 73
     0
 40
0.0
  0
LTYPE
  5
16
330
5
100
AcDbSymbolTableRecord
100
AcDbLinetypeTableRecord
  2
Continuous
 70
     0
  3
Solid line
 72
    65
 73
     0
 40
0.0
  0
LTYPE
  5
6A
330
5
100
AcDbSymbolTableRecord
100
AcDbLinetypeTableRecord
  2
HIDDEN
 70
     0
  3
Hidden __ __ __ __ __ __ __ __ __ __ __ __ __ __
 72
    65
 73
     2
 40
1.905
 49
1.27
 74
     0
 49
-0.635
 74
     0
  0
LTYPE
  5
6B
330
5
100
AcDbSymbolTableRecord
100
AcDbLinetypeTableRecord
  2
PHANTOM
 70
     0
  3
Phantom ______  __  __  ______  __  __  ______
 72
    65
 73
     6
 40
12.7
 49
6.35
 74
     0
 49
-1.27
 74
     0
 49
1.27
 74
     0
 49
-1.27
 74
     0
 49
1.27
 74
     0
 49
-1.27
 74
     0
  0
LTYPE
  5
6C
330
5
100
AcDbSymbolTableRecord
100
AcDbLinetypeTableRecord
  2
CENTER
 70
     0
  3
Center ____ _ ____ _ ____ _ ____ _ ____ _ ____
 72
    65
 73
     4
 40
10.16
 49
6.35
 74
     0
 49
-1.27
 74
     0
 49
1.27
 74
     0
 49
-1.27
 74
     0
  0
LTYPE
  5
6D
330
5
100
AcDbSymbolTableRecord
100
AcDbLinetypeTableRecord
  2
CENTERX2
 70
     0
  3
Center (2x) ________  __  ________  __  _____
 72
    65
 73
     4
 40
20.32
 49
12.7
 74
     0
 49
-2.54
 74
     0
 49
2.54
 74
     0
 49
-2.54
 74
     0
  0
LTYPE
  5
6E
330
5
100
AcDbSymbolTableRecord
100
AcDbLinetypeTableRecord
  2
DOT2
 70
     0
  3
Dot (.5x) ........................................
 72
    65
 73
     2
 40
0.635
 49
0.0
 74
     0
 49
-0.635
 74
     0
  0
ENDTAB
  0
TABLE
  2
LAYER
  5
2
330
0
100
AcDbSymbolTable
 70
    21
  0
LAYER
  5
10
330
2
100
AcDbSymbolTableRecord
100
AcDbLayerTableRecord
  2
0
 70
     0
 62
     7
  6
Continuous
370
    -3
390
F
  0
LAYER
  5
6F
330
2
100
AcDbSymbolTableRecord
100
AcDbLayerTableRecord
  2
FORMAT
 70
     0
 62
     7
  6
Continuous
370
    -3
390
F
  0
LAYER
  5
70
330
2
100
AcDbSymbolTableRecord
100
AcDbLayerTableRecord
  2
SLD-0
 70
     0
 62
  -179
  6
Continuous
370
    -3
390
F
  0
LAYER
  5
71
330
2
100
AcDbSymbolTableRecord
100
AcDbLayerTableRecord
  2
SLD-DEFPOINTS
 70
     0
 62
  -179
  6
Continuous
370
    -3
390
F
  0
LAYER
  5
72
330
2
100
AcDbSymbolTableRecord
100
AcDbLayerTableRecord
  2
NONE
 70
     0
 62
   179
  6
Continuous
370
    -3
390
F
  0
LAYER
  5
73
330
2
100
AcDbSymbolTableRecord
100
AcDbLayerTableRecord
  2
DIMENSION
 70
     0
 62
   179
  6
Continuous
370
    -3
390
F
  0
LAYER
  5
74
330
2
100
AcDbSymbolTableRecord
100
AcDbLayerTableRecord
  2
SOLID_LINES
 70
     0
 62
  -179
  6
Continuous
370
    15
390
F
  0
LAYER
  5
75
330
2
100
AcDbSymbolTableRecord
100
AcDbLayerTableRecord
  2
PAGE_FRAME
 70
     0
 62
   179
  6
Continuous
370
    -3
390
F
  0
LAYER
  5
76
330
2
100
AcDbSymbolTableRecord
100
AcDbLayerTableRecord
  2
LAYOUT
 70
     0
 62
   179
  6
Continuous
370
    -3
390
F
  0
LAYER
  5
77
330
2
100
AcDbSymbolTableRecord
100
AcDbLayerTableRecord
  2
LINE
 70
     0
 62
     5
  6
Continuous
370
    -3
390
F
  0
LAYER
  5
78
330
2
100
AcDbSymbolTableRecord
100
AcDbLayerTableRecord
  2
DIM
 70
     0
 62
     4
  6
Continuous
370
    -3
390
F
  0
LAYER
  5
79
330
2
100
AcDbSymbolTableRecord
100
AcDbLayerTableRecord
  2
CENTER
 70
     0
 62
     6
  6
CENTER
370
    -3
390
F
  0
LAYER
  5
7A
330
2
100
AcDbSymbolTableRecord
100
AcDbLayerTableRecord
  2
CU-TOP
 70
     0
 62
     2
  6
PHANTOM
370
    -3
390
F
  0
LAYER
  5
7B
330
2
100
AcDbSymbolTableRecord
100
AcDbLayerTableRecord
  2
LF
 70
     0
 62
     9
  6
Continuous
370
    -3
390
F
  0
LAYER
  5
7C
330
2
100
AcDbSymbolTableRecord
100
AcDbLayerTableRecord
  2
BALL_NUMBER
 70
     0
 62
   179
  6
Continuous
370
    -3
390
F
  0
LAYER
  5
7D
330
2
100
AcDbSymbolTableRecord
100
AcDbLayerTableRecord
  2
LET
 70
     0
 62
   179
  6
Continuous
370
    -3
390
F
  0
LAYER
  5
7E
330
2
100
AcDbSymbolTableRecord
100
AcDbLayerTableRecord
  2
PKG
 70
     0
 62
   179
  6
Continuous
370
    -3
390
F
  0
LAYER
  5
7F
330
2
100
AcDbSymbolTableRecord
100
AcDbLayerTableRecord
  2
BALL
 70
     0
 62
   179
  6
Continuous
370
    -3
390
F
  0
LAYER
  5
80
330
2
100
AcDbSymbolTableRecord
100
AcDbLayerTableRecord
  2
BALL_OUTER
 70
     0
 62
   179
  6
Continuous
370
    -3
390
F
  0
LAYER
  5
81
330
2
100
AcDbSymbolTableRecord
100
AcDbLayerTableRecord
  2
CUSTOMER
 70
     0
 62
  -179
  6
Continuous
370
    -3
390
F
  0
LAYER
  5
82
330
2
100
AcDbSymbolTableRecord
100
AcDbLayerTableRecord
  2
BALLNUMBER
 70
     0
 62
    21
  6
Continuous
370
    15
390
F
  0
ENDTAB
  0
TABLE
  2
STYLE
  5
3
330
0
100
AcDbSymbolTable
 70
     2
  0
STYLE
  5
11
330
3
100
AcDbSymbolTableRecord
100
AcDbTextStyleTableRecord
  2
Standard
 70
     0
 40
0.0
 41
1.0
 50
0.0
 71
     0
 42
1.1339285714
  3
txt
  4

  0
STYLE
  5
97
330
3
100
AcDbSymbolTableRecord
100
AcDbTextStyleTableRecord
  2
SLDTEXTSTYLE0
 70
     0
 40
0.0
 41
0.605
 50
0.0
 71
     0
 42
1.1339285714
  3
TXT
  4

  0
ENDTAB
  0
TABLE
  2
VIEW
  5
6
330
0
100
AcDbSymbolTable
 70
     0
  0
ENDTAB
  0
TABLE
  2
UCS
  5
7
330
0
100
AcDbSymbolTable
 70
     0
  0
ENDTAB
  0
TABLE
  2
APPID
  5
9
330
0
100
AcDbSymbolTable
 70
     1
  0
APPID
  5
12
330
9
100
AcDbSymbolTableRecord
100
AcDbRegAppTableRecord
  2
ACAD
 70
     0
  0
ENDTAB
  0
TABLE
  2
DIMSTYLE
  5
A
330
0
100
AcDbSymbolTable
 70
     1
100
AcDbDimStyleTable
  0
DIMSTYLE
105
27
330
A
100
AcDbSymbolTableRecord
100
AcDbDimStyleTableRecord
  2
ISO-25
 70
     0
 41
2.5
 42
0.625
 43
3.75
 44
1.25
 73
     0
 74
     0
 77
     1
 78
     8
140
2.5
141
2.5
143
0.0393700787
147
0.625
171
     3
172
     1
178
     0
271
     2
272
     2
274
     3
278
    44
283
     0
284
     8
340
11
  0
ENDTAB
  0
TABLE
  2
BLOCK_RECORD
  5
1
330
0
100
AcDbSymbolTable
 70
     2
  0
BLOCK_RECORD
  5
1F
330
1
100
AcDbSymbolTableRecord
100
AcDbBlockTableRecord
  2
*Model_Space
340
22
  0
BLOCK_RECORD
  5
1B
330
1
100
AcDbSymbolTableRecord
100
AcDbBlockTableRecord
  2
*Paper_Space
340
1E
  0
BLOCK_RECORD
  5
23
330
1
100
AcDbSymbolTableRecord
100
AcDbBlockTableRecord
  2
*Paper_Space0
340
26
  0
BLOCK_RECORD
  5
534
330
1
100
AcDbSymbolTableRecord
100
AcDbBlockTableRecord
  2
SW_CENTERMARKSYMBOL_0
340
0
102
{BLKREFS
331
555
102
}
  0
ENDTAB
  0
ENDSEC
  0
SECTION
  2
BLOCKS
  0
BLOCK
  5
20
330
1F
100
AcDbEntity
  8
0
100
AcDbBlockBegin
  2
*Model_Space
 70
     0
 10
0.0
 20
0.0
 30
0.0
  3
*Model_Space
  1
*Model_Space
  0
ENDBLK
  5
21
330
1F
100
AcDbEntity
  8
0
100
AcDbBlockEnd
  0
BLOCK
  5
1C
330
1B
100
AcDbEntity
 67
     1
  8
0
100
AcDbBlockBegin
  2
*Paper_Space
 70
     0
 10
0.0
 20
0.0
 30
0.0
  3
*Paper_Space
  1
*Paper_Space
  0
ENDBLK
  5
1D
330
1B
100
AcDbEntity
 67
     1
  8
0
100
AcDbBlockEnd
  0
BLOCK
  5
24
330
23
100
AcDbEntity
  8
0
100
AcDbBlockBegin
  2
*Paper_Space0
 70
     0
 10
0.0
 20
0.0
 30
0.0
  3
*Paper_Space0
  1
*Paper_Space0
  0
ENDBLK
  5
25
330
23
100
AcDbEntity
  8
0
100
AcDbBlockEnd
  0
BLOCK
  5
535
330
534
100
AcDbEntity
  8
0
100
AcDbBlockBegin
  2
SW_CENTERMARKSYMBOL_0
 70
     0
 10
0.0
 20
0.0
 30
0.0
  3
SW_CENTERMARKSYMBOL_0
  1
SW_CENTERMARKSYMBOL_0
  0
LINE
  5
537
330
534
100
AcDbEntity
  8
DIMENSION
 62
     0
100
AcDbLine
 10
0.0
 20
0.0
 30
0.0
 11
0.0
 21
0.5
 31
0.0
  0
LINE
  5
538
330
534
100
AcDbEntity
  8
DIMENSION
 62
     0
100
AcDbLine
 10
0.0
 20
0.0
 30
0.0
 11
-0.5
 21
0.0
 31
0.0
  0
LINE
  5
539
330
534
100
AcDbEntity
  8
DIMENSION
 62
     0
100
AcDbLine
 10
0.0
 20
0.0
 30
0.0
 11
0.0
 21
-0.5
 31
0.0
  0
LINE
  5
53A
330
534
100
AcDbEntity
  8
DIMENSION
 62
     0
100
AcDbLine
 10
0.0
 20
0.0
 30
0.0
 11
0.5
 21
0.0
 31
0.0
  0
LINE
  5
53B
330
534
100
AcDbEntity
  8
DIMENSION
 62
     0
100
AcDbLine
 10
18.725
 20
0.0
 30
0.0
 11
18.725
 21
0.5
 31
0.0
  0
LINE
  5
53C
330
534
100
AcDbEntity
  8
DIMENSION
 62
     0
100
AcDbLine
 10
18.725
 20
0.0
 30
0.0
 11
18.225
 21
0.0
 31
0.0
  0
LINE
  5
53D
330
534
100
AcDbEntity
  8
DIMENSION
 62
     0
100
AcDbLine
 10
18.725
 20
0.0
 30
0.0
 11
18.725
 21
-0.5
 31
0.0
  0
LINE
  5
53E
330
534
100
AcDbEntity
  8
DIMENSION
 62
     0
100
AcDbLine
 10
18.725
 20
0.0
 30
0.0
 11
19.225
 21
0.0
 31
0.0
  0
LINE
  5
53F
330
534
100
AcDbEntity
  8
DIMENSION
 62
     0
100
AcDbLine
 10
18.725
 20
-2.54
 30
0.0
 11
18.725
 21
-2.04
 31
0.0
  0
LINE
  5
540
330
534
100
AcDbEntity
  8
DIMENSION
 62
     0
100
AcDbLine
 10
18.725
 20
-2.54
 30
0.0
 11
18.225
 21
-2.54
 31
0.0
  0
LINE
  5
541
330
534
100
AcDbEntity
  8
DIMENSION
 62
     0
100
AcDbLine
 10
18.725
 20
-2.54
 30
0.0
 11
18.725
 21
-3.04
 31
0.0
  0
LINE
  5
542
330
534
100
AcDbEntity
  8
DIMENSION
 62
     0
100
AcDbLine
 10
18.725
 20
-2.54
 30
0.0
 11
19.225
 21
-2.54
 31
0.0
  0
LINE
  5
543
330
534
100
AcDbEntity
  8
DIMENSION
 62
     0
100
AcDbLine
 10
18.725
 20
-18.725
 30
0.0
 11
18.725
 21
-18.225
 31
0.0
  0
LINE
  5
544
330
534
100
AcDbEntity
  8
DIMENSION
 62
     0
100
AcDbLine
 10
18.725
 20
-18.725
 30
0.0
 11
18.225
 21
-18.725
 31
0.0
  0
LINE
  5
545
330
534
100
AcDbEntity
  8
DIMENSION
 62
     0
100
AcDbLine
 10
18.725
 20
-18.725
 30
0.0
 11
18.725
 21
-19.225
 31
0.0
  0
LINE
  5
546
330
534
100
AcDbEntity
  8
DIMENSION
 62
     0
100
AcDbLine
 10
18.725
 20
-18.725
 30
0.0
 11
19.225
 21
-18.725
 31
0.0
  0
LINE
  5
547
330
534
100
AcDbEntity
  8
DIMENSION
 62
     0
100
AcDbLine
 10
0.0
 20
-18.725
 30
0.0
 11
0.0
 21
-18.225
 31
0.0
  0
LINE
  5
548
330
534
100
AcDbEntity
  8
DIMENSION
 62
     0
100
AcDbLine
 10
0.0
 20
-18.725
 30
0.0
 11
-0.5
 21
-18.725
 31
0.0
  0
LINE
  5
549
330
534
100
AcDbEntity
  8
DIMENSION
 62
     0
100
AcDbLine
 10
0.0
 20
-18.725
 30
0.0
 11
0.0
 21
-19.225
 31
0.0
  0
LINE
  5
54A
330
534
100
AcDbEntity
  8
DIMENSION
 62
     0
100
AcDbLine
 10
0.0
 20
-18.725
 30
0.0
 11
0.5
 21
-18.725
 31
0.0
  0
LINE
  5
54B
330
534
100
AcDbEntity
  8
DIMENSION
 62
     0
100
AcDbLine
 10
0.0
 20
-13.645
 30
0.0
 11
0.0
 21
-13.145
 31
0.0
  0
LINE
  5
54C
330
534
100
AcDbEntity
  8
DIMENSION
 62
     0
100
AcDbLine
 10
0.0
 20
-13.645
 30
0.0
 11
-0.5
 21
-13.645
 31
0.0
  0
LINE
  5
54D
330
534
100
AcDbEntity
  8
DIMENSION
 62
     0
100
AcDbLine
 10
0.0
 20
-13.645
 30
0.0
 11
0.0
 21
-14.145
 31
0.0
  0
LINE
  5
54E
330
534
100
AcDbEntity
  8
DIMENSION
 62
     0
100
AcDbLine
 10
0.0
 20
-13.645
 30
0.0
 11
0.5
 21
-13.645
 31
0.0
  0
LINE
  5
54F
330
534
100
AcDbEntity
  8
DIMENSION
 62
     0
100
AcDbLine
 10
1.0
 20
0.0
 30
0.0
 11
17.725
 21
0.0
 31
0.0
  0
LINE
  5
550
330
534
100
AcDbEntity
  8
DIMENSION
 62
     0
100
AcDbLine
 10
18.725
 20
-1.54
 30
0.0
 11
18.725
 21
-1.0
 31
0.0
  0
LINE
  5
551
330
534
100
AcDbEntity
  8
DIMENSION
 62
     0
100
AcDbLine
 10
18.725
 20
-17.725
 30
0.0
 11
18.725
 21
-3.54
 31
0.0
  0
LINE
  5
552
330
534
100
AcDbEntity
  8
DIMENSION
 62
     0
100
AcDbLine
 10
1.0
 20
-18.725
 30
0.0
 11
17.725
 21
-18.725
 31
0.0
  0
LINE
  5
553
330
534
100
AcDbEntity
  8
DIMENSION
 62
     0
100
AcDbLine
 10
0.0
 20
-17.725
 30
0.0
 11
0.0
 21
-14.645
 31
0.0
  0
LINE
  5
554
330
534
100
AcDbEntity
  8
DIMENSION
 62
     0
100
AcDbLine
 10
0.0
 20
-12.645
 30
0.0
 11
0.0
 21
-1.0
 31
0.0
  0
ENDBLK
  5
536
330
534
100
AcDbEntity
  8
0
100
AcDbBlockEnd
  0
ENDSEC
  0
SECTION
  2
ENTITIES
  0
LINE
  5
83
330
1F
100
AcDbEntity
  8
LAYOUT
100
AcDbLine
 10
69.1416374857
 20
20.0476481261
 30
0.0
 11
72.8735134389
 21
20.0476481261
 31
0.0
  0
LINE
  5
84
330
1F
100
AcDbEntity
  8
LAYOUT
100
AcDbLine
 10
69.1983984199
 20
23.4272165509
 30
0.0
 11
72.9302743731
 21
23.4272165509
 31
0.0
  0
LINE
  5
85
330
1F
100
AcDbEntity
  8
LAYOUT
100
AcDbLine
 10
69.1983984199
 20
23.4272165509
 30
0.0
 11
69.1983984199
 21
21.3746847766
 31
0.0
  0
LINE
  5
86
330
1F
100
AcDbEntity
  8
LAYOUT
100
AcDbLine
 10
69.1983984199
 20
21.3746847766
 30
0.0
 11
72.9302743731
 21
21.3746847766
 31
0.0
  0
LINE
  5
87
330
1F
100
AcDbEntity
  8
LAYOUT
100
AcDbLine
 10
72.9302743731
 20
23.4272165509
 30
0.0
 11
72.9302743731
 21
21.3746847766
 31
0.0
  0
LINE
  5
88
330
1F
100
AcDbEntity
  8
LAYOUT
100
AcDbLine
 10
69.1416374857
 20
20.0476481261
 30
0.0
 11
69.1416374857
 21
17.9951163519
 31
0.0
  0
LINE
  5
89
330
1F
100
AcDbEntity
  8
LAYOUT
100
AcDbLine
 10
69.1416374857
 20
17.9951163519
 30
0.0
 11
72.8735134389
 21
17.9951163519
 31
0.0
  0
LINE
  5
8A
330
1F
100
AcDbEntity
  8
LAYOUT
100
AcDbLine
 10
72.8735134389
 20
20.0476481261
 30
0.0
 11
72.8735134389
 21
17.9951163519
 31
0.0
  0
LINE
  5
8B
330
1F
100
AcDbEntity
  8
LAYOUT
100
AcDbLine
 10
69.1699933471
 20
16.6765604195
 30
0.0
 11
72.9018693003
 21
16.6765604195
 31
0.0
  0
LINE
  5
8C
330
1F
100
AcDbEntity
  8
LAYOUT
100
AcDbLine
 10
69.1699933471
 20
16.6765604195
 30
0.0
 11
69.1699933471
 21
14.6240286452
 31
0.0
  0
LINE
  5
8D
330
1F
100
AcDbEntity
  8
LAYOUT
100
AcDbLine
 10
69.1699933471
 20
14.6240286452
 30
0.0
 11
72.9018693003
 21
14.6240286452
 31
0.0
  0
LINE
  5
8E
330
1F
100
AcDbEntity
  8
LAYOUT
100
AcDbLine
 10
72.9018693003
 20
16.6765604195
 30
0.0
 11
72.9018693003
 21
14.6240286452
 31
0.0
  0
LINE
  5
8F
330
1F
100
AcDbEntity
  8
LAYOUT
100
AcDbLine
 10
69.1378123639
 20
12.9398360422
 30
0.0
 11
72.8696883171
 21
12.9398360422
 31
0.0
  0
LINE
  5
90
330
1F
100
AcDbEntity
  8
LAYOUT
100
AcDbLine
 10
69.1378123639
 20
12.9398360422
 30
0.0
 11
69.1378123639
 21
10.8873042679
 31
0.0
  0
LINE
  5
91
330
1F
100
AcDbEntity
  8
LAYOUT
100
AcDbLine
 10
69.1378123639
 20
10.8873042679
 30
0.0
 11
72.8696883171
 21
10.8873042679
 31
0.0
  0
LINE
  5
92
330
1F
100
AcDbEntity
  8
LAYOUT
100
AcDbLine
 10
72.8696883171
 20
12.9398360422
 30
0.0
 11
72.8696883171
 21
10.8873042679
 31
0.0
  0
HATCH
  5
93
330
1F
100
AcDbEntity
  8
LAYOUT
 62
   179
100
AcDbHatch
 10
0.0
 20
0.0
 30
0.0
210
0.0
220
0.0
230
1.0
  2
ANSI31
 70
     0
 71
     0
 91
        1
 92
        0
 93
        4
 72
     1
 10
72.93027437310995
 20
23.42721655085723
 11
72.93027437310995
 21
21.37468477658169
 72
     1
 10
72.93027437310995
 20
21.37468477658169
 11
69.19839841988166
 21
21.37468477658169
 72
     1
 10
69.19839841988166
 20
21.37468477658169
 11
69.19839841988166
 21
23.42721655085723
 72
     1
 10
69.19839841988166
 20
23.42721655085723
 11
72.93027437310995
 21
23.42721655085723
 97
        0
 75
     0
 76
     1
 52
0.0
 41
0.125
 77
     0
 78
     1
 53
45.0
 43
0.0
 44
0.0
 45
-0.280633003783411
 46
0.2806330037834111
 79
     0
 98
        1
 10
0.0
 20
0.0
  0
HATCH
  5
94
330
1F
100
AcDbEntity
  8
LAYOUT
 62
   179
100
AcDbHatch
 10
0.0
 20
0.0
 30
0.0
210
0.0
220
0.0
230
1.0
  2
ANSI31
 70
     0
 71
     0
 91
        1
 92
        0
 93
        4
 72
     1
 10
72.87351343892017
 20
20.04764812613794
 11
72.87351343892017
 21
17.9951163518624
 72
     1
 10
72.87351343892017
 20
17.9951163518624
 11
69.14163748569189
 21
17.9951163518624
 72
     1
 10
69.14163748569189
 20
17.9951163518624
 11
69.14163748569189
 21
20.04764812613794
 72
     1
 10
69.14163748569189
 20
20.04764812613794
 11
72.87351343892017
 21
20.04764812613794
 97
        0
 75
     0
 76
     1
 52
-90.0
 41
0.125
 77
     0
 78
     1
 53
-45.00000000000019
 43
0.0
 44
0.0
 45
0.280633003783412
 46
0.2806330037834101
 79
     0
 98
        1
 10
0.0
 20
0.0
  0
HATCH
  5
95
330
1F
100
AcDbEntity
  8
LAYOUT
 62
   179
100
AcDbHatch
 10
0.0
 20
0.0
 30
0.0
210
0.0
220
0.0
230
1.0
  2
ANSI31
 70
     0
 71
     0
 91
        1
 92
        0
 93
        4
 72
     1
 10
72.9018693003458
 20
16.67656041952282
 11
72.9018693003458
 21
14.62402864524726
 72
     1
 10
72.9018693003458
 20
14.62402864524726
 11
69.1699933471175
 21
14.62402864524726
 72
     1
 10
69.1699933471175
 20
14.62402864524726
 11
69.1699933471175
 21
16.67656041952282
 72
     1
 10
69.1699933471175
 20
16.67656041952282
 11
72.9018693003458
 21
16.67656041952282
 97
        0
 75
     0
 76
     1
 52
0.0
 41
0.0625
 77
     0
 78
     1
 53
45.0
 43
0.0
 44
0.0
 45
-0.1403165018917055
 46
0.1403165018917055
 79
     0
 98
        1
 10
0.0
 20
0.0
  0
HATCH
  5
96
330
1F
100
AcDbEntity
  8
LAYOUT
 62
   179
100
AcDbHatch
 10
0.0
 20
0.0
 30
0.0
210
0.0
220
0.0
230
1.0
  2
DOTS
 70
     0
 71
     0
 91
        1
 92
        0
 93
        4
 72
     1
 10
72.86968831710804
 20
12.93983604215764
 11
72.86968831710804
 21
10.88730426788208
 72
     1
 10
72.86968831710804
 20
10.88730426788208
 11
69.13781236387975
 21
10.88730426788208
 72
     1
 10
69.13781236387975
 20
10.88730426788208
 11
69.13781236387975
 21
12.93983604215764
 72
     1
 10
69.13781236387975
 20
12.93983604215764
 11
72.86968831710804
 21
12.93983604215764
 97
        0
 75
     0
 76
     1
 52
0.0
 41
0.125
 77
     0
 78
     1
 53
0.0
 43
0.0
 44
0.0
 45
0.09921875
 46
0.1984375
 79
     2
 49
0.0
 49
-0.1984375
 98
        1
 10
0.0
 20
0.0
  0
MTEXT
  5
98
330
1F
100
AcDbEntity
  8
LAYOUT
100
AcDbMText
 10
73.6975161413
 20
22.8663256411
 30
0.0
 40
0.8504464286
 41
0.0
 71
     1
 72
     1
  1
Max Component Ht. 13.2mm
  7
SLDTEXTSTYLE0
 73
     1
 44
1.0
  0
MTEXT
  5
99
330
1F
100
AcDbEntity
  8
LAYOUT
100
AcDbMText
 10
73.6975161413
 20
19.427076883
 30
0.0
 40
0.8504464286
 41
0.0
 71
     1
 72
     1
  1
Max Component Ht. 1.6mm
  7
SLDTEXTSTYLE0
 73
     1
 44
1.0
  0
MTEXT
  5
9A
330
1F
100
AcDbEntity
  8
LAYOUT
100
AcDbMText
 10
73.6975161413
 20
16.2906257081
 30
0.0
 40
0.8504464286
 41
0.0
 71
     1
 72
     1
  1
Max Component Ht. 0.5mm--close latch
  7
SLDTEXTSTYLE0
 73
     1
 44
1.0
  0
MTEXT
  5
9B
330
1F
100
AcDbEntity
  8
LAYOUT
100
AcDbMText
 10
73.6975161413
 20
12.5357585231
 30
0.0
 40
0.8504464286
 41
0.0
 71
     1
 72
     1
  1
Max Component Ht. 1.4mm--open latch
  7
SLDTEXTSTYLE0
 73
     1
 44
1.0
  0
CIRCLE
  5
9C
330
1F
100
AcDbEntity
  8
0
  6
Continuous
 62
     7
370
     0
100
AcDbCircle
 10
41.5243459846
 20
44.3701106175
 30
0.0
 40
0.144999999999996
  0
CIRCLE
  5
9D
330
1F
100
AcDbEntity
  8
0
  6
Continuous
 62
     7
370
     0
100
AcDbCircle
 10
43.0243459846
 20
44.3701106175
 30
0.0
 40
0.144999999999996
  0
CIRCLE
  5
9E
330
1F
100
AcDbEntity
  8
0
  6
Continuous
 62
     7
370
     0
100
AcDbCircle
 10
43.5243459846
 20
44.3701106175
 30
0.0
 40
0.144999999999996
  0
CIRCLE
  5
9F
330
1F
100
AcDbEntity
  8
0
  6
Continuous
 62
     7
370
     0
100
AcDbCircle
 10
42.0243459846
 20
44.3701106175
 30
0.0
 40
0.144999999999996
  0
CIRCLE
  5
A0
330
1F
100
AcDbEntity
  8
0
  6
Continuous
 62
     7
370
     0
100
AcDbCircle
 10
42.5243459846
 20
44.3701106175
 30
0.0
 40
0.144999999999996
  0
CIRCLE
  5
A1
330
1F
100
AcDbEntity
  8
0
  6
Continuous
 62
     7
370
     0
100
AcDbCircle
 10
41.0243459846
 20
44.3701106175
 30
0.0
 40
0.144999999999996
  0
ARC
  5
A2
330
1F
100
AcDbEntity
  8
0
  6
Continuous
 62
     7
370
     0
100
AcDbCircle
 10
44.5243459846
 20
50.3701106175
 30
0.0
 40
0.1450000000000102
100
AcDbArc
 50
270.0
 51
345.0788889655
  0
ARC
  5
A3
330
1F
100
AcDbEntity
  8
0
  6
Continuous
 62
     7
370
     0
100
AcDbCircle
 10
44.5243459846
 20
50.3701106175
 30
0.0
 40
0.1450000000000102
100
AcDbArc
 50
211.9826422544
 51
270.0
  0
ARC
  5
A4
330
1F
100
AcDbEntity
  8
0
  6
Continuous
 62
     7
370
     0
100
AcDbCircle
 10
45.0243459846
 20
50.3701106175
 30
0.0
 40
0.1450000000000102
100
AcDbArc
 50
270.0
 51
359.564267461
  0
ARC
  5
A5
330
1F
100
AcDbEntity
  8
0
  6
Continuous
 62
     7
370
     0
100
AcDbCircle
 10
45.0243459846
 20
50.3701106175
 30
0.0
 40
0.1450000000000102
100
AcDbArc
 50
186.1605429912
 51
270.0
  0
ARC
  5
A6
330
1F
100
AcDbEntity
  8
0
  6
Continuous
 62
     7
370
     0
100
AcDbCircle
 10
45.5243459846
 20
50.3701106175
 30
0.0
 40
0.1450000000000102
100
AcDbArc
 50
270.0
 51
353.8394570088
  0
ARC
  5
A7
330
1F
100
AcDbEntity
  8
0
  6
Continuous
 62
     7
370
     0
100
AcDbCircle
 10
45.5243459846
 20
50.3701106175
 30
0.0
 40
0.1450000000000102
100
AcDbArc
 50
180.435732539
 51
270.0
  0
ARC
  5
A8
330
1F
100
AcDbEntity
  8
0
  6
Continuous
 62
     7
370
     0
100
AcDbCircle
 10
46.0243459846
 20
50.3701106175
 30
0.0
 40
0.1450000000000102
100
AcDbArc
 50
270.0
 51
328.0173577456
  0
ARC
  5
A9
330
1F
100
AcDbEntity
  8
0
  6
Continuous
 62
     7
370
     0
100
AcDbCircle
 10
46.0243459846
 20
50.3701106175
 30
0.0
 40
0.1450000000000102
100
AcDbArc
 50
194.9211110345
 51
270.0
  0
ARC
  5
AA
330
1F
100
AcDbEntity
  8
0
  6
Continuous
 62
     7
370
     0
100
AcDbCircle
 10
43.0243459846
 20
49.8701106175
 30
0.0
 40
0.1450000000000102
100
AcDbArc
 50
270.0
 51
13.350802882
  0
ARC
  5
AB
330
1F
100
AcDbEntity
  8
0
  6
Continuous
 62
     7
370
     0
100
AcDbCircle
 10
43.0243459846
 20
49.8701106175
 30
0.0
 40
0.1450000000000102
100
AcDbArc
 50
219.7792994722
 51
270.0
  0
CIRCLE
  5
AC
330
1F
100
AcDbEntity
  8
0
  6
Continuous
 62
     7
370
     0
100
AcDbCircle
 10
43.5243459846
 20
49.8701106175
 30
0.0
 40
0.144999999999996
  0
CIRCLE
  5
AD
330
1F
100
AcDbEntity
  8
0
  6
Continuous
 62
     7
370
     0
100
AcDbCircle
 10
44.0243459846
 20
49.8701106175
 30
0.0
 40
0.144999999999996
  0
CIRCLE
  5
AE
330
1F
100
AcDbEntity
  8
0
  6
Continuous
 62
     7
370
     0
100
AcDbCircle
 10
44.5243459846
 20
49.8701106175
 30
0.0
 40
0.144999999999996
  0
CIRCLE
  5
AF
330
1F
100
AcDbEntity
  8
0
  6
Continuous
 62
     7
370
     0
100
AcDbCircle
 10
45.0243459846
 20
49.8701106175
 30
0.0
 40
0.144999999999996
  0
CIRCLE
  5
B0
330
1F
100
AcDbEntity
  8
0
  6
Continuous
 62
     7
370
     0
100
AcDbCircle
 10
45.5243459846
 20
49.8701106175
 30
0.0
 40
0.144999999999996
  0
CIRCLE
  5
B1
330
1F
100
AcDbEntity
  8
0
  6
Continuous
 62
     7
370
     0
100
AcDbCircle
 10
45.5243459846
 20
48.8701106175
 30
0.0
 40
0.144999999999996
  0
CIRCLE
  5
B2
330
1F
100
AcDbEntity
  8
0
  6
Continuous
 62
     7
370
     0
100
AcDbCircle
 10
46.0243459846
 20
48.8701106175
 30
0.0
 40
0.144999999999996
  0
CIRCLE
  5
B3
330
1F
100
AcDbEntity
  8
0
  6
Continuous
 62
     7
370
     0
100
AcDbCircle
 10
46.5243459846
 20
48.8701106175
 30
0.0
 40
0.144999999999996
  0
CIRCLE
  5
B4
330
1F
100
AcDbEntity
  8
0
  6
Continuous
 62
     7
370
     0
100
AcDbCircle
 10
47.0243459846
 20
48.8701106175
 30
0.0
 40
0.144999999999996
  0
CIRCLE
  5
B5
330
1F
100
AcDbEntity
  8
0
  6
Continuous
 62
     7
370
     0
100
AcDbCircle
 10
47.5243459846
 20
48.8701106175
 30
0.0
 40
0.144999999999996
  0
CIRCLE
  5
B6
330
1F
100
AcDbEntity
  8
0
  6
Continuous
 62
     7
370
     0
100
AcDbCircle
 10
48.0243459846
 20
48.8701106175
 30
0.0
 40
0.1450000000000031
  0
CIRCLE
  5
B7
330
1F
100
AcDbEntity
  8
0
  6
Continuous
 62
     7
370
     0
100
AcDbCircle
 10
48.5243459846
 20
48.8701106175
 30
0.0
 40
0.1450000000000031
  0
ARC
  5
B8
330
1F
100
AcDbEntity
  8
0
  6
Continuous
 62
     7
370
     0
100
AcDbCircle
 10
49.0243459846
 20
48.8701106175
 30
0.0
 40
0.145000000000001
100
AcDbArc
 50
196.719297465
 51
249.3308345133
  0
CIRCLE
  5
B9
330
1F
100
AcDbEntity
  8
0
  6
Continuous
 62
     7
370
     0
100
AcDbCircle
 10
41.5243459846
 20
48.3701106175
 30
0.0
 40
0.1450000000000031
  0
CIRCLE
  5
BA
330
1F
100
AcDbEntity
  8
0
  6
Continuous
 62
     7
370
     0
100
AcDbCircle
 10
42.0243459846
 20
48.3701106175
 30
0.0
 40
0.144999999999996
  0
CIRCLE
  5
BB
330
1F
100
AcDbEntity
  8
0
  6
Continuous
 62
     7
370
     0
100
AcDbCircle
 10
42.5243459846
 20
48.3701106175
 30
0.0
 40
0.144999999999996
  0
CIRCLE
  5
BC
330
1F
100
AcDbEntity
  8
0
  6
Continuous
 62
     7
370
     0
100
AcDbCircle
 10
43.0243459846
 20
48.3701106175
 30
0.0
 40
0.144999999999996
  0
CIRCLE
  5
BD
330
1F
100
AcDbEntity
  8
0
  6
Continuous
 62
     7
370
     0
100
AcDbCircle
 10
43.5243459846
 20
48.3701106175
 30
0.0
 40
0.144999999999996
  0
CIRCLE
  5
BE
330
1F
100
AcDbEntity
  8
0
  6
Continuous
 62
     7
370
     0
100
AcDbCircle
 10
44.0243459846
 20
48.3701106175
 30
0.0
 40
0.144999999999996
  0
CIRCLE
  5
BF
330
1F
100
AcDbEntity
  8
0
  6
Continuous
 62
     7
370
     0
100
AcDbCircle
 10
44.5243459846
 20
48.3701106175
 30
0.0
 40
0.144999999999996
  0
CIRCLE
  5
C0
330
1F
100
AcDbEntity
  8
0
  6
Continuous
 62
     7
370
     0
100
AcDbCircle
 10
45.0243459846
 20
48.3701106175
 30
0.0
 40
0.144999999999996
  0
CIRCLE
  5
C1
330
1F
100
AcDbEntity
  8
0
  6
Continuous
 62
     7
370
     0
100
AcDbCircle
 10
45.5243459846
 20
48.3701106175
 30
0.0
 40
0.1450000000000102
  0
CIRCLE
  5
C2
330
1F
100
AcDbEntity
  8
0
  6
Continuous
 62
     7
370
     0
100
AcDbCircle
 10
46.0243459846
 20
48.3701106175
 30
0.0
 40
0.1450000000000102
  0
CIRCLE
  5
C3
330
1F
100
AcDbEntity
  8
0
  6
Continuous
 62
     7
370
     0
100
AcDbCircle
 10
46.5243459846
 20
48.3701106175
 30
0.0
 40
0.1450000000000102
  0
CIRCLE
  5
C4
330
1F
100
AcDbEntity
  8
0
  6
Continuous
 62
     7
370
     0
100
AcDbCircle
 10
47.0243459846
 20
48.3701106175
 30
0.0
 40
0.1450000000000102
  0
CIRCLE
  5
C5
330
1F
100
AcDbEntity
  8
0
  6
Continuous
 62
     7
370
     0
100
AcDbCircle
 10
47.5243459846
 20
48.3701106175
 30
0.0
 40
0.1450000000000102
  0
CIRCLE
  5
C6
330
1F
100
AcDbEntity
  8
0
  6
Continuous
 62
     7
370
     0
100
AcDbCircle
 10
48.0243459846
 20
48.3701106175
 30
0.0
 40
0.144999999999996
  0
CIRCLE
  5
C7
330
1F
100
AcDbEntity
  8
0
  6
Continuous
 62
     7
370
     0
100
AcDbCircle
 10
48.5243459846
 20
48.3701106175
 30
0.0
 40
0.144999999999996
  0
CIRCLE
  5
C8
330
1F
100
AcDbEntity
  8
0
  6
Continuous
 62
     7
370
     0
100
AcDbCircle
 10
49.0243459846
 20
48.3701106175
 30
0.0
 40
0.144999999999996
  0
ARC
  5
C9
330
1F
100
AcDbEntity
  8
0
  6
Continuous
 62
     7
370
     0
100
AcDbCircle
 10
41.0243459846
 20
47.8701106175
 30
0.0
 40
0.1450000000000007
100
AcDbArc
 50
270.0
 51
87.3153312194
  0
ARC
  5
CA
330
1F
100
AcDbEntity
  8
0
  6
Continuous
 62
     7
370
     0
100
AcDbCircle
 10
41.0243459846
 20
47.8701106175
 30
0.0
 40
0.1450000000000001
100
AcDbArc
 50
211.7535789417
 51
270.0
  0
CIRCLE
  5
CB
330
1F
100
AcDbEntity
  8
0
  6
Continuous
 62
     7
370
     0
100
AcDbCircle
 10
41.5243459846
 20
47.8701106175
 30
0.0
 40
0.144999999999996
  0
CIRCLE
  5
CC
330
1F
100
AcDbEntity
  8
0
  6
Continuous
 62
     7
370
     0
100
AcDbCircle
 10
42.0243459846
 20
47.8701106175
 30
0.0
 40
0.144999999999996
  0
CIRCLE
  5
CD
330
1F
100
AcDbEntity
  8
0
  6
Continuous
 62
     7
370
     0
100
AcDbCircle
 10
42.5243459846
 20
47.8701106175
 30
0.0
 40
0.144999999999996
  0
CIRCLE
  5
CE
330
1F
100
AcDbEntity
  8
0
  6
Continuous
 62
     7
370
     0
100
AcDbCircle
 10
43.0243459846
 20
47.8701106175
 30
0.0
 40
0.1450000000000031
  0
CIRCLE
  5
CF
330
1F
100
AcDbEntity
  8
0
  6
Continuous
 62
     7
370
     0
100
AcDbCircle
 10
43.5243459846
 20
47.8701106175
 30
0.0
 40
0.1450000000000031
  0
CIRCLE
  5
D0
330
1F
100
AcDbEntity
  8
0
  6
Continuous
 62
     7
370
     0
100
AcDbCircle
 10
44.0243459846
 20
47.8701106175
 30
0.0
 40
0.1450000000000031
  0
CIRCLE
  5
D1
330
1F
100
AcDbEntity
  8
0
  6
Continuous
 62
     7
370
     0
100
AcDbCircle
 10
44.5243459846
 20
47.8701106175
 30
0.0
 40
0.1450000000000031
  0
CIRCLE
  5
D2
330
1F
100
AcDbEntity
  8
0
  6
Continuous
 62
     7
370
     0
100
AcDbCircle
 10
45.0243459846
 20
47.8701106175
 30
0.0
 40
0.1450000000000031
  0
CIRCLE
  5
D3
330
1F
100
AcDbEntity
  8
0
  6
Continuous
 62
     7
370
     0
100
AcDbCircle
 10
45.5243459846
 20
47.8701106175
 30
0.0
 40
0.144999999999996
  0
CIRCLE
  5
D4
330
1F
100
AcDbEntity
  8
0
  6
Continuous
 62
     7
370
     0
100
AcDbCircle
 10
46.0243459846
 20
47.8701106175
 30
0.0
 40
0.144999999999996
  0
CIRCLE
  5
D5
330
1F
100
AcDbEntity
  8
0
  6
Continuous
 62
     7
370
     0
100
AcDbCircle
 10
46.5243459846
 20
47.8701106175
 30
0.0
 40
0.144999999999996
  0
CIRCLE
  5
D6
330
1F
100
AcDbEntity
  8
0
  6
Continuous
 62
     7
370
     0
100
AcDbCircle
 10
47.0243459846
 20
47.8701106175
 30
0.0
 40
0.144999999999996
  0
CIRCLE
  5
D7
330
1F
100
AcDbEntity
  8
0
  6
Continuous
 62
     7
370
     0
100
AcDbCircle
 10
47.5243459846
 20
47.8701106175
 30
0.0
 40
0.144999999999996
  0
CIRCLE
  5
D8
330
1F
100
AcDbEntity
  8
0
  6
Continuous
 62
     7
370
     0
100
AcDbCircle
 10
48.0243459846
 20
47.8701106175
 30
0.0
 40
0.144999999999996
  0
CIRCLE
  5
D9
330
1F
100
AcDbEntity
  8
0
  6
Continuous
 62
     7
370
     0
100
AcDbCircle
 10
48.5243459846
 20
47.8701106175
 30
0.0
 40
0.1450000000000102
  0
CIRCLE
  5
DA
330
1F
100
AcDbEntity
  8
0
  6
Continuous
 62
     7
370
     0
100
AcDbCircle
 10
49.0243459846
 20
47.8701106175
 30
0.0
 40
0.1450000000000102
  0
ARC
  5
DB
330
1F
100
AcDbEntity
  8
0
  6
Continuous
 62
     7
370
     0
100
AcDbCircle
 10
49.5243459846
 20
47.8701106175
 30
0.0
 40
0.1450000000000102
100
AcDbArc
 50
270.0
 51
328.2464210583
  0
ARC
  5
DC
330
1F
100
AcDbEntity
  8
0
  6
Continuous
 62
     7
370
     0
100
AcDbCircle
 10
49.5243459846
 20
47.8701106175
 30
0.0
 40
0.1450000000000102
100
AcDbArc
 50
92.6846687806
 51
270.0
  0
CIRCLE
  5
DD
330
1F
100
AcDbEntity
  8
0
  6
Continuous
 62
     7
370
     0
100
AcDbCircle
 10
41.0243459846
 20
47.3701106175
 30
0.0
 40
0.1450000000000102
  0
CIRCLE
  5
DE
330
1F
100
AcDbEntity
  8
0
  6
Continuous
 62
     7
370
     0
100
AcDbCircle
 10
41.5243459846
 20
47.3701106175
 30
0.0
 40
0.1450000000000102
  0
CIRCLE
  5
DF
330
1F
100
AcDbEntity
  8
0
  6
Continuous
 62
     7
370
     0
100
AcDbCircle
 10
42.0243459846
 20
47.3701106175
 30
0.0
 40
0.1450000000000102
  0
CIRCLE
  5
E0
330
1F
100
AcDbEntity
  8
0
  6
Continuous
 62
     7
370
     0
100
AcDbCircle
 10
42.5243459846
 20
47.3701106175
 30
0.0
 40
0.144999999999996
  0
CIRCLE
  5
E1
330
1F
100
AcDbEntity
  8
0
  6
Continuous
 62
     7
370
     0
100
AcDbCircle
 10
43.0243459846
 20
47.3701106175
 30
0.0
 40
0.144999999999996
  0
CIRCLE
  5
E2
330
1F
100
AcDbEntity
  8
0
  6
Continuous
 62
     7
370
     0
100
AcDbCircle
 10
43.5243459846
 20
47.3701106175
 30
0.0
 40
0.144999999999996
  0
CIRCLE
  5
E3
330
1F
100
AcDbEntity
  8
0
  6
Continuous
 62
     7
370
     0
100
AcDbCircle
 10
44.0243459846
 20
47.3701106175
 30
0.0
 40
0.144999999999996
  0
CIRCLE
  5
E4
330
1F
100
AcDbEntity
  8
0
  6
Continuous
 62
     7
370
     0
100
AcDbCircle
 10
44.5243459846
 20
47.3701106175
 30
0.0
 40
0.144999999999996
  0
CIRCLE
  5
E5
330
1F
100
AcDbEntity
  8
0
  6
Continuous
 62
     7
370
     0
100
AcDbCircle
 10
45.0243459846
 20
47.3701106175
 30
0.0
 40
0.144999999999996
  0
CIRCLE
  5
E6
330
1F
100
AcDbEntity
  8
0
  6
Continuous
 62
     7
370
     0
100
AcDbCircle
 10
45.5243459846
 20
47.3701106175
 30
0.0
 40
0.144999999999996
  0
CIRCLE
  5
E7
330
1F
100
AcDbEntity
  8
0
  6
Continuous
 62
     7
370
     0
100
AcDbCircle
 10
46.0243459846
 20
47.3701106175
 30
0.0
 40
0.1450000000000031
  0
CIRCLE
  5
E8
330
1F
100
AcDbEntity
  8
0
  6
Continuous
 62
     7
370
     0
100
AcDbCircle
 10
46.5243459846
 20
47.3701106175
 30
0.0
 40
0.1450000000000031
  0
CIRCLE
  5
E9
330
1F
100
AcDbEntity
  8
0
  6
Continuous
 62
     7
370
     0
100
AcDbCircle
 10
47.0243459846
 20
47.3701106175
 30
0.0
 40
0.1450000000000031
  0
CIRCLE
  5
EA
330
1F
100
AcDbEntity
  8
0
  6
Continuous
 62
     7
370
     0
100
AcDbCircle
 10
47.5243459846
 20
47.3701106175
 30
0.0
 40
0.1450000000000031
  0
CIRCLE
  5
EB
330
1F
100
AcDbEntity
  8
0
  6
Continuous
 62
     7
370
     0
100
AcDbCircle
 10
48.0243459846
 20
47.3701106175
 30
0.0
 40
0.144999999999996
  0
CIRCLE
  5
EC
330
1F
100
AcDbEntity
  8
0
  6
Continuous
 62
     7
370
     0
100
AcDbCircle
 10
48.5243459846
 20
47.3701106175
 30
0.0
 40
0.144999999999996
  0
CIRCLE
  5
ED
330
1F
100
AcDbEntity
  8
0
  6
Continuous
 62
     7
370
     0
100
AcDbCircle
 10
49.0243459846
 20
47.3701106175
 30
0.0
 40
0.144999999999996
  0
CIRCLE
  5
EE
330
1F
100
AcDbEntity
  8
0
  6
Continuous
 62
     7
370
     0
100
AcDbCircle
 10
49.5243459846
 20
47.3701106175
 30
0.0
 40
0.144999999999996
  0
ARC
  5
EF
330
1F
100
AcDbEntity
  8
0
  6
Continuous
 62
     7
370
     0
100
AcDbCircle
 10
40.5243459846
 20
46.8701106175
 30
0.0
 40
0.1450000000000026
100
AcDbArc
 50
270.0
 51
79.0920912308
  0
LWPOLYLINE
  5
F0
330
1F
100
AcDbEntity
  8
0
  6
Continuous
 62
     7
370
     0
100
AcDbPolyline
 90
        3
 70
   128
 43
0.0
 10
40.4650382222
 20
46.7377943701
 10
40.4688568869
 20
46.7361480852
 10
40.5243459846
 20
46.7251106175
  0
CIRCLE
  5
F1
330
1F
100
AcDbEntity
  8
0
  6
Continuous
 62
     7
370
     0
100
AcDbCircle
 10
41.0243459846
 20
46.8701106175
 30
0.0
 40
0.144999999999996
  0
CIRCLE
  5
F2
330
1F
100
AcDbEntity
  8
0
  6
Continuous
 62
     7
370
     0
100
AcDbCircle
 10
41.5243459846
 20
46.8701106175
 30
0.0
 40
0.144999999999996
  0
CIRCLE
  5
F3
330
1F
100
AcDbEntity
  8
0
  6
Continuous
 62
     7
370
     0
100
AcDbCircle
 10
42.0243459846
 20
46.8701106175
 30
0.0
 40
0.144999999999996
  0
CIRCLE
  5
F4
330
1F
100
AcDbEntity
  8
0
  6
Continuous
 62
     7
370
     0
100
AcDbCircle
 10
42.5243459846
 20
46.8701106175
 30
0.0
 40
0.144999999999996
  0
CIRCLE
  5
F5
330
1F
100
AcDbEntity
  8
0
  6
Continuous
 62
     7
370
     0
100
AcDbCircle
 10
43.0243459846
 20
46.8701106175
 30
0.0
 40
0.144999999999996
  0
CIRCLE
  5
F6
330
1F
100
AcDbEntity
  8
0
  6
Continuous
 62
     7
370
     0
100
AcDbCircle
 10
43.5243459846
 20
46.8701106175
 30
0.0
 40
0.144999999999996
  0
CIRCLE
  5
F7
330
1F
100
AcDbEntity
  8
0
  6
Continuous
 62
     7
370
     0
100
AcDbCircle
 10
44.0243459846
 20
46.8701106175
 30
0.0
 40
0.1450000000000031
  0
CIRCLE
  5
F8
330
1F
100
AcDbEntity
  8
0
  6
Continuous
 62
     7
370
     0
100
AcDbCircle
 10
44.5243459846
 20
46.8701106175
 30
0.0
 40
0.1450000000000031
  0
CIRCLE
  5
F9
330
1F
100
AcDbEntity
  8
0
  6
Continuous
 62
     7
370
     0
100
AcDbCircle
 10
45.0243459846
 20
46.8701106175
 30
0.0
 40
0.1450000000000031
  0
CIRCLE
  5
FA
330
1F
100
AcDbEntity
  8
0
  6
Continuous
 62
     7
370
     0
100
AcDbCircle
 10
45.5243459846
 20
46.8701106175
 30
0.0
 40
0.1450000000000031
  0
CIRCLE
  5
FB
330
1F
100
AcDbEntity
  8
0
  6
Continuous
 62
     7
370
     0
100
AcDbCircle
 10
46.0243459846
 20
46.8701106175
 30
0.0
 40
0.144999999999996
  0
CIRCLE
  5
FC
330
1F
100
AcDbEntity
  8
0
  6
Continuous
 62
     7
370
     0
100
AcDbCircle
 10
46.5243459846
 20
46.8701106175
 30
0.0
 40
0.144999999999996
  0
CIRCLE
  5
FD
330
1F
100
AcDbEntity
  8
0
  6
Continuous
 62
     7
370
     0
100
AcDbCircle
 10
47.0243459846
 20
46.8701106175
 30
0.0
 40
0.144999999999996
  0
CIRCLE
  5
FE
330
1F
100
AcDbEntity
  8
0
  6
Continuous
 62
     7
370
     0
100
AcDbCircle
 10
47.5243459846
 20
46.8701106175
 30
0.0
 40
0.144999999999996
  0
CIRCLE
  5
FF
330
1F
100
AcDbEntity
  8
0
  6
Continuous
 62
     7
370
     0
100
AcDbCircle
 10
48.0243459846
 20
46.8701106175
 30
0.0
 40
0.144999999999996
  0
CIRCLE
  5
100
330
1F
100
AcDbEntity
  8
0
  6
Continuous
 62
     7
370
     0
100
AcDbCircle
 10
48.5243459846
 20
46.8701106175
 30
0.0
 40
0.144999999999996
  0
CIRCLE
  5
101
330
1F
100
AcDbEntity
  8
0
  6
Continuous
 62
     7
370
     0
100
AcDbCircle
 10
49.0243459846
 20
46.8701106175
 30
0.0
 40
0.1450000000000102
  0
CIRCLE
  5
102
330
1F
100
AcDbEntity
  8
0
  6
Continuous
 62
     7
370
     0
100
AcDbCircle
 10
49.5243459846
 20
46.8701106175
 30
0.0
 40
0.1450000000000102
  0
LWPOLYLINE
  5
103
330
1F
100
AcDbEntity
  8
0
  6
Continuous
 62
     7
370
     0
100
AcDbPolyline
 90
        3
 70
   128
 43
0.0
 10
50.0243459846
 20
46.7251106175
 10
50.0798350823
 20
46.7361480852
 10
50.0836537469
 20
46.7377943701
  0
ARC
  5
104
330
1F
100
AcDbEntity
  8
0
  6
Continuous
 62
     7
370
     0
100
AcDbCircle
 10
50.0243459846
 20
46.8701106175
 30
0.0
 40
0.1450000000000102
100
AcDbArc
 50
100.9079087692
 51
270.0
  0
CIRCLE
  5
105
330
1F
100
AcDbEntity
  8
0
  6
Continuous
 62
     7
370
     0
100
AcDbCircle
 10
40.5243459846
 20
46.3701106175
 30
0.0
 40
0.144999999999996
  0
CIRCLE
  5
106
330
1F
100
AcDbEntity
  8
0
  6
Continuous
 62
     7
370
     0
100
AcDbCircle
 10
41.0243459846
 20
46.3701106175
 30
0.0
 40
0.144999999999996
  0
CIRCLE
  5
107
330
1F
100
AcDbEntity
  8
0
  6
Continuous
 62
     7
370
     0
100
AcDbCircle
 10
41.5243459846
 20
46.3701106175
 30
0.0
 40
0.1450000000000102
  0
CIRCLE
  5
108
330
1F
100
AcDbEntity
  8
0
  6
Continuous
 62
     7
370
     0
100
AcDbCircle
 10
42.0243459846
 20
46.3701106175
 30
0.0
 40
0.1450000000000102
  0
CIRCLE
  5
109
330
1F
100
AcDbEntity
  8
0
  6
Continuous
 62
     7
370
     0
100
AcDbCircle
 10
42.5243459846
 20
46.3701106175
 30
0.0
 40
0.1450000000000102
  0
CIRCLE
  5
10A
330
1F
100
AcDbEntity
  8
0
  6
Continuous
 62
     7
370
     0
100
AcDbCircle
 10
43.0243459846
 20
46.3701106175
 30
0.0
 40
0.1450000000000102
  0
CIRCLE
  5
10B
330
1F
100
AcDbEntity
  8
0
  6
Continuous
 62
     7
370
     0
100
AcDbCircle
 10
43.5243459846
 20
46.3701106175
 30
0.0
 40
0.144999999999996
  0
CIRCLE
  5
10C
330
1F
100
AcDbEntity
  8
0
  6
Continuous
 62
     7
370
     0
100
AcDbCircle
 10
44.0243459846
 20
46.3701106175
 30
0.0
 40
0.144999999999996
  0
CIRCLE
  5
10D
330
1F
100
AcDbEntity
  8
0
  6
Continuous
 62
     7
370
     0
100
AcDbCircle
 10
44.5243459846
 20
46.3701106175
 30
0.0
 40
0.144999999999996
  0
CIRCLE
  5
10E
330
1F
100
AcDbEntity
  8
0
  6
Continuous
 62
     7
370
     0
100
AcDbCircle
 10
45.0243459846
 20
46.3701106175
 30
0.0
 40
0.144999999999996
  0
CIRCLE
  5
10F
330
1F
100
AcDbEntity
  8
0
  6
Continuous
 62
     7
370
     0
100
AcDbCircle
 10
45.5243459846
 20
46.3701106175
 30
0.0
 40
0.144999999999996
  0
CIRCLE
  5
110
330
1F
100
AcDbEntity
  8
0
  6
Continuous
 62
     7
370
     0
100
AcDbCircle
 10
46.0243459846
 20
46.3701106175
 30
0.0
 40
0.144999999999996
  0
CIRCLE
  5
111
330
1F
100
AcDbEntity
  8
0
  6
Continuous
 62
     7
370
     0
100
AcDbCircle
 10
46.5243459846
 20
46.3701106175
 30
0.0
 40
0.144999999999996
  0
CIRCLE
  5
112
330
1F
100
AcDbEntity
  8
0
  6
Continuous
 62
     7
370
     0
100
AcDbCircle
 10
47.0243459846
 20
46.3701106175
 30
0.0
 40
0.144999999999996
  0
CIRCLE
  5
113
330
1F
100
AcDbEntity
  8
0
  6
Continuous
 62
     7
370
     0
100
AcDbCircle
 10
47.5243459846
 20
46.3701106175
 30
0.0
 40
0.1450000000000031
  0
CIRCLE
  5
114
330
1F
100
AcDbEntity
  8
0
  6
Continuous
 62
     7
370
     0
100
AcDbCircle
 10
48.0243459846
 20
46.3701106175
 30
0.0
 40
0.1450000000000031
  0
CIRCLE
  5
115
330
1F
100
AcDbEntity
  8
0
  6
Continuous
 62
     7
370
     0
100
AcDbCircle
 10
48.5243459846
 20
46.3701106175
 30
0.0
 40
0.1450000000000031
  0
CIRCLE
  5
116
330
1F
100
AcDbEntity
  8
0
  6
Continuous
 62
     7
370
     0
100
AcDbCircle
 10
49.0243459846
 20
46.3701106175
 30
0.0
 40
0.144999999999996
  0
CIRCLE
  5
117
330
1F
100
AcDbEntity
  8
0
  6
Continuous
 62
     7
370
     0
100
AcDbCircle
 10
49.5243459846
 20
46.3701106175
 30
0.0
 40
0.144999999999996
  0
CIRCLE
  5
118
330
1F
100
AcDbEntity
  8
0
  6
Continuous
 62
     7
370
     0
100
AcDbCircle
 10
50.0243459846
 20
46.3701106175
 30
0.0
 40
0.144999999999996
  0
CIRCLE
  5
119
330
1F
100
AcDbEntity
  8
0
  6
Continuous
 62
     7
370
     0
100
AcDbCircle
 10
40.5243459846
 20
45.8701106175
 30
0.0
 40
0.1450000000000031
  0
CIRCLE
  5
11A
330
1F
100
AcDbEntity
  8
0
  6
Continuous
 62
     7
370
     0
100
AcDbCircle
 10
41.0243459846
 20
45.8701106175
 30
0.0
 40
0.144999999999996
  0
CIRCLE
  5
11B
330
1F
100
AcDbEntity
  8
0
  6
Continuous
 62
     7
370
     0
100
AcDbCircle
 10
41.5243459846
 20
45.8701106175
 30
0.0
 40
0.144999999999996
  0
CIRCLE
  5
11C
330
1F
100
AcDbEntity
  8
0
  6
Continuous
 62
     7
370
     0
100
AcDbCircle
 10
42.0243459846
 20
45.8701106175
 30
0.0
 40
0.144999999999996
  0
CIRCLE
  5
11D
330
1F
100
AcDbEntity
  8
0
  6
Continuous
 62
     7
370
     0
100
AcDbCircle
 10
42.5243459846
 20
45.8701106175
 30
0.0
 40
0.144999999999996
  0
CIRCLE
  5
11E
330
1F
100
AcDbEntity
  8
0
  6
Continuous
 62
     7
370
     0
100
AcDbCircle
 10
43.0243459846
 20
45.8701106175
 30
0.0
 40
0.144999999999996
  0
CIRCLE
  5
11F
330
1F
100
AcDbEntity
  8
0
  6
Continuous
 62
     7
370
     0
100
AcDbCircle
 10
43.5243459846
 20
45.8701106175
 30
0.0
 40
0.144999999999996
  0
CIRCLE
  5
120
330
1F
100
AcDbEntity
  8
0
  6
Continuous
 62
     7
370
     0
100
AcDbCircle
 10
44.0243459846
 20
45.8701106175
 30
0.0
 40
0.144999999999996
  0
CIRCLE
  5
121
330
1F
100
AcDbEntity
  8
0
  6
Continuous
 62
     7
370
     0
100
AcDbCircle
 10
44.5243459846
 20
45.8701106175
 30
0.0
 40
0.1450000000000031
  0
CIRCLE
  5
122
330
1F
100
AcDbEntity
  8
0
  6
Continuous
 62
     7
370
     0
100
AcDbCircle
 10
45.0243459846
 20
45.8701106175
 30
0.0
 40
0.1450000000000031
  0
CIRCLE
  5
123
330
1F
100
AcDbEntity
  8
0
  6
Continuous
 62
     7
370
     0
100
AcDbCircle
 10
45.5243459846
 20
45.8701106175
 30
0.0
 40
0.1450000000000031
  0
CIRCLE
  5
124
330
1F
100
AcDbEntity
  8
0
  6
Continuous
 62
     7
370
     0
100
AcDbCircle
 10
46.0243459846
 20
45.8701106175
 30
0.0
 40
0.1450000000000031
  0
CIRCLE
  5
125
330
1F
100
AcDbEntity
  8
0
  6
Continuous
 62
     7
370
     0
100
AcDbCircle
 10
46.5243459846
 20
45.8701106175
 30
0.0
 40
0.1450000000000031
  0
CIRCLE
  5
126
330
1F
100
AcDbEntity
  8
0
  6
Continuous
 62
     7
370
     0
100
AcDbCircle
 10
47.0243459846
 20
45.8701106175
 30
0.0
 40
0.144999999999996
  0
CIRCLE
  5
127
330
1F
100
AcDbEntity
  8
0
  6
Continuous
 62
     7
370
     0
100
AcDbCircle
 10
47.5243459846
 20
45.8701106175
 30
0.0
 40
0.144999999999996
  0
CIRCLE
  5
128
330
1F
100
AcDbEntity
  8
0
  6
Continuous
 62
     7
370
     0
100
AcDbCircle
 10
48.0243459846
 20
45.8701106175
 30
0.0
 40
0.144999999999996
  0
CIRCLE
  5
129
330
1F
100
AcDbEntity
  8
0
  6
Continuous
 62
     7
370
     0
100
AcDbCircle
 10
48.5243459846
 20
45.8701106175
 30
0.0
 40
0.144999999999996
  0
CIRCLE
  5
12A
330
1F
100
AcDbEntity
  8
0
  6
Continuous
 62
     7
370
     0
100
AcDbCircle
 10
49.0243459846
 20
45.8701106175
 30
0.0
 40
0.144999999999996
  0
CIRCLE
  5
12B
330
1F
100
AcDbEntity
  8
0
  6
Continuous
 62
     7
370
     0
100
AcDbCircle
 10
49.5243459846
 20
45.8701106175
 30
0.0
 40
0.144999999999996
  0
CIRCLE
  5
12C
330
1F
100
AcDbEntity
  8
0
  6
Continuous
 62
     7
370
     0
100
AcDbCircle
 10
50.0243459846
 20
45.8701106175
 30
0.0
 40
0.1450000000000102
  0
CIRCLE
  5
12D
330
1F
100
AcDbEntity
  8
0
  6
Continuous
 62
     7
370
     0
100
AcDbCircle
 10
40.5243459846
 20
45.3701106175
 30
0.0
 40
0.144999999999996
  0
CIRCLE
  5
12E
330
1F
100
AcDbEntity
  8
0
  6
Continuous
 62
     7
370
     0
100
AcDbCircle
 10
41.0243459846
 20
45.3701106175
 30
0.0
 40
0.144999999999996
  0
CIRCLE
  5
12F
330
1F
100
AcDbEntity
  8
0
  6
Continuous
 62
     7
370
     0
100
AcDbCircle
 10
46.0243459846
 20
49.8701106175
 30
0.0
 40
0.144999999999996
  0
CIRCLE
  5
130
330
1F
100
AcDbEntity
  8
0
  6
Continuous
 62
     7
370
     0
100
AcDbCircle
 10
46.5243459846
 20
49.8701106175
 30
0.0
 40
0.144999999999996
  0
CIRCLE
  5
131
330
1F
100
AcDbEntity
  8
0
  6
Continuous
 62
     7
370
     0
100
AcDbCircle
 10
47.0243459846
 20
49.8701106175
 30
0.0
 40
0.144999999999996
  0
ARC
  5
132
330
1F
100
AcDbEntity
  8
0
  6
Continuous
 62
     7
370
     0
100
AcDbCircle
 10
47.5243459846
 20
49.8701106175
 30
0.0
 40
0.1450000000000031
100
AcDbArc
 50
270.0
 51
320.2207005278
  0
ARC
  5
133
330
1F
100
AcDbEntity
  8
0
  6
Continuous
 62
     7
370
     0
100
AcDbCircle
 10
47.5243459846
 20
49.8701106175
 30
0.0
 40
0.1450000000000031
100
AcDbArc
 50
166.649197118
 51
270.0
  0
CIRCLE
  5
134
330
1F
100
AcDbEntity
  8
0
  6
Continuous
 62
     7
370
     0
100
AcDbCircle
 10
42.5243459846
 20
49.3701106175
 30
0.0
 40
0.144999999999996
  0
CIRCLE
  5
135
330
1F
100
AcDbEntity
  8
0
  6
Continuous
 62
     7
370
     0
100
AcDbCircle
 10
43.0243459846
 20
49.3701106175
 30
0.0
 40
0.144999999999996
  0
CIRCLE
  5
136
330
1F
100
AcDbEntity
  8
0
  6
Continuous
 62
     7
370
     0
100
AcDbCircle
 10
43.5243459846
 20
49.3701106175
 30
0.0
 40
0.144999999999996
  0
CIRCLE
  5
137
330
1F
100
AcDbEntity
  8
0
  6
Continuous
 62
     7
370
     0
100
AcDbCircle
 10
44.0243459846
 20
49.3701106175
 30
0.0
 40
0.144999999999996
  0
CIRCLE
  5
138
330
1F
100
AcDbEntity
  8
0
  6
Continuous
 62
     7
370
     0
100
AcDbCircle
 10
44.5243459846
 20
49.3701106175
 30
0.0
 40
0.144999999999996
  0
CIRCLE
  5
139
330
1F
100
AcDbEntity
  8
0
  6
Continuous
 62
     7
370
     0
100
AcDbCircle
 10
45.0243459846
 20
49.3701106175
 30
0.0
 40
0.1450000000000102
  0
CIRCLE
  5
13A
330
1F
100
AcDbEntity
  8
0
  6
Continuous
 62
     7
370
     0
100
AcDbCircle
 10
45.5243459846
 20
49.3701106175
 30
0.0
 40
0.1450000000000102
  0
CIRCLE
  5
13B
330
1F
100
AcDbEntity
  8
0
  6
Continuous
 62
     7
370
     0
100
AcDbCircle
 10
46.0243459846
 20
49.3701106175
 30
0.0
 40
0.1450000000000102
  0
CIRCLE
  5
13C
330
1F
100
AcDbEntity
  8
0
  6
Continuous
 62
     7
370
     0
100
AcDbCircle
 10
46.5243459846
 20
49.3701106175
 30
0.0
 40
0.144999999999996
  0
CIRCLE
  5
13D
330
1F
100
AcDbEntity
  8
0
  6
Continuous
 62
     7
370
     0
100
AcDbCircle
 10
47.0243459846
 20
49.3701106175
 30
0.0
 40
0.144999999999996
  0
CIRCLE
  5
13E
330
1F
100
AcDbEntity
  8
0
  6
Continuous
 62
     7
370
     0
100
AcDbCircle
 10
47.5243459846
 20
49.3701106175
 30
0.0
 40
0.144999999999996
  0
CIRCLE
  5
13F
330
1F
100
AcDbEntity
  8
0
  6
Continuous
 62
     7
370
     0
100
AcDbCircle
 10
48.0243459846
 20
49.3701106175
 30
0.0
 40
0.144999999999996
  0
ARC
  5
140
330
1F
100
AcDbEntity
  8
0
  6
Continuous
 62
     7
370
     0
100
AcDbCircle
 10
41.5243459846
 20
48.8701106175
 30
0.0
 40
0.1450000000000024
100
AcDbArc
 50
290.6691654867
 51
343.280702535
  0
CIRCLE
  5
141
330
1F
100
AcDbEntity
  8
0
  6
Continuous
 62
     7
370
     0
100
AcDbCircle
 10
42.0243459846
 20
48.8701106175
 30
0.0
 40
0.1450000000000031
  0
CIRCLE
  5
142
330
1F
100
AcDbEntity
  8
0
  6
Continuous
 62
     7
370
     0
100
AcDbCircle
 10
42.5243459846
 20
48.8701106175
 30
0.0
 40
0.1450000000000031
  0
CIRCLE
  5
143
330
1F
100
AcDbEntity
  8
0
  6
Continuous
 62
     7
370
     0
100
AcDbCircle
 10
43.0243459846
 20
48.8701106175
 30
0.0
 40
0.1450000000000031
  0
CIRCLE
  5
144
330
1F
100
AcDbEntity
  8
0
  6
Continuous
 62
     7
370
     0
100
AcDbCircle
 10
43.5243459846
 20
48.8701106175
 30
0.0
 40
0.1450000000000031
  0
CIRCLE
  5
145
330
1F
100
AcDbEntity
  8
0
  6
Continuous
 62
     7
370
     0
100
AcDbCircle
 10
44.0243459846
 20
48.8701106175
 30
0.0
 40
0.1450000000000031
  0
CIRCLE
  5
146
330
1F
100
AcDbEntity
  8
0
  6
Continuous
 62
     7
370
     0
100
AcDbCircle
 10
44.5243459846
 20
48.8701106175
 30
0.0
 40
0.144999999999996
  0
CIRCLE
  5
147
330
1F
100
AcDbEntity
  8
0
  6
Continuous
 62
     7
370
     0
100
AcDbCircle
 10
45.0243459846
 20
48.8701106175
 30
0.0
 40
0.144999999999996
  0
CIRCLE
  5
148
330
1F
100
AcDbEntity
  8
0
  6
Continuous
 62
     7
370
     0
100
AcDbCircle
 10
44.0243459846
 20
44.3701106175
 30
0.0
 40
0.144999999999996
  0
CIRCLE
  5
149
330
1F
100
AcDbEntity
  8
0
  6
Continuous
 62
     7
370
     0
100
AcDbCircle
 10
44.5243459846
 20
44.3701106175
 30
0.0
 40
0.1450000000000031
  0
CIRCLE
  5
14A
330
1F
100
AcDbEntity
  8
0
  6
Continuous
 62
     7
370
     0
100
AcDbCircle
 10
45.0243459846
 20
44.3701106175
 30
0.0
 40
0.1450000000000031
  0
CIRCLE
  5
14B
330
1F
100
AcDbEntity
  8
0
  6
Continuous
 62
     7
370
     0
100
AcDbCircle
 10
45.5243459846
 20
44.3701106175
 30
0.0
 40
0.1450000000000031
  0
CIRCLE
  5
14C
330
1F
100
AcDbEntity
  8
0
  6
Continuous
 62
     7
370
     0
100
AcDbCircle
 10
46.0243459846
 20
44.3701106175
 30
0.0
 40
0.1450000000000031
  0
CIRCLE
  5
14D
330
1F
100
AcDbEntity
  8
0
  6
Continuous
 62
     7
370
     0
100
AcDbCircle
 10
46.5243459846
 20
44.3701106175
 30
0.0
 40
0.144999999999996
  0
CIRCLE
  5
14E
330
1F
100
AcDbEntity
  8
0
  6
Continuous
 62
     7
370
     0
100
AcDbCircle
 10
47.0243459846
 20
44.3701106175
 30
0.0
 40
0.144999999999996
  0
CIRCLE
  5
14F
330
1F
100
AcDbEntity
  8
0
  6
Continuous
 62
     7
370
     0
100
AcDbCircle
 10
47.5243459846
 20
44.3701106175
 30
0.0
 40
0.1450000000000031
  0
CIRCLE
  5
150
330
1F
100
AcDbEntity
  8
0
  6
Continuous
 62
     7
370
     0
100
AcDbCircle
 10
48.0243459846
 20
44.3701106175
 30
0.0
 40
0.1450000000000031
  0
CIRCLE
  5
151
330
1F
100
AcDbEntity
  8
0
  6
Continuous
 62
     7
370
     0
100
AcDbCircle
 10
48.5243459846
 20
44.3701106175
 30
0.0
 40
0.1450000000000031
  0
CIRCLE
  5
152
330
1F
100
AcDbEntity
  8
0
  6
Continuous
 62
     7
370
     0
100
AcDbCircle
 10
49.0243459846
 20
44.3701106175
 30
0.0
 40
0.1450000000000031
  0
CIRCLE
  5
153
330
1F
100
AcDbEntity
  8
0
  6
Continuous
 62
     7
370
     0
100
AcDbCircle
 10
49.5243459846
 20
44.3701106175
 30
0.0
 40
0.144999999999996
  0
CIRCLE
  5
154
330
1F
100
AcDbEntity
  8
0
  6
Continuous
 62
     7
370
     0
100
AcDbCircle
 10
50.0243459846
 20
44.3701106175
 30
0.0
 40
0.144999999999996
  0
ARC
  5
155
330
1F
100
AcDbEntity
  8
0
  6
Continuous
 62
     7
370
     0
100
AcDbCircle
 10
40.5243459846
 20
43.8701106175
 30
0.0
 40
0.1450000000000028
100
AcDbArc
 50
280.9079087692
 51
114.1432279782
  0
CIRCLE
  5
156
330
1F
100
AcDbEntity
  8
0
  6
Continuous
 62
     7
370
     0
100
AcDbCircle
 10
41.0243459846
 20
43.8701106175
 30
0.0
 40
0.1450000000000031
  0
CIRCLE
  5
157
330
1F
100
AcDbEntity
  8
0
  6
Continuous
 62
     7
370
     0
100
AcDbCircle
 10
41.5243459846
 20
43.8701106175
 30
0.0
 40
0.144999999999996
  0
CIRCLE
  5
158
330
1F
100
AcDbEntity
  8
0
  6
Continuous
 62
     7
370
     0
100
AcDbCircle
 10
42.0243459846
 20
43.8701106175
 30
0.0
 40
0.144999999999996
  0
CIRCLE
  5
159
330
1F
100
AcDbEntity
  8
0
  6
Continuous
 62
     7
370
     0
100
AcDbCircle
 10
42.5243459846
 20
43.8701106175
 30
0.0
 40
0.144999999999996
  0
CIRCLE
  5
15A
330
1F
100
AcDbEntity
  8
0
  6
Continuous
 62
     7
370
     0
100
AcDbCircle
 10
43.0243459846
 20
43.8701106175
 30
0.0
 40
0.144999999999996
  0
CIRCLE
  5
15B
330
1F
100
AcDbEntity
  8
0
  6
Continuous
 62
     7
370
     0
100
AcDbCircle
 10
43.5243459846
 20
43.8701106175
 30
0.0
 40
0.144999999999996
  0
CIRCLE
  5
15C
330
1F
100
AcDbEntity
  8
0
  6
Continuous
 62
     7
370
     0
100
AcDbCircle
 10
44.0243459846
 20
43.8701106175
 30
0.0
 40
0.144999999999996
  0
CIRCLE
  5
15D
330
1F
100
AcDbEntity
  8
0
  6
Continuous
 62
     7
370
     0
100
AcDbCircle
 10
44.5243459846
 20
43.8701106175
 30
0.0
 40
0.144999999999996
  0
CIRCLE
  5
15E
330
1F
100
AcDbEntity
  8
0
  6
Continuous
 62
     7
370
     0
100
AcDbCircle
 10
45.0243459846
 20
43.8701106175
 30
0.0
 40
0.144999999999996
  0
CIRCLE
  5
15F
330
1F
100
AcDbEntity
  8
0
  6
Continuous
 62
     7
370
     0
100
AcDbCircle
 10
45.5243459846
 20
43.8701106175
 30
0.0
 40
0.1450000000000031
  0
CIRCLE
  5
160
330
1F
100
AcDbEntity
  8
0
  6
Continuous
 62
     7
370
     0
100
AcDbCircle
 10
46.0243459846
 20
43.8701106175
 30
0.0
 40
0.1450000000000031
  0
CIRCLE
  5
161
330
1F
100
AcDbEntity
  8
0
  6
Continuous
 62
     7
370
     0
100
AcDbCircle
 10
46.5243459846
 20
43.8701106175
 30
0.0
 40
0.1450000000000031
  0
CIRCLE
  5
162
330
1F
100
AcDbEntity
  8
0
  6
Continuous
 62
     7
370
     0
100
AcDbCircle
 10
47.0243459846
 20
43.8701106175
 30
0.0
 40
0.1450000000000031
  0
CIRCLE
  5
163
330
1F
100
AcDbEntity
  8
0
  6
Continuous
 62
     7
370
     0
100
AcDbCircle
 10
47.5243459846
 20
43.8701106175
 30
0.0
 40
0.144999999999996
  0
CIRCLE
  5
164
330
1F
100
AcDbEntity
  8
0
  6
Continuous
 62
     7
370
     0
100
AcDbCircle
 10
48.0243459846
 20
43.8701106175
 30
0.0
 40
0.1450000000000031
  0
CIRCLE
  5
165
330
1F
100
AcDbEntity
  8
0
  6
Continuous
 62
     7
370
     0
100
AcDbCircle
 10
48.5243459846
 20
43.8701106175
 30
0.0
 40
0.1450000000000031
  0
CIRCLE
  5
166
330
1F
100
AcDbEntity
  8
0
  6
Continuous
 62
     7
370
     0
100
AcDbCircle
 10
49.0243459846
 20
43.8701106175
 30
0.0
 40
0.1450000000000031
  0
CIRCLE
  5
167
330
1F
100
AcDbEntity
  8
0
  6
Continuous
 62
     7
370
     0
100
AcDbCircle
 10
49.5243459846
 20
43.8701106175
 30
0.0
 40
0.1450000000000031
  0
ARC
  5
168
330
1F
100
AcDbEntity
  8
0
  6
Continuous
 62
     7
370
     0
100
AcDbCircle
 10
50.0243459846
 20
43.8701106175
 30
0.0
 40
0.1450000000000042
100
AcDbArc
 50
65.8567720217
 51
259.0920912308
  0
CIRCLE
  5
169
330
1F
100
AcDbEntity
  8
0
  6
Continuous
 62
     7
370
     0
100
AcDbCircle
 10
41.0243459846
 20
43.3701106175
 30
0.0
 40
0.144999999999996
  0
CIRCLE
  5
16A
330
1F
100
AcDbEntity
  8
0
  6
Continuous
 62
     7
370
     0
100
AcDbCircle
 10
41.5243459846
 20
43.3701106175
 30
0.0
 40
0.144999999999996
  0
CIRCLE
  5
16B
330
1F
100
AcDbEntity
  8
0
  6
Continuous
 62
     7
370
     0
100
AcDbCircle
 10
42.0243459846
 20
43.3701106175
 30
0.0
 40
0.144999999999996
  0
CIRCLE
  5
16C
330
1F
100
AcDbEntity
  8
0
  6
Continuous
 62
     7
370
     0
100
AcDbCircle
 10
42.5243459846
 20
43.3701106175
 30
0.0
 40
0.144999999999996
  0
CIRCLE
  5
16D
330
1F
100
AcDbEntity
  8
0
  6
Continuous
 62
     7
370
     0
100
AcDbCircle
 10
43.0243459846
 20
43.3701106175
 30
0.0
 40
0.144999999999996
  0
CIRCLE
  5
16E
330
1F
100
AcDbEntity
  8
0
  6
Continuous
 62
     7
370
     0
100
AcDbCircle
 10
43.5243459846
 20
43.3701106175
 30
0.0
 40
0.144999999999996
  0
CIRCLE
  5
16F
330
1F
100
AcDbEntity
  8
0
  6
Continuous
 62
     7
370
     0
100
AcDbCircle
 10
44.0243459846
 20
43.3701106175
 30
0.0
 40
0.144999999999996
  0
CIRCLE
  5
170
330
1F
100
AcDbEntity
  8
0
  6
Continuous
 62
     7
370
     0
100
AcDbCircle
 10
44.5243459846
 20
43.3701106175
 30
0.0
 40
0.1450000000000031
  0
CIRCLE
  5
171
330
1F
100
AcDbEntity
  8
0
  6
Continuous
 62
     7
370
     0
100
AcDbCircle
 10
45.0243459846
 20
43.3701106175
 30
0.0
 40
0.1450000000000031
  0
CIRCLE
  5
172
330
1F
100
AcDbEntity
  8
0
  6
Continuous
 62
     7
370
     0
100
AcDbCircle
 10
45.5243459846
 20
43.3701106175
 30
0.0
 40
0.1450000000000031
  0
CIRCLE
  5
173
330
1F
100
AcDbEntity
  8
0
  6
Continuous
 62
     7
370
     0
100
AcDbCircle
 10
46.0243459846
 20
43.3701106175
 30
0.0
 40
0.1450000000000031
  0
CIRCLE
  5
174
330
1F
100
AcDbEntity
  8
0
  6
Continuous
 62
     7
370
     0
100
AcDbCircle
 10
46.5243459846
 20
43.3701106175
 30
0.0
 40
0.1450000000000031
  0
CIRCLE
  5
175
330
1F
100
AcDbEntity
  8
0
  6
Continuous
 62
     7
370
     0
100
AcDbCircle
 10
47.0243459846
 20
43.3701106175
 30
0.0
 40
0.144999999999996
  0
CIRCLE
  5
176
330
1F
100
AcDbEntity
  8
0
  6
Continuous
 62
     7
370
     0
100
AcDbCircle
 10
47.5243459846
 20
43.3701106175
 30
0.0
 40
0.1450000000000031
  0
CIRCLE
  5
177
330
1F
100
AcDbEntity
  8
0
  6
Continuous
 62
     7
370
     0
100
AcDbCircle
 10
48.0243459846
 20
43.3701106175
 30
0.0
 40
0.1450000000000031
  0
CIRCLE
  5
178
330
1F
100
AcDbEntity
  8
0
  6
Continuous
 62
     7
370
     0
100
AcDbCircle
 10
48.5243459846
 20
43.3701106175
 30
0.0
 40
0.1450000000000031
  0
CIRCLE
  5
179
330
1F
100
AcDbEntity
  8
0
  6
Continuous
 62
     7
370
     0
100
AcDbCircle
 10
49.0243459846
 20
43.3701106175
 30
0.0
 40
0.1450000000000031
  0
CIRCLE
  5
17A
330
1F
100
AcDbEntity
  8
0
  6
Continuous
 62
     7
370
     0
100
AcDbCircle
 10
49.5243459846
 20
43.3701106175
 30
0.0
 40
0.1450000000000031
  0
ARC
  5
17B
330
1F
100
AcDbEntity
  8
0
  6
Continuous
 62
     7
370
     0
100
AcDbCircle
 10
41.0243459846
 20
42.8701106175
 30
0.0
 40
0.1450000000000037
100
AcDbArc
 50
272.6846687806
 51
148.2464210583
  0
CIRCLE
  5
17C
330
1F
100
AcDbEntity
  8
0
  6
Continuous
 62
     7
370
     0
100
AcDbCircle
 10
41.5243459846
 20
42.8701106175
 30
0.0
 40
0.144999999999996
  0
CIRCLE
  5
17D
330
1F
100
AcDbEntity
  8
0
  6
Continuous
 62
     7
370
     0
100
AcDbCircle
 10
42.0243459846
 20
42.8701106175
 30
0.0
 40
0.1450000000000031
  0
CIRCLE
  5
17E
330
1F
100
AcDbEntity
  8
0
  6
Continuous
 62
     7
370
     0
100
AcDbCircle
 10
42.5243459846
 20
42.8701106175
 30
0.0
 40
0.1450000000000031
  0
CIRCLE
  5
17F
330
1F
100
AcDbEntity
  8
0
  6
Continuous
 62
     7
370
     0
100
AcDbCircle
 10
43.0243459846
 20
42.8701106175
 30
0.0
 40
0.1450000000000031
  0
CIRCLE
  5
180
330
1F
100
AcDbEntity
  8
0
  6
Continuous
 62
     7
370
     0
100
AcDbCircle
 10
43.5243459846
 20
42.8701106175
 30
0.0
 40
0.1450000000000031
  0
CIRCLE
  5
181
330
1F
100
AcDbEntity
  8
0
  6
Continuous
 62
     7
370
     0
100
AcDbCircle
 10
44.0243459846
 20
42.8701106175
 30
0.0
 40
0.1450000000000031
  0
CIRCLE
  5
182
330
1F
100
AcDbEntity
  8
0
  6
Continuous
 62
     7
370
     0
100
AcDbCircle
 10
44.5243459846
 20
42.8701106175
 30
0.0
 40
0.1450000000000031
  0
CIRCLE
  5
183
330
1F
100
AcDbEntity
  8
0
  6
Continuous
 62
     7
370
     0
100
AcDbCircle
 10
45.0243459846
 20
42.8701106175
 30
0.0
 40
0.1450000000000031
  0
CIRCLE
  5
184
330
1F
100
AcDbEntity
  8
0
  6
Continuous
 62
     7
370
     0
100
AcDbCircle
 10
45.5243459846
 20
42.8701106175
 30
0.0
 40
0.1450000000000031
  0
CIRCLE
  5
185
330
1F
100
AcDbEntity
  8
0
  6
Continuous
 62
     7
370
     0
100
AcDbCircle
 10
46.0243459846
 20
42.8701106175
 30
0.0
 40
0.1450000000000031
  0
CIRCLE
  5
186
330
1F
100
AcDbEntity
  8
0
  6
Continuous
 62
     7
370
     0
100
AcDbCircle
 10
46.5243459846
 20
42.8701106175
 30
0.0
 40
0.1450000000000031
  0
CIRCLE
  5
187
330
1F
100
AcDbEntity
  8
0
  6
Continuous
 62
     7
370
     0
100
AcDbCircle
 10
47.0243459846
 20
42.8701106175
 30
0.0
 40
0.1450000000000031
  0
CIRCLE
  5
188
330
1F
100
AcDbEntity
  8
0
  6
Continuous
 62
     7
370
     0
100
AcDbCircle
 10
47.5243459846
 20
42.8701106175
 30
0.0
 40
0.144999999999996
  0
CIRCLE
  5
189
330
1F
100
AcDbEntity
  8
0
  6
Continuous
 62
     7
370
     0
100
AcDbCircle
 10
48.0243459846
 20
42.8701106175
 30
0.0
 40
0.1450000000000031
  0
CIRCLE
  5
18A
330
1F
100
AcDbEntity
  8
0
  6
Continuous
 62
     7
370
     0
100
AcDbCircle
 10
48.5243459846
 20
42.8701106175
 30
0.0
 40
0.1450000000000031
  0
CIRCLE
  5
18B
330
1F
100
AcDbEntity
  8
0
  6
Continuous
 62
     7
370
     0
100
AcDbCircle
 10
49.0243459846
 20
42.8701106175
 30
0.0
 40
0.1450000000000031
  0
ARC
  5
18C
330
1F
100
AcDbEntity
  8
0
  6
Continuous
 62
     7
370
     0
100
AcDbCircle
 10
49.5243459846
 20
42.8701106175
 30
0.0
 40
0.145000000000001
100
AcDbArc
 50
31.7535789417
 51
267.3153312194
  0
CIRCLE
  5
18D
330
1F
100
AcDbEntity
  8
0
  6
Continuous
 62
     7
370
     0
100
AcDbCircle
 10
41.5243459846
 20
42.3701106175
 30
0.0
 40
0.1450000000000031
  0
CIRCLE
  5
18E
330
1F
100
AcDbEntity
  8
0
  6
Continuous
 62
     7
370
     0
100
AcDbCircle
 10
42.0243459846
 20
42.3701106175
 30
0.0
 40
0.144999999999996
  0
CIRCLE
  5
18F
330
1F
100
AcDbEntity
  8
0
  6
Continuous
 62
     7
370
     0
100
AcDbCircle
 10
42.5243459846
 20
42.3701106175
 30
0.0
 40
0.144999999999996
  0
CIRCLE
  5
190
330
1F
100
AcDbEntity
  8
0
  6
Continuous
 62
     7
370
     0
100
AcDbCircle
 10
43.0243459846
 20
42.3701106175
 30
0.0
 40
0.144999999999996
  0
CIRCLE
  5
191
330
1F
100
AcDbEntity
  8
0
  6
Continuous
 62
     7
370
     0
100
AcDbCircle
 10
43.5243459846
 20
42.3701106175
 30
0.0
 40
0.1450000000000031
  0
CIRCLE
  5
192
330
1F
100
AcDbEntity
  8
0
  6
Continuous
 62
     7
370
     0
100
AcDbCircle
 10
44.0243459846
 20
42.3701106175
 30
0.0
 40
0.1450000000000031
  0
CIRCLE
  5
193
330
1F
100
AcDbEntity
  8
0
  6
Continuous
 62
     7
370
     0
100
AcDbCircle
 10
44.5243459846
 20
42.3701106175
 30
0.0
 40
0.1450000000000031
  0
CIRCLE
  5
194
330
1F
100
AcDbEntity
  8
0
  6
Continuous
 62
     7
370
     0
100
AcDbCircle
 10
45.0243459846
 20
42.3701106175
 30
0.0
 40
0.1450000000000031
  0
CIRCLE
  5
195
330
1F
100
AcDbEntity
  8
0
  6
Continuous
 62
     7
370
     0
100
AcDbCircle
 10
45.5243459846
 20
42.3701106175
 30
0.0
 40
0.144999999999996
  0
CIRCLE
  5
196
330
1F
100
AcDbEntity
  8
0
  6
Continuous
 62
     7
370
     0
100
AcDbCircle
 10
46.0243459846
 20
42.3701106175
 30
0.0
 40
0.144999999999996
  0
CIRCLE
  5
197
330
1F
100
AcDbEntity
  8
0
  6
Continuous
 62
     7
370
     0
100
AcDbCircle
 10
46.5243459846
 20
42.3701106175
 30
0.0
 40
0.144999999999996
  0
CIRCLE
  5
198
330
1F
100
AcDbEntity
  8
0
  6
Continuous
 62
     7
370
     0
100
AcDbCircle
 10
47.0243459846
 20
42.3701106175
 30
0.0
 40
0.144999999999996
  0
CIRCLE
  5
199
330
1F
100
AcDbEntity
  8
0
  6
Continuous
 62
     7
370
     0
100
AcDbCircle
 10
47.5243459846
 20
42.3701106175
 30
0.0
 40
0.144999999999996
  0
CIRCLE
  5
19A
330
1F
100
AcDbEntity
  8
0
  6
Continuous
 62
     7
370
     0
100
AcDbCircle
 10
48.0243459846
 20
42.3701106175
 30
0.0
 40
0.144999999999996
  0
CIRCLE
  5
19B
330
1F
100
AcDbEntity
  8
0
  6
Continuous
 62
     7
370
     0
100
AcDbCircle
 10
48.5243459846
 20
42.3701106175
 30
0.0
 40
0.144999999999996
  0
CIRCLE
  5
19C
330
1F
100
AcDbEntity
  8
0
  6
Continuous
 62
     7
370
     0
100
AcDbCircle
 10
49.0243459846
 20
42.3701106175
 30
0.0
 40
0.144999999999996
  0
ARC
  5
19D
330
1F
100
AcDbEntity
  8
0
  6
Continuous
 62
     7
370
     0
100
AcDbCircle
 10
41.5243459846
 20
41.8701106175
 30
0.0
 40
0.1450000000000045
100
AcDbArc
 50
16.719297465
 51
69.3308345132
  0
CIRCLE
  5
19E
330
1F
100
AcDbEntity
  8
0
  6
Continuous
 62
     7
370
     0
100
AcDbCircle
 10
42.0243459846
 20
41.8701106175
 30
0.0
 40
0.144999999999996
  0
CIRCLE
  5
19F
330
1F
100
AcDbEntity
  8
0
  6
Continuous
 62
     7
370
     0
100
AcDbCircle
 10
42.5243459846
 20
41.8701106175
 30
0.0
 40
0.1450000000000031
  0
CIRCLE
  5
1A0
330
1F
100
AcDbEntity
  8
0
  6
Continuous
 62
     7
370
     0
100
AcDbCircle
 10
43.0243459846
 20
41.8701106175
 30
0.0
 40
0.1450000000000031
  0
CIRCLE
  5
1A1
330
1F
100
AcDbEntity
  8
0
  6
Continuous
 62
     7
370
     0
100
AcDbCircle
 10
43.5243459846
 20
41.8701106175
 30
0.0
 40
0.1450000000000031
  0
CIRCLE
  5
1A2
330
1F
100
AcDbEntity
  8
0
  6
Continuous
 62
     7
370
     0
100
AcDbCircle
 10
44.0243459846
 20
41.8701106175
 30
0.0
 40
0.1450000000000031
  0
CIRCLE
  5
1A3
330
1F
100
AcDbEntity
  8
0
  6
Continuous
 62
     7
370
     0
100
AcDbCircle
 10
44.5243459846
 20
41.8701106175
 30
0.0
 40
0.1450000000000031
  0
CIRCLE
  5
1A4
330
1F
100
AcDbEntity
  8
0
  6
Continuous
 62
     7
370
     0
100
AcDbCircle
 10
45.0243459846
 20
41.8701106175
 30
0.0
 40
0.144999999999996
  0
CIRCLE
  5
1A5
330
1F
100
AcDbEntity
  8
0
  6
Continuous
 62
     7
370
     0
100
AcDbCircle
 10
45.5243459846
 20
41.8701106175
 30
0.0
 40
0.144999999999996
  0
CIRCLE
  5
1A6
330
1F
100
AcDbEntity
  8
0
  6
Continuous
 62
     7
370
     0
100
AcDbCircle
 10
46.0243459846
 20
41.8701106175
 30
0.0
 40
0.144999999999996
  0
CIRCLE
  5
1A7
330
1F
100
AcDbEntity
  8
0
  6
Continuous
 62
     7
370
     0
100
AcDbCircle
 10
46.5243459846
 20
41.8701106175
 30
0.0
 40
0.144999999999996
  0
CIRCLE
  5
1A8
330
1F
100
AcDbEntity
  8
0
  6
Continuous
 62
     7
370
     0
100
AcDbCircle
 10
47.0243459846
 20
41.8701106175
 30
0.0
 40
0.144999999999996
  0
CIRCLE
  5
1A9
330
1F
100
AcDbEntity
  8
0
  6
Continuous
 62
     7
370
     0
100
AcDbCircle
 10
47.5243459846
 20
41.8701106175
 30
0.0
 40
0.144999999999996
  0
CIRCLE
  5
1AA
330
1F
100
AcDbEntity
  8
0
  6
Continuous
 62
     7
370
     0
100
AcDbCircle
 10
48.0243459846
 20
41.8701106175
 30
0.0
 40
0.144999999999996
  0
CIRCLE
  5
1AB
330
1F
100
AcDbEntity
  8
0
  6
Continuous
 62
     7
370
     0
100
AcDbCircle
 10
48.5243459846
 20
41.8701106175
 30
0.0
 40
0.1450000000000031
  0
ARC
  5
1AC
330
1F
100
AcDbEntity
  8
0
  6
Continuous
 62
     7
370
     0
100
AcDbCircle
 10
49.0243459846
 20
41.8701106175
 30
0.0
 40
0.1450000000000105
100
AcDbArc
 50
110.6691654868
 51
163.280702535
  0
CIRCLE
  5
1AD
330
1F
100
AcDbEntity
  8
0
  6
Continuous
 62
     7
370
     0
100
AcDbCircle
 10
42.5243459846
 20
41.3701106175
 30
0.0
 40
0.144999999999996
  0
CIRCLE
  5
1AE
330
1F
100
AcDbEntity
  8
0
  6
Continuous
 62
     7
370
     0
100
AcDbCircle
 10
43.0243459846
 20
41.3701106175
 30
0.0
 40
0.144999999999996
  0
CIRCLE
  5
1AF
330
1F
100
AcDbEntity
  8
0
  6
Continuous
 62
     7
370
     0
100
AcDbCircle
 10
43.5243459846
 20
41.3701106175
 30
0.0
 40
0.1450000000000031
  0
CIRCLE
  5
1B0
330
1F
100
AcDbEntity
  8
0
  6
Continuous
 62
     7
370
     0
100
AcDbCircle
 10
44.0243459846
 20
41.3701106175
 30
0.0
 40
0.1450000000000031
  0
CIRCLE
  5
1B1
330
1F
100
AcDbEntity
  8
0
  6
Continuous
 62
     7
370
     0
100
AcDbCircle
 10
44.5243459846
 20
41.3701106175
 30
0.0
 40
0.1450000000000031
  0
CIRCLE
  5
1B2
330
1F
100
AcDbEntity
  8
0
  6
Continuous
 62
     7
370
     0
100
AcDbCircle
 10
45.0243459846
 20
41.3701106175
 30
0.0
 40
0.1450000000000031
  0
CIRCLE
  5
1B3
330
1F
100
AcDbEntity
  8
0
  6
Continuous
 62
     7
370
     0
100
AcDbCircle
 10
45.5243459846
 20
41.3701106175
 30
0.0
 40
0.1450000000000031
  0
CIRCLE
  5
1B4
330
1F
100
AcDbEntity
  8
0
  6
Continuous
 62
     7
370
     0
100
AcDbCircle
 10
46.0243459846
 20
41.3701106175
 30
0.0
 40
0.144999999999996
  0
CIRCLE
  5
1B5
330
1F
100
AcDbEntity
  8
0
  6
Continuous
 62
     7
370
     0
100
AcDbCircle
 10
46.5243459846
 20
41.3701106175
 30
0.0
 40
0.144999999999996
  0
CIRCLE
  5
1B6
330
1F
100
AcDbEntity
  8
0
  6
Continuous
 62
     7
370
     0
100
AcDbCircle
 10
47.0243459846
 20
41.3701106175
 30
0.0
 40
0.144999999999996
  0
CIRCLE
  5
1B7
330
1F
100
AcDbEntity
  8
0
  6
Continuous
 62
     7
370
     0
100
AcDbCircle
 10
47.5243459846
 20
41.3701106175
 30
0.0
 40
0.144999999999996
  0
CIRCLE
  5
1B8
330
1F
100
AcDbEntity
  8
0
  6
Continuous
 62
     7
370
     0
100
AcDbCircle
 10
48.0243459846
 20
41.3701106175
 30
0.0
 40
0.144999999999996
  0
ARC
  5
1B9
330
1F
100
AcDbEntity
  8
0
  6
Continuous
 62
     7
370
     0
100
AcDbCircle
 10
43.0243459846
 20
40.8701106175
 30
0.0
 40
0.1450000000000024
100
AcDbArc
 50
346.6491971181
 51
140.2207005278
  0
CIRCLE
  5
1BA
330
1F
100
AcDbEntity
  8
0
  6
Continuous
 62
     7
370
     0
100
AcDbCircle
 10
43.5243459846
 20
40.8701106175
 30
0.0
 40
0.1450000000000031
  0
CIRCLE
  5
1BB
330
1F
100
AcDbEntity
  8
0
  6
Continuous
 62
     7
370
     0
100
AcDbCircle
 10
44.0243459846
 20
40.8701106175
 30
0.0
 40
0.1450000000000031
  0
CIRCLE
  5
1BC
330
1F
100
AcDbEntity
  8
0
  6
Continuous
 62
     7
370
     0
100
AcDbCircle
 10
44.5243459846
 20
40.8701106175
 30
0.0
 40
0.1450000000000031
  0
CIRCLE
  5
1BD
330
1F
100
AcDbEntity
  8
0
  6
Continuous
 62
     7
370
     0
100
AcDbCircle
 10
45.0243459846
 20
40.8701106175
 30
0.0
 40
0.1450000000000031
  0
CIRCLE
  5
1BE
330
1F
100
AcDbEntity
  8
0
  6
Continuous
 62
     7
370
     0
100
AcDbCircle
 10
45.5243459846
 20
40.8701106175
 30
0.0
 40
0.1450000000000031
  0
CIRCLE
  5
1BF
330
1F
100
AcDbEntity
  8
0
  6
Continuous
 62
     7
370
     0
100
AcDbCircle
 10
46.0243459846
 20
40.8701106175
 30
0.0
 40
0.1450000000000031
  0
CIRCLE
  5
1C0
330
1F
100
AcDbEntity
  8
0
  6
Continuous
 62
     7
370
     0
100
AcDbCircle
 10
46.5243459846
 20
40.8701106175
 30
0.0
 40
0.144999999999996
  0
CIRCLE
  5
1C1
330
1F
100
AcDbEntity
  8
0
  6
Continuous
 62
     7
370
     0
100
AcDbCircle
 10
47.0243459846
 20
40.8701106175
 30
0.0
 40
0.144999999999996
  0
ARC
  5
1C2
330
1F
100
AcDbEntity
  8
0
  6
Continuous
 62
     7
370
     0
100
AcDbCircle
 10
47.5243459846
 20
40.8701106175
 30
0.0
 40
0.1450000000000061
100
AcDbArc
 50
39.7792994722
 51
193.350802882
  0
ARC
  5
1C3
330
1F
100
AcDbEntity
  8
0
  6
Continuous
 62
     7
370
     0
100
AcDbCircle
 10
44.5243459846
 20
40.3701106175
 30
0.0
 40
0.1449999999999974
100
AcDbArc
 50
14.9211110346
 51
148.0173577455
  0
ARC
  5
1C4
330
1F
100
AcDbEntity
  8
0
  6
Continuous
 62
     7
370
     0
100
AcDbCircle
 10
45.0243459846
 20
40.3701106175
 30
0.0
 40
0.1449999999999975
100
AcDbArc
 50
0.435732539
 51
173.8394570088
  0
ARC
  5
1C5
330
1F
100
AcDbEntity
  8
0
  6
Continuous
 62
     7
370
     0
100
AcDbCircle
 10
45.5243459846
 20
40.3701106175
 30
0.0
 40
0.1450000000000047
100
AcDbArc
 50
6.1605429912
 51
179.564267461
  0
ARC
  5
1C6
330
1F
100
AcDbEntity
  8
0
  6
Continuous
 62
     7
370
     0
100
AcDbCircle
 10
46.0243459846
 20
40.3701106175
 30
0.0
 40
0.1450000000000072
100
AcDbArc
 50
31.9826422545
 51
165.0788889654
  0
CIRCLE
  5
1C7
330
1F
100
AcDbEntity
  8
0
  6
Continuous
 62
     7
370
     0
100
AcDbCircle
 10
40.5243459846
 20
44.8701106175
 30
0.0
 40
0.1450000000000031
  0
CIRCLE
  5
1C8
330
1F
100
AcDbEntity
  8
0
  6
Continuous
 62
     7
370
     0
100
AcDbCircle
 10
41.0243459846
 20
44.8701106175
 30
0.0
 40
0.1450000000000031
  0
CIRCLE
  5
1C9
330
1F
100
AcDbEntity
  8
0
  6
Continuous
 62
     7
370
     0
100
AcDbCircle
 10
41.5243459846
 20
44.8701106175
 30
0.0
 40
0.144999999999996
  0
CIRCLE
  5
1CA
330
1F
100
AcDbEntity
  8
0
  6
Continuous
 62
     7
370
     0
100
AcDbCircle
 10
42.0243459846
 20
44.8701106175
 30
0.0
 40
0.144999999999996
  0
CIRCLE
  5
1CB
330
1F
100
AcDbEntity
  8
0
  6
Continuous
 62
     7
370
     0
100
AcDbCircle
 10
50.0243459846
 20
44.8701106175
 30
0.0
 40
0.144999999999996
  0
CIRCLE
  5
1CC
330
1F
100
AcDbEntity
  8
0
  6
Continuous
 62
     7
370
     0
100
AcDbCircle
 10
40.5243459846
 20
44.3701106175
 30
0.0
 40
0.144999999999996
  0
CIRCLE
  5
1CD
330
1F
100
AcDbEntity
  8
0
  6
Continuous
 62
     7
370
     0
100
AcDbCircle
 10
46.5243459846
 20
45.3701106175
 30
0.0
 40
0.144999999999996
  0
CIRCLE
  5
1CE
330
1F
100
AcDbEntity
  8
0
  6
Continuous
 62
     7
370
     0
100
AcDbCircle
 10
47.0243459846
 20
45.3701106175
 30
0.0
 40
0.144999999999996
  0
CIRCLE
  5
1CF
330
1F
100
AcDbEntity
  8
0
  6
Continuous
 62
     7
370
     0
100
AcDbCircle
 10
47.5243459846
 20
45.3701106175
 30
0.0
 40
0.1450000000000031
  0
CIRCLE
  5
1D0
330
1F
100
AcDbEntity
  8
0
  6
Continuous
 62
     7
370
     0
100
AcDbCircle
 10
48.0243459846
 20
45.3701106175
 30
0.0
 40
0.1450000000000031
  0
CIRCLE
  5
1D1
330
1F
100
AcDbEntity
  8
0
  6
Continuous
 62
     7
370
     0
100
AcDbCircle
 10
48.5243459846
 20
45.3701106175
 30
0.0
 40
0.1450000000000031
  0
CIRCLE
  5
1D2
330
1F
100
AcDbEntity
  8
0
  6
Continuous
 62
     7
370
     0
100
AcDbCircle
 10
41.5243459846
 20
45.3701106175
 30
0.0
 40
0.144999999999996
  0
CIRCLE
  5
1D3
330
1F
100
AcDbEntity
  8
0
  6
Continuous
 62
     7
370
     0
100
AcDbCircle
 10
42.0243459846
 20
45.3701106175
 30
0.0
 40
0.1450000000000102
  0
CIRCLE
  5
1D4
330
1F
100
AcDbEntity
  8
0
  6
Continuous
 62
     7
370
     0
100
AcDbCircle
 10
42.5243459846
 20
45.3701106175
 30
0.0
 40
0.1450000000000102
  0
CIRCLE
  5
1D5
330
1F
100
AcDbEntity
  8
0
  6
Continuous
 62
     7
370
     0
100
AcDbCircle
 10
43.0243459846
 20
45.3701106175
 30
0.0
 40
0.1450000000000102
  0
CIRCLE
  5
1D6
330
1F
100
AcDbEntity
  8
0
  6
Continuous
 62
     7
370
     0
100
AcDbCircle
 10
43.5243459846
 20
45.3701106175
 30
0.0
 40
0.1450000000000102
  0
CIRCLE
  5
1D7
330
1F
100
AcDbEntity
  8
0
  6
Continuous
 62
     7
370
     0
100
AcDbCircle
 10
44.0243459846
 20
45.3701106175
 30
0.0
 40
0.144999999999996
  0
CIRCLE
  5
1D8
330
1F
100
AcDbEntity
  8
0
  6
Continuous
 62
     7
370
     0
100
AcDbCircle
 10
44.5243459846
 20
45.3701106175
 30
0.0
 40
0.144999999999996
  0
CIRCLE
  5
1D9
330
1F
100
AcDbEntity
  8
0
  6
Continuous
 62
     7
370
     0
100
AcDbCircle
 10
45.0243459846
 20
45.3701106175
 30
0.0
 40
0.144999999999996
  0
CIRCLE
  5
1DA
330
1F
100
AcDbEntity
  8
0
  6
Continuous
 62
     7
370
     0
100
AcDbCircle
 10
45.5243459846
 20
45.3701106175
 30
0.0
 40
0.144999999999996
  0
CIRCLE
  5
1DB
330
1F
100
AcDbEntity
  8
0
  6
Continuous
 62
     7
370
     0
100
AcDbCircle
 10
46.0243459846
 20
45.3701106175
 30
0.0
 40
0.144999999999996
  0
CIRCLE
  5
1DC
330
1F
100
AcDbEntity
  8
0
  6
Continuous
 62
     7
370
     0
100
AcDbCircle
 10
47.5243459846
 20
44.8701106175
 30
0.0
 40
0.144999999999996
  0
CIRCLE
  5
1DD
330
1F
100
AcDbEntity
  8
0
  6
Continuous
 62
     7
370
     0
100
AcDbCircle
 10
48.0243459846
 20
44.8701106175
 30
0.0
 40
0.144999999999996
  0
CIRCLE
  5
1DE
330
1F
100
AcDbEntity
  8
0
  6
Continuous
 62
     7
370
     0
100
AcDbCircle
 10
48.5243459846
 20
44.8701106175
 30
0.0
 40
0.144999999999996
  0
CIRCLE
  5
1DF
330
1F
100
AcDbEntity
  8
0
  6
Continuous
 62
     7
370
     0
100
AcDbCircle
 10
49.0243459846
 20
44.8701106175
 30
0.0
 40
0.144999999999996
  0
CIRCLE
  5
1E0
330
1F
100
AcDbEntity
  8
0
  6
Continuous
 62
     7
370
     0
100
AcDbCircle
 10
49.5243459846
 20
44.8701106175
 30
0.0
 40
0.144999999999996
  0
CIRCLE
  5
1E1
330
1F
100
AcDbEntity
  8
0
  6
Continuous
 62
     7
370
     0
100
AcDbCircle
 10
49.0243459846
 20
45.3701106175
 30
0.0
 40
0.1450000000000031
  0
CIRCLE
  5
1E2
330
1F
100
AcDbEntity
  8
0
  6
Continuous
 62
     7
370
     0
100
AcDbCircle
 10
49.5243459846
 20
45.3701106175
 30
0.0
 40
0.144999999999996
  0
CIRCLE
  5
1E3
330
1F
100
AcDbEntity
  8
0
  6
Continuous
 62
     7
370
     0
100
AcDbCircle
 10
50.0243459846
 20
45.3701106175
 30
0.0
 40
0.144999999999996
  0
CIRCLE
  5
1E4
330
1F
100
AcDbEntity
  8
0
  6
Continuous
 62
     7
370
     0
100
AcDbCircle
 10
43.5243459846
 20
44.8701106175
 30
0.0
 40
0.144999999999996
  0
CIRCLE
  5
1E5
330
1F
100
AcDbEntity
  8
0
  6
Continuous
 62
     7
370
     0
100
AcDbCircle
 10
44.0243459846
 20
44.8701106175
 30
0.0
 40
0.144999999999996
  0
CIRCLE
  5
1E6
330
1F
100
AcDbEntity
  8
0
  6
Continuous
 62
     7
370
     0
100
AcDbCircle
 10
44.5243459846
 20
44.8701106175
 30
0.0
 40
0.144999999999996
  0
CIRCLE
  5
1E7
330
1F
100
AcDbEntity
  8
0
  6
Continuous
 62
     7
370
     0
100
AcDbCircle
 10
45.0243459846
 20
44.8701106175
 30
0.0
 40
0.144999999999996
  0
CIRCLE
  5
1E8
330
1F
100
AcDbEntity
  8
0
  6
Continuous
 62
     7
370
     0
100
AcDbCircle
 10
45.5243459846
 20
44.8701106175
 30
0.0
 40
0.1450000000000102
  0
CIRCLE
  5
1E9
330
1F
100
AcDbEntity
  8
0
  6
Continuous
 62
     7
370
     0
100
AcDbCircle
 10
46.0243459846
 20
44.8701106175
 30
0.0
 40
0.1450000000000102
  0
CIRCLE
  5
1EA
330
1F
100
AcDbEntity
  8
0
  6
Continuous
 62
     7
370
     0
100
AcDbCircle
 10
42.5243459846
 20
44.8701106175
 30
0.0
 40
0.144999999999996
  0
CIRCLE
  5
1EB
330
1F
100
AcDbEntity
  8
0
  6
Continuous
 62
     7
370
     0
100
AcDbCircle
 10
43.0243459846
 20
44.8701106175
 30
0.0
 40
0.144999999999996
  0
CIRCLE
  5
1EC
330
1F
100
AcDbEntity
  8
0
  6
Continuous
 62
     7
370
     0
100
AcDbCircle
 10
46.5243459846
 20
44.8701106175
 30
0.0
 40
0.1450000000000102
  0
CIRCLE
  5
1ED
330
1F
100
AcDbEntity
  8
0
  6
Continuous
 62
     7
370
     0
100
AcDbCircle
 10
47.0243459846
 20
44.8701106175
 30
0.0
 40
0.1450000000000102
  0
LINE
  5
1EE
330
1F
100
AcDbEntity
  8
0
  6
Continuous
 62
     7
370
     0
100
AcDbLine
 10
55.8868459846
 20
41.3177434734
 30
0.0
 11
55.8868459846
 21
44.4224777615
 31
0.0
  0
LINE
  5
1EF
330
1F
100
AcDbEntity
  8
0
  6
Continuous
 62
     7
370
     0
100
AcDbLine
 10
34.6618459846
 20
49.4224777615
 30
0.0
 11
34.6618459846
 21
46.3177434734
 31
0.0
  0
LINE
  5
1F0
330
1F
100
AcDbEntity
  8
0
  6
Continuous
 62
     7
370
     0
100
AcDbLine
 10
40.7743459846
 20
25.7576106175
 30
0.0
 11
33.7743459846
 21
25.7576106175
 31
0.0
  0
LINE
  5
1F1
330
1F
100
AcDbEntity
  8
0
  6
Continuous
 62
     7
370
     0
100
AcDbLine
 10
33.7743459846
 20
25.7576106175
 30
0.0
 11
33.7743459846
 21
27.7576106175
 31
0.0
  0
LINE
  5
1F2
330
1F
100
AcDbEntity
  8
0
  6
Continuous
 62
     7
370
     0
100
AcDbLine
 10
56.7743459846
 20
25.7576106175
 30
0.0
 11
49.7743459846
 21
25.7576106175
 31
0.0
  0
LINE
  5
1F3
330
1F
100
AcDbEntity
  8
0
  6
Continuous
 62
     7
370
     0
100
AcDbLine
 10
56.7743459846
 20
27.7576106175
 30
0.0
 11
56.7743459846
 21
25.7576106175
 31
0.0
  0
ARC
  5
1F4
330
1F
100
AcDbEntity
  8
0
  6
Continuous
 62
     7
370
     0
100
AcDbCircle
 10
31.7743459846
 20
34.7576106175
 30
0.0
 40
2.000000000000007
100
AcDbArc
 50
0.0
 51
90.0
  0
LINE
  5
1F5
330
1F
100
AcDbEntity
  8
0
  6
Continuous
 62
     7
370
     0
100
AcDbLine
 10
30.9743459846
 20
36.7576106175
 30
0.0
 11
31.7743459846
 21
36.7576106175
 31
0.0
  0
ARC
  5
1F6
330
1F
100
AcDbEntity
  8
0
  6
Continuous
 62
     7
370
     0
100
AcDbCircle
 10
30.9743459846
 20
38.7576106175
 30
0.0
 40
2.000000000000004
100
AcDbArc
 50
180.0
 51
270.0
  0
LINE
  5
1F7
330
1F
100
AcDbEntity
  8
0
  6
Continuous
 62
     7
370
     0
100
AcDbLine
 10
28.9743459846
 20
51.9826106175
 30
0.0
 11
28.9743459846
 21
38.7576106175
 31
0.0
  0
ARC
  5
1F8
330
1F
100
AcDbEntity
  8
0
  6
Continuous
 62
     7
370
     0
100
AcDbCircle
 10
30.9743459846
 20
51.9826106175
 30
0.0
 40
2.000000000000004
100
AcDbArc
 50
90.0
 51
180.0
  0
LINE
  5
1F9
330
1F
100
AcDbEntity
  8
0
  6
Continuous
 62
     7
370
     0
100
AcDbLine
 10
31.7743459846
 20
53.9826106175
 30
0.0
 11
30.9743459846
 21
53.9826106175
 31
0.0
  0
ARC
  5
1FA
330
1F
100
AcDbEntity
  8
0
  6
Continuous
 62
     7
370
     0
100
AcDbCircle
 10
31.7743459846
 20
55.9826106175
 30
0.0
 40
2.000000000000007
100
AcDbArc
 50
270.0
 51
0.0
  0
LINE
  5
1FB
330
1F
100
AcDbEntity
  8
0
  6
Continuous
 62
     7
370
     0
100
AcDbLine
 10
33.7743459846
 20
62.9826106175
 30
0.0
 11
33.7743459846
 21
55.9826106175
 31
0.0
  0
LINE
  5
1FC
330
1F
100
AcDbEntity
  8
0
  6
Continuous
 62
     7
370
     0
100
AcDbLine
 10
56.7743459846
 20
55.9826106175
 30
0.0
 11
56.7743459846
 21
62.9826106175
 31
0.0
  0
ARC
  5
1FD
330
1F
100
AcDbEntity
  8
0
  6
Continuous
 62
     7
370
     0
100
AcDbCircle
 10
58.7743459846
 20
55.9826106175
 30
0.0
 40
1.999999999999993
100
AcDbArc
 50
180.0
 51
270.0
  0
LINE
  5
1FE
330
1F
100
AcDbEntity
  8
0
  6
Continuous
 62
     7
370
     0
100
AcDbLine
 10
59.5743459846
 20
53.9826106175
 30
0.0
 11
58.7743459846
 21
53.9826106175
 31
0.0
  0
ARC
  5
1FF
330
1F
100
AcDbEntity
  8
0
  6
Continuous
 62
     7
370
     0
100
AcDbCircle
 10
59.5743459846
 20
51.9826106175
 30
0.0
 40
2.0
100
AcDbArc
 50
0.0
 51
90.0
  0
LINE
  5
200
330
1F
100
AcDbEntity
  8
0
  6
Continuous
 62
     7
370
     0
100
AcDbLine
 10
61.5743459846
 20
38.7576106175
 30
0.0
 11
61.5743459846
 21
51.9826106175
 31
0.0
  0
ARC
  5
201
330
1F
100
AcDbEntity
  8
0
  6
Continuous
 62
     7
370
     0
100
AcDbCircle
 10
59.5743459846
 20
38.7576106175
 30
0.0
 40
2.0
100
AcDbArc
 50
270.0
 51
0.0
  0
LINE
  5
202
330
1F
100
AcDbEntity
  8
0
  6
Continuous
 62
     7
370
     0
100
AcDbLine
 10
58.7743459846
 20
36.7576106175
 30
0.0
 11
59.5743459846
 21
36.7576106175
 31
0.0
  0
ARC
  5
203
330
1F
100
AcDbEntity
  8
0
  6
Continuous
 62
     7
370
     0
100
AcDbCircle
 10
58.7743459846
 20
34.7576106175
 30
0.0
 40
2.0
100
AcDbArc
 50
90.0
 51
180.0
  0
LINE
  5
204
330
1F
100
AcDbEntity
  8
0
  6
Continuous
 62
     7
370
     0
100
AcDbLine
 10
33.7743459846
 20
34.7576106175
 30
0.0
 11
33.7743459846
 21
27.7576106175
 31
0.0
  0
LINE
  5
205
330
1F
100
AcDbEntity
  8
0
  6
Continuous
 62
     7
370
     0
100
AcDbLine
 10
56.7743459846
 20
27.7576106175
 30
0.0
 11
56.7743459846
 21
34.7576106175
 31
0.0
  0
LINE
  5
206
330
1F
100
AcDbEntity
  8
0
  6
Continuous
 62
     7
370
     0
100
AcDbLine
 10
33.7743459846
 20
64.9826106175
 30
0.0
 11
56.7743459846
 21
64.9826106175
 31
0.0
  0
LINE
  5
207
330
1F
100
AcDbEntity
  8
0
  6
Continuous
 62
     7
370
     0
100
AcDbLine
 10
56.7743459846
 20
64.9826106175
 30
0.0
 11
56.7743459846
 21
62.9826106175
 31
0.0
  0
LINE
  5
208
330
1F
100
AcDbEntity
  8
0
  6
Continuous
 62
     7
370
     0
100
AcDbLine
 10
33.7743459846
 20
62.9826106175
 30
0.0
 11
33.7743459846
 21
64.9826106175
 31
0.0
  0
CIRCLE
  5
209
330
1F
100
AcDbEntity
  8
0
  6
Continuous
 62
     7
370
     0
100
AcDbCircle
 10
52.5243459846
 20
52.3701106175
 30
0.0
 40
0.144999999999996
  0
CIRCLE
  5
20A
330
1F
100
AcDbEntity
  8
0
  6
Continuous
 62
     7
370
     0
100
AcDbCircle
 10
53.0243459846
 20
52.3701106175
 30
0.0
 40
0.144999999999996
  0
CIRCLE
  5
20B
330
1F
100
AcDbEntity
  8
0
  6
Continuous
 62
     7
370
     0
100
AcDbCircle
 10
38.5243459846
 20
51.8701106175
 30
0.0
 40
0.144999999999996
  0
CIRCLE
  5
20C
330
1F
100
AcDbEntity
  8
0
  6
Continuous
 62
     7
370
     0
100
AcDbCircle
 10
39.0243459846
 20
51.8701106175
 30
0.0
 40
0.144999999999996
  0
CIRCLE
  5
20D
330
1F
100
AcDbEntity
  8
0
  6
Continuous
 62
     7
370
     0
100
AcDbCircle
 10
39.5243459846
 20
51.8701106175
 30
0.0
 40
0.1450000000000102
  0
CIRCLE
  5
20E
330
1F
100
AcDbEntity
  8
0
  6
Continuous
 62
     7
370
     0
100
AcDbCircle
 10
40.0243459846
 20
51.8701106175
 30
0.0
 40
0.1450000000000102
  0
CIRCLE
  5
20F
330
1F
100
AcDbEntity
  8
0
  6
Continuous
 62
     7
370
     0
100
AcDbCircle
 10
38.0243459846
 20
52.8701106175
 30
0.0
 40
0.144999999999996
  0
CIRCLE
  5
210
330
1F
100
AcDbEntity
  8
0
  6
Continuous
 62
     7
370
     0
100
AcDbCircle
 10
38.5243459846
 20
52.8701106175
 30
0.0
 40
0.144999999999996
  0
CIRCLE
  5
211
330
1F
100
AcDbEntity
  8
0
  6
Continuous
 62
     7
370
     0
100
AcDbCircle
 10
39.0243459846
 20
52.8701106175
 30
0.0
 40
0.144999999999996
  0
CIRCLE
  5
212
330
1F
100
AcDbEntity
  8
0
  6
Continuous
 62
     7
370
     0
100
AcDbCircle
 10
39.5243459846
 20
52.8701106175
 30
0.0
 40
0.1450000000000031
  0
CIRCLE
  5
213
330
1F
100
AcDbEntity
  8
0
  6
Continuous
 62
     7
370
     0
100
AcDbCircle
 10
40.0243459846
 20
52.8701106175
 30
0.0
 40
0.1450000000000031
  0
CIRCLE
  5
214
330
1F
100
AcDbEntity
  8
0
  6
Continuous
 62
     7
370
     0
100
AcDbCircle
 10
40.5243459846
 20
52.8701106175
 30
0.0
 40
0.1450000000000031
  0
CIRCLE
  5
215
330
1F
100
AcDbEntity
  8
0
  6
Continuous
 62
     7
370
     0
100
AcDbCircle
 10
41.0243459846
 20
52.8701106175
 30
0.0
 40
0.144999999999996
  0
CIRCLE
  5
216
330
1F
100
AcDbEntity
  8
0
  6
Continuous
 62
     7
370
     0
100
AcDbCircle
 10
41.5243459846
 20
52.8701106175
 30
0.0
 40
0.144999999999996
  0
CIRCLE
  5
217
330
1F
100
AcDbEntity
  8
0
  6
Continuous
 62
     7
370
     0
100
AcDbCircle
 10
42.0243459846
 20
52.8701106175
 30
0.0
 40
0.144999999999996
  0
CIRCLE
  5
218
330
1F
100
AcDbEntity
  8
0
  6
Continuous
 62
     7
370
     0
100
AcDbCircle
 10
42.5243459846
 20
52.8701106175
 30
0.0
 40
0.144999999999996
  0
CIRCLE
  5
219
330
1F
100
AcDbEntity
  8
0
  6
Continuous
 62
     7
370
     0
100
AcDbCircle
 10
43.0243459846
 20
52.8701106175
 30
0.0
 40
0.144999999999996
  0
CIRCLE
  5
21A
330
1F
100
AcDbEntity
  8
0
  6
Continuous
 62
     7
370
     0
100
AcDbCircle
 10
43.5243459846
 20
52.8701106175
 30
0.0
 40
0.144999999999996
  0
CIRCLE
  5
21B
330
1F
100
AcDbEntity
  8
0
  6
Continuous
 62
     7
370
     0
100
AcDbCircle
 10
44.0243459846
 20
52.8701106175
 30
0.0
 40
0.144999999999996
  0
CIRCLE
  5
21C
330
1F
100
AcDbEntity
  8
0
  6
Continuous
 62
     7
370
     0
100
AcDbCircle
 10
44.5243459846
 20
52.8701106175
 30
0.0
 40
0.1450000000000102
  0
CIRCLE
  5
21D
330
1F
100
AcDbEntity
  8
0
  6
Continuous
 62
     7
370
     0
100
AcDbCircle
 10
45.0243459846
 20
52.8701106175
 30
0.0
 40
0.1450000000000102
  0
CIRCLE
  5
21E
330
1F
100
AcDbEntity
  8
0
  6
Continuous
 62
     7
370
     0
100
AcDbCircle
 10
45.5243459846
 20
52.8701106175
 30
0.0
 40
0.1450000000000102
  0
CIRCLE
  5
21F
330
1F
100
AcDbEntity
  8
0
  6
Continuous
 62
     7
370
     0
100
AcDbCircle
 10
46.0243459846
 20
52.8701106175
 30
0.0
 40
0.1450000000000102
  0
CIRCLE
  5
220
330
1F
100
AcDbEntity
  8
0
  6
Continuous
 62
     7
370
     0
100
AcDbCircle
 10
46.5243459846
 20
52.8701106175
 30
0.0
 40
0.1450000000000102
  0
CIRCLE
  5
221
330
1F
100
AcDbEntity
  8
0
  6
Continuous
 62
     7
370
     0
100
AcDbCircle
 10
47.0243459846
 20
52.8701106175
 30
0.0
 40
0.1450000000000102
  0
CIRCLE
  5
222
330
1F
100
AcDbEntity
  8
0
  6
Continuous
 62
     7
370
     0
100
AcDbCircle
 10
47.5243459846
 20
52.8701106175
 30
0.0
 40
0.1450000000000102
  0
CIRCLE
  5
223
330
1F
100
AcDbEntity
  8
0
  6
Continuous
 62
     7
370
     0
100
AcDbCircle
 10
48.0243459846
 20
52.8701106175
 30
0.0
 40
0.144999999999996
  0
CIRCLE
  5
224
330
1F
100
AcDbEntity
  8
0
  6
Continuous
 62
     7
370
     0
100
AcDbCircle
 10
48.5243459846
 20
52.8701106175
 30
0.0
 40
0.144999999999996
  0
CIRCLE
  5
225
330
1F
100
AcDbEntity
  8
0
  6
Continuous
 62
     7
370
     0
100
AcDbCircle
 10
49.0243459846
 20
52.8701106175
 30
0.0
 40
0.144999999999996
  0
CIRCLE
  5
226
330
1F
100
AcDbEntity
  8
0
  6
Continuous
 62
     7
370
     0
100
AcDbCircle
 10
49.5243459846
 20
52.8701106175
 30
0.0
 40
0.144999999999996
  0
CIRCLE
  5
227
330
1F
100
AcDbEntity
  8
0
  6
Continuous
 62
     7
370
     0
100
AcDbCircle
 10
50.0243459846
 20
52.8701106175
 30
0.0
 40
0.144999999999996
  0
CIRCLE
  5
228
330
1F
100
AcDbEntity
  8
0
  6
Continuous
 62
     7
370
     0
100
AcDbCircle
 10
50.5243459846
 20
52.8701106175
 30
0.0
 40
0.144999999999996
  0
CIRCLE
  5
229
330
1F
100
AcDbEntity
  8
0
  6
Continuous
 62
     7
370
     0
100
AcDbCircle
 10
51.0243459846
 20
52.8701106175
 30
0.0
 40
0.1450000000000031
  0
CIRCLE
  5
22A
330
1F
100
AcDbEntity
  8
0
  6
Continuous
 62
     7
370
     0
100
AcDbCircle
 10
51.5243459846
 20
52.8701106175
 30
0.0
 40
0.1450000000000031
  0
CIRCLE
  5
22B
330
1F
100
AcDbEntity
  8
0
  6
Continuous
 62
     7
370
     0
100
AcDbCircle
 10
52.0243459846
 20
52.8701106175
 30
0.0
 40
0.1450000000000031
  0
CIRCLE
  5
22C
330
1F
100
AcDbEntity
  8
0
  6
Continuous
 62
     7
370
     0
100
AcDbCircle
 10
52.5243459846
 20
52.8701106175
 30
0.0
 40
0.144999999999996
  0
CIRCLE
  5
22D
330
1F
100
AcDbEntity
  8
0
  6
Continuous
 62
     7
370
     0
100
AcDbCircle
 10
53.0243459846
 20
52.8701106175
 30
0.0
 40
0.144999999999996
  0
CIRCLE
  5
22E
330
1F
100
AcDbEntity
  8
0
  6
Continuous
 62
     7
370
     0
100
AcDbCircle
 10
38.5243459846
 20
52.3701106175
 30
0.0
 40
0.1450000000000102
  0
CIRCLE
  5
22F
330
1F
100
AcDbEntity
  8
0
  6
Continuous
 62
     7
370
     0
100
AcDbCircle
 10
39.0243459846
 20
52.3701106175
 30
0.0
 40
0.144999999999996
  0
CIRCLE
  5
230
330
1F
100
AcDbEntity
  8
0
  6
Continuous
 62
     7
370
     0
100
AcDbCircle
 10
39.5243459846
 20
52.3701106175
 30
0.0
 40
0.144999999999996
  0
CIRCLE
  5
231
330
1F
100
AcDbEntity
  8
0
  6
Continuous
 62
     7
370
     0
100
AcDbCircle
 10
40.0243459846
 20
52.3701106175
 30
0.0
 40
0.144999999999996
  0
CIRCLE
  5
232
330
1F
100
AcDbEntity
  8
0
  6
Continuous
 62
     7
370
     0
100
AcDbCircle
 10
40.5243459846
 20
52.3701106175
 30
0.0
 40
0.144999999999996
  0
CIRCLE
  5
233
330
1F
100
AcDbEntity
  8
0
  6
Continuous
 62
     7
370
     0
100
AcDbCircle
 10
41.0243459846
 20
52.3701106175
 30
0.0
 40
0.144999999999996
  0
CIRCLE
  5
234
330
1F
100
AcDbEntity
  8
0
  6
Continuous
 62
     7
370
     0
100
AcDbCircle
 10
41.5243459846
 20
52.3701106175
 30
0.0
 40
0.144999999999996
  0
CIRCLE
  5
235
330
1F
100
AcDbEntity
  8
0
  6
Continuous
 62
     7
370
     0
100
AcDbCircle
 10
42.0243459846
 20
52.3701106175
 30
0.0
 40
0.1450000000000031
  0
CIRCLE
  5
236
330
1F
100
AcDbEntity
  8
0
  6
Continuous
 62
     7
370
     0
100
AcDbCircle
 10
42.5243459846
 20
52.3701106175
 30
0.0
 40
0.1450000000000031
  0
CIRCLE
  5
237
330
1F
100
AcDbEntity
  8
0
  6
Continuous
 62
     7
370
     0
100
AcDbCircle
 10
43.0243459846
 20
52.3701106175
 30
0.0
 40
0.1450000000000031
  0
CIRCLE
  5
238
330
1F
100
AcDbEntity
  8
0
  6
Continuous
 62
     7
370
     0
100
AcDbCircle
 10
43.5243459846
 20
52.3701106175
 30
0.0
 40
0.1450000000000031
  0
CIRCLE
  5
239
330
1F
100
AcDbEntity
  8
0
  6
Continuous
 62
     7
370
     0
100
AcDbCircle
 10
44.0243459846
 20
52.3701106175
 30
0.0
 40
0.1450000000000031
  0
CIRCLE
  5
23A
330
1F
100
AcDbEntity
  8
0
  6
Continuous
 62
     7
370
     0
100
AcDbCircle
 10
44.5243459846
 20
52.3701106175
 30
0.0
 40
0.1450000000000031
  0
CIRCLE
  5
23B
330
1F
100
AcDbEntity
  8
0
  6
Continuous
 62
     7
370
     0
100
AcDbCircle
 10
45.0243459846
 20
52.3701106175
 30
0.0
 40
0.144999999999996
  0
CIRCLE
  5
23C
330
1F
100
AcDbEntity
  8
0
  6
Continuous
 62
     7
370
     0
100
AcDbCircle
 10
45.5243459846
 20
52.3701106175
 30
0.0
 40
0.144999999999996
  0
CIRCLE
  5
23D
330
1F
100
AcDbEntity
  8
0
  6
Continuous
 62
     7
370
     0
100
AcDbCircle
 10
46.0243459846
 20
52.3701106175
 30
0.0
 40
0.144999999999996
  0
CIRCLE
  5
23E
330
1F
100
AcDbEntity
  8
0
  6
Continuous
 62
     7
370
     0
100
AcDbCircle
 10
46.5243459846
 20
52.3701106175
 30
0.0
 40
0.144999999999996
  0
CIRCLE
  5
23F
330
1F
100
AcDbEntity
  8
0
  6
Continuous
 62
     7
370
     0
100
AcDbCircle
 10
47.0243459846
 20
52.3701106175
 30
0.0
 40
0.144999999999996
  0
CIRCLE
  5
240
330
1F
100
AcDbEntity
  8
0
  6
Continuous
 62
     7
370
     0
100
AcDbCircle
 10
47.5243459846
 20
52.3701106175
 30
0.0
 40
0.144999999999996
  0
CIRCLE
  5
241
330
1F
100
AcDbEntity
  8
0
  6
Continuous
 62
     7
370
     0
100
AcDbCircle
 10
48.0243459846
 20
52.3701106175
 30
0.0
 40
0.144999999999996
  0
CIRCLE
  5
242
330
1F
100
AcDbEntity
  8
0
  6
Continuous
 62
     7
370
     0
100
AcDbCircle
 10
48.5243459846
 20
52.3701106175
 30
0.0
 40
0.144999999999996
  0
CIRCLE
  5
243
330
1F
100
AcDbEntity
  8
0
  6
Continuous
 62
     7
370
     0
100
AcDbCircle
 10
49.0243459846
 20
52.3701106175
 30
0.0
 40
0.1450000000000102
  0
CIRCLE
  5
244
330
1F
100
AcDbEntity
  8
0
  6
Continuous
 62
     7
370
     0
100
AcDbCircle
 10
49.5243459846
 20
52.3701106175
 30
0.0
 40
0.1450000000000102
  0
CIRCLE
  5
245
330
1F
100
AcDbEntity
  8
0
  6
Continuous
 62
     7
370
     0
100
AcDbCircle
 10
50.0243459846
 20
52.3701106175
 30
0.0
 40
0.1450000000000102
  0
CIRCLE
  5
246
330
1F
100
AcDbEntity
  8
0
  6
Continuous
 62
     7
370
     0
100
AcDbCircle
 10
50.5243459846
 20
52.3701106175
 30
0.0
 40
0.144999999999996
  0
CIRCLE
  5
247
330
1F
100
AcDbEntity
  8
0
  6
Continuous
 62
     7
370
     0
100
AcDbCircle
 10
51.0243459846
 20
52.3701106175
 30
0.0
 40
0.144999999999996
  0
CIRCLE
  5
248
330
1F
100
AcDbEntity
  8
0
  6
Continuous
 62
     7
370
     0
100
AcDbCircle
 10
51.5243459846
 20
52.3701106175
 30
0.0
 40
0.144999999999996
  0
CIRCLE
  5
249
330
1F
100
AcDbEntity
  8
0
  6
Continuous
 62
     7
370
     0
100
AcDbCircle
 10
52.0243459846
 20
52.3701106175
 30
0.0
 40
0.144999999999996
  0
CIRCLE
  5
24A
330
1F
100
AcDbEntity
  8
0
  6
Continuous
 62
     7
370
     0
100
AcDbCircle
 10
40.0243459846
 20
50.8701106175
 30
0.0
 40
0.144999999999996
  0
CIRCLE
  5
24B
330
1F
100
AcDbEntity
  8
0
  6
Continuous
 62
     7
370
     0
100
AcDbCircle
 10
40.5243459846
 20
50.8701106175
 30
0.0
 40
0.144999999999996
  0
CIRCLE
  5
24C
330
1F
100
AcDbEntity
  8
0
  6
Continuous
 62
     7
370
     0
100
AcDbCircle
 10
41.0243459846
 20
50.8701106175
 30
0.0
 40
0.144999999999996
  0
CIRCLE
  5
24D
330
1F
100
AcDbEntity
  8
0
  6
Continuous
 62
     7
370
     0
100
AcDbCircle
 10
41.5243459846
 20
50.8701106175
 30
0.0
 40
0.1450000000000102
  0
CIRCLE
  5
24E
330
1F
100
AcDbEntity
  8
0
  6
Continuous
 62
     7
370
     0
100
AcDbCircle
 10
42.0243459846
 20
50.8701106175
 30
0.0
 40
0.1450000000000102
  0
CIRCLE
  5
24F
330
1F
100
AcDbEntity
  8
0
  6
Continuous
 62
     7
370
     0
100
AcDbCircle
 10
42.5243459846
 20
50.8701106175
 30
0.0
 40
0.1450000000000102
  0
CIRCLE
  5
250
330
1F
100
AcDbEntity
  8
0
  6
Continuous
 62
     7
370
     0
100
AcDbCircle
 10
43.0243459846
 20
50.8701106175
 30
0.0
 40
0.144999999999996
  0
CIRCLE
  5
251
330
1F
100
AcDbEntity
  8
0
  6
Continuous
 62
     7
370
     0
100
AcDbCircle
 10
43.5243459846
 20
50.8701106175
 30
0.0
 40
0.144999999999996
  0
CIRCLE
  5
252
330
1F
100
AcDbEntity
  8
0
  6
Continuous
 62
     7
370
     0
100
AcDbCircle
 10
44.0243459846
 20
50.8701106175
 30
0.0
 40
0.144999999999996
  0
CIRCLE
  5
253
330
1F
100
AcDbEntity
  8
0
  6
Continuous
 62
     7
370
     0
100
AcDbCircle
 10
44.5243459846
 20
50.8701106175
 30
0.0
 40
0.144999999999996
  0
CIRCLE
  5
254
330
1F
100
AcDbEntity
  8
0
  6
Continuous
 62
     7
370
     0
100
AcDbCircle
 10
45.0243459846
 20
50.8701106175
 30
0.0
 40
0.144999999999996
  0
CIRCLE
  5
255
330
1F
100
AcDbEntity
  8
0
  6
Continuous
 62
     7
370
     0
100
AcDbCircle
 10
45.5243459846
 20
50.8701106175
 30
0.0
 40
0.144999999999996
  0
CIRCLE
  5
256
330
1F
100
AcDbEntity
  8
0
  6
Continuous
 62
     7
370
     0
100
AcDbCircle
 10
46.0243459846
 20
50.8701106175
 30
0.0
 40
0.144999999999996
  0
CIRCLE
  5
257
330
1F
100
AcDbEntity
  8
0
  6
Continuous
 62
     7
370
     0
100
AcDbCircle
 10
46.5243459846
 20
50.8701106175
 30
0.0
 40
0.144999999999996
  0
CIRCLE
  5
258
330
1F
100
AcDbEntity
  8
0
  6
Continuous
 62
     7
370
     0
100
AcDbCircle
 10
47.0243459846
 20
50.8701106175
 30
0.0
 40
0.1450000000000031
  0
CIRCLE
  5
259
330
1F
100
AcDbEntity
  8
0
  6
Continuous
 62
     7
370
     0
100
AcDbCircle
 10
47.5243459846
 20
50.8701106175
 30
0.0
 40
0.1450000000000031
  0
CIRCLE
  5
25A
330
1F
100
AcDbEntity
  8
0
  6
Continuous
 62
     7
370
     0
100
AcDbCircle
 10
48.0243459846
 20
50.8701106175
 30
0.0
 40
0.1450000000000031
  0
CIRCLE
  5
25B
330
1F
100
AcDbEntity
  8
0
  6
Continuous
 62
     7
370
     0
100
AcDbCircle
 10
48.5243459846
 20
50.8701106175
 30
0.0
 40
0.1450000000000031
  0
CIRCLE
  5
25C
330
1F
100
AcDbEntity
  8
0
  6
Continuous
 62
     7
370
     0
100
AcDbCircle
 10
49.0243459846
 20
50.8701106175
 30
0.0
 40
0.1450000000000031
  0
CIRCLE
  5
25D
330
1F
100
AcDbEntity
  8
0
  6
Continuous
 62
     7
370
     0
100
AcDbCircle
 10
49.5243459846
 20
50.8701106175
 30
0.0
 40
0.144999999999996
  0
CIRCLE
  5
25E
330
1F
100
AcDbEntity
  8
0
  6
Continuous
 62
     7
370
     0
100
AcDbCircle
 10
50.0243459846
 20
50.8701106175
 30
0.0
 40
0.144999999999996
  0
CIRCLE
  5
25F
330
1F
100
AcDbEntity
  8
0
  6
Continuous
 62
     7
370
     0
100
AcDbCircle
 10
50.5243459846
 20
50.8701106175
 30
0.0
 40
0.144999999999996
  0
CIRCLE
  5
260
330
1F
100
AcDbEntity
  8
0
  6
Continuous
 62
     7
370
     0
100
AcDbCircle
 10
51.0243459846
 20
50.8701106175
 30
0.0
 40
0.144999999999996
  0
CIRCLE
  5
261
330
1F
100
AcDbEntity
  8
0
  6
Continuous
 62
     7
370
     0
100
AcDbCircle
 10
51.5243459846
 20
50.8701106175
 30
0.0
 40
0.144999999999996
  0
CIRCLE
  5
262
330
1F
100
AcDbEntity
  8
0
  6
Continuous
 62
     7
370
     0
100
AcDbCircle
 10
52.0243459846
 20
50.8701106175
 30
0.0
 40
0.144999999999996
  0
CIRCLE
  5
263
330
1F
100
AcDbEntity
  8
0
  6
Continuous
 62
     7
370
     0
100
AcDbCircle
 10
52.5243459846
 20
50.8701106175
 30
0.0
 40
0.144999999999996
  0
CIRCLE
  5
264
330
1F
100
AcDbEntity
  8
0
  6
Continuous
 62
     7
370
     0
100
AcDbCircle
 10
53.0243459846
 20
50.8701106175
 30
0.0
 40
0.1450000000000102
  0
CIRCLE
  5
265
330
1F
100
AcDbEntity
  8
0
  6
Continuous
 62
     7
370
     0
100
AcDbCircle
 10
38.5243459846
 20
50.3701106175
 30
0.0
 40
0.144999999999996
  0
CIRCLE
  5
266
330
1F
100
AcDbEntity
  8
0
  6
Continuous
 62
     7
370
     0
100
AcDbCircle
 10
39.0243459846
 20
50.3701106175
 30
0.0
 40
0.1450000000000031
  0
CIRCLE
  5
267
330
1F
100
AcDbEntity
  8
0
  6
Continuous
 62
     7
370
     0
100
AcDbCircle
 10
39.5243459846
 20
50.3701106175
 30
0.0
 40
0.1450000000000031
  0
CIRCLE
  5
268
330
1F
100
AcDbEntity
  8
0
  6
Continuous
 62
     7
370
     0
100
AcDbCircle
 10
40.0243459846
 20
50.3701106175
 30
0.0
 40
0.1450000000000031
  0
CIRCLE
  5
269
330
1F
100
AcDbEntity
  8
0
  6
Continuous
 62
     7
370
     0
100
AcDbCircle
 10
40.5243459846
 20
50.3701106175
 30
0.0
 40
0.1450000000000031
  0
CIRCLE
  5
26A
330
1F
100
AcDbEntity
  8
0
  6
Continuous
 62
     7
370
     0
100
AcDbCircle
 10
41.0243459846
 20
50.3701106175
 30
0.0
 40
0.144999999999996
  0
CIRCLE
  5
26B
330
1F
100
AcDbEntity
  8
0
  6
Continuous
 62
     7
370
     0
100
AcDbCircle
 10
41.5243459846
 20
50.3701106175
 30
0.0
 40
0.144999999999996
  0
CIRCLE
  5
26C
330
1F
100
AcDbEntity
  8
0
  6
Continuous
 62
     7
370
     0
100
AcDbCircle
 10
42.0243459846
 20
50.3701106175
 30
0.0
 40
0.144999999999996
  0
CIRCLE
  5
26D
330
1F
100
AcDbEntity
  8
0
  6
Continuous
 62
     7
370
     0
100
AcDbCircle
 10
42.5243459846
 20
50.3701106175
 30
0.0
 40
0.144999999999996
  0
CIRCLE
  5
26E
330
1F
100
AcDbEntity
  8
0
  6
Continuous
 62
     7
370
     0
100
AcDbCircle
 10
43.0243459846
 20
50.3701106175
 30
0.0
 40
0.144999999999996
  0
CIRCLE
  5
26F
330
1F
100
AcDbEntity
  8
0
  6
Continuous
 62
     7
370
     0
100
AcDbCircle
 10
43.5243459846
 20
50.3701106175
 30
0.0
 40
0.144999999999996
  0
CIRCLE
  5
270
330
1F
100
AcDbEntity
  8
0
  6
Continuous
 62
     7
370
     0
100
AcDbCircle
 10
44.0243459846
 20
50.3701106175
 30
0.0
 40
0.1450000000000102
  0
ARC
  5
271
330
1F
100
AcDbEntity
  8
0
  6
Continuous
 62
     7
370
     0
100
AcDbCircle
 10
44.5243459846
 20
50.3701106175
 30
0.0
 40
0.1450000000000034
100
AcDbArc
 50
345.0788889655
 51
211.9826422544
  0
ARC
  5
272
330
1F
100
AcDbEntity
  8
0
  6
Continuous
 62
     7
370
     0
100
AcDbCircle
 10
45.0243459846
 20
50.3701106175
 30
0.0
 40
0.1449999999999971
100
AcDbArc
 50
359.564267461
 51
186.1605429912
  0
ARC
  5
273
330
1F
100
AcDbEntity
  8
0
  6
Continuous
 62
     7
370
     0
100
AcDbCircle
 10
45.5243459846
 20
50.3701106175
 30
0.0
 40
0.1450000000000041
100
AcDbArc
 50
353.8394570088
 51
180.435732539
  0
ARC
  5
274
330
1F
100
AcDbEntity
  8
0
  6
Continuous
 62
     7
370
     0
100
AcDbCircle
 10
46.0243459846
 20
50.3701106175
 30
0.0
 40
0.1450000000000034
100
AcDbArc
 50
328.0173577456
 51
194.9211110345
  0
CIRCLE
  5
275
330
1F
100
AcDbEntity
  8
0
  6
Continuous
 62
     7
370
     0
100
AcDbCircle
 10
46.5243459846
 20
50.3701106175
 30
0.0
 40
0.1450000000000102
  0
CIRCLE
  5
276
330
1F
100
AcDbEntity
  8
0
  6
Continuous
 62
     7
370
     0
100
AcDbCircle
 10
47.0243459846
 20
50.3701106175
 30
0.0
 40
0.1450000000000031
  0
CIRCLE
  5
277
330
1F
100
AcDbEntity
  8
0
  6
Continuous
 62
     7
370
     0
100
AcDbCircle
 10
47.5243459846
 20
50.3701106175
 30
0.0
 40
0.1450000000000031
  0
CIRCLE
  5
278
330
1F
100
AcDbEntity
  8
0
  6
Continuous
 62
     7
370
     0
100
AcDbCircle
 10
48.0243459846
 20
50.3701106175
 30
0.0
 40
0.1450000000000031
  0
CIRCLE
  5
279
330
1F
100
AcDbEntity
  8
0
  6
Continuous
 62
     7
370
     0
100
AcDbCircle
 10
48.5243459846
 20
50.3701106175
 30
0.0
 40
0.1450000000000031
  0
CIRCLE
  5
27A
330
1F
100
AcDbEntity
  8
0
  6
Continuous
 62
     7
370
     0
100
AcDbCircle
 10
49.0243459846
 20
50.3701106175
 30
0.0
 40
0.1450000000000031
  0
CIRCLE
  5
27B
330
1F
100
AcDbEntity
  8
0
  6
Continuous
 62
     7
370
     0
100
AcDbCircle
 10
49.5243459846
 20
50.3701106175
 30
0.0
 40
0.1450000000000031
  0
CIRCLE
  5
27C
330
1F
100
AcDbEntity
  8
0
  6
Continuous
 62
     7
370
     0
100
AcDbCircle
 10
50.0243459846
 20
50.3701106175
 30
0.0
 40
0.1450000000000031
  0
CIRCLE
  5
27D
330
1F
100
AcDbEntity
  8
0
  6
Continuous
 62
     7
370
     0
100
AcDbCircle
 10
50.5243459846
 20
50.3701106175
 30
0.0
 40
0.1450000000000102
  0
CIRCLE
  5
27E
330
1F
100
AcDbEntity
  8
0
  6
Continuous
 62
     7
370
     0
100
AcDbCircle
 10
51.0243459846
 20
50.3701106175
 30
0.0
 40
0.1450000000000102
  0
CIRCLE
  5
27F
330
1F
100
AcDbEntity
  8
0
  6
Continuous
 62
     7
370
     0
100
AcDbCircle
 10
51.5243459846
 20
50.3701106175
 30
0.0
 40
0.1450000000000102
  0
CIRCLE
  5
280
330
1F
100
AcDbEntity
  8
0
  6
Continuous
 62
     7
370
     0
100
AcDbCircle
 10
52.0243459846
 20
50.3701106175
 30
0.0
 40
0.144999999999996
  0
CIRCLE
  5
281
330
1F
100
AcDbEntity
  8
0
  6
Continuous
 62
     7
370
     0
100
AcDbCircle
 10
52.5243459846
 20
50.3701106175
 30
0.0
 40
0.144999999999996
  0
CIRCLE
  5
282
330
1F
100
AcDbEntity
  8
0
  6
Continuous
 62
     7
370
     0
100
AcDbCircle
 10
53.0243459846
 20
50.3701106175
 30
0.0
 40
0.144999999999996
  0
CIRCLE
  5
283
330
1F
100
AcDbEntity
  8
0
  6
Continuous
 62
     7
370
     0
100
AcDbCircle
 10
38.5243459846
 20
49.8701106175
 30
0.0
 40
0.144999999999996
  0
CIRCLE
  5
284
330
1F
100
AcDbEntity
  8
0
  6
Continuous
 62
     7
370
     0
100
AcDbCircle
 10
39.0243459846
 20
49.8701106175
 30
0.0
 40
0.144999999999996
  0
CIRCLE
  5
285
330
1F
100
AcDbEntity
  8
0
  6
Continuous
 62
     7
370
     0
100
AcDbCircle
 10
39.5243459846
 20
49.8701106175
 30
0.0
 40
0.144999999999996
  0
CIRCLE
  5
286
330
1F
100
AcDbEntity
  8
0
  6
Continuous
 62
     7
370
     0
100
AcDbCircle
 10
40.0243459846
 20
49.8701106175
 30
0.0
 40
0.144999999999996
  0
CIRCLE
  5
287
330
1F
100
AcDbEntity
  8
0
  6
Continuous
 62
     7
370
     0
100
AcDbCircle
 10
40.5243459846
 20
49.8701106175
 30
0.0
 40
0.144999999999996
  0
CIRCLE
  5
288
330
1F
100
AcDbEntity
  8
0
  6
Continuous
 62
     7
370
     0
100
AcDbCircle
 10
41.0243459846
 20
49.8701106175
 30
0.0
 40
0.144999999999996
  0
CIRCLE
  5
289
330
1F
100
AcDbEntity
  8
0
  6
Continuous
 62
     7
370
     0
100
AcDbCircle
 10
41.5243459846
 20
49.8701106175
 30
0.0
 40
0.1450000000000102
  0
CIRCLE
  5
28A
330
1F
100
AcDbEntity
  8
0
  6
Continuous
 62
     7
370
     0
100
AcDbCircle
 10
42.0243459846
 20
49.8701106175
 30
0.0
 40
0.1450000000000102
  0
CIRCLE
  5
28B
330
1F
100
AcDbEntity
  8
0
  6
Continuous
 62
     7
370
     0
100
AcDbCircle
 10
42.5243459846
 20
49.8701106175
 30
0.0
 40
0.1450000000000102
  0
ARC
  5
28C
330
1F
100
AcDbEntity
  8
0
  6
Continuous
 62
     7
370
     0
100
AcDbCircle
 10
43.0243459846
 20
49.8701106175
 30
0.0
 40
0.1450000000000043
100
AcDbArc
 50
13.350802882
 51
219.7792994722
  0
CIRCLE
  5
28D
330
1F
100
AcDbEntity
  8
0
  6
Continuous
 62
     7
370
     0
100
AcDbCircle
 10
40.5243459846
 20
51.8701106175
 30
0.0
 40
0.1450000000000102
  0
CIRCLE
  5
28E
330
1F
100
AcDbEntity
  8
0
  6
Continuous
 62
     7
370
     0
100
AcDbCircle
 10
41.0243459846
 20
51.8701106175
 30
0.0
 40
0.1450000000000102
  0
CIRCLE
  5
28F
330
1F
100
AcDbEntity
  8
0
  6
Continuous
 62
     7
370
     0
100
AcDbCircle
 10
41.5243459846
 20
51.8701106175
 30
0.0
 40
0.1450000000000102
  0
CIRCLE
  5
290
330
1F
100
AcDbEntity
  8
0
  6
Continuous
 62
     7
370
     0
100
AcDbCircle
 10
42.0243459846
 20
51.8701106175
 30
0.0
 40
0.1450000000000102
  0
CIRCLE
  5
291
330
1F
100
AcDbEntity
  8
0
  6
Continuous
 62
     7
370
     0
100
AcDbCircle
 10
42.5243459846
 20
51.8701106175
 30
0.0
 40
0.144999999999996
  0
CIRCLE
  5
292
330
1F
100
AcDbEntity
  8
0
  6
Continuous
 62
     7
370
     0
100
AcDbCircle
 10
43.0243459846
 20
51.8701106175
 30
0.0
 40
0.144999999999996
  0
CIRCLE
  5
293
330
1F
100
AcDbEntity
  8
0
  6
Continuous
 62
     7
370
     0
100
AcDbCircle
 10
43.5243459846
 20
51.8701106175
 30
0.0
 40
0.144999999999996
  0
CIRCLE
  5
294
330
1F
100
AcDbEntity
  8
0
  6
Continuous
 62
     7
370
     0
100
AcDbCircle
 10
44.0243459846
 20
51.8701106175
 30
0.0
 40
0.144999999999996
  0
CIRCLE
  5
295
330
1F
100
AcDbEntity
  8
0
  6
Continuous
 62
     7
370
     0
100
AcDbCircle
 10
44.5243459846
 20
51.8701106175
 30
0.0
 40
0.144999999999996
  0
CIRCLE
  5
296
330
1F
100
AcDbEntity
  8
0
  6
Continuous
 62
     7
370
     0
100
AcDbCircle
 10
45.0243459846
 20
51.8701106175
 30
0.0
 40
0.144999999999996
  0
CIRCLE
  5
297
330
1F
100
AcDbEntity
  8
0
  6
Continuous
 62
     7
370
     0
100
AcDbCircle
 10
45.5243459846
 20
51.8701106175
 30
0.0
 40
0.144999999999996
  0
CIRCLE
  5
298
330
1F
100
AcDbEntity
  8
0
  6
Continuous
 62
     7
370
     0
100
AcDbCircle
 10
46.0243459846
 20
51.8701106175
 30
0.0
 40
0.1450000000000031
  0
CIRCLE
  5
299
330
1F
100
AcDbEntity
  8
0
  6
Continuous
 62
     7
370
     0
100
AcDbCircle
 10
46.5243459846
 20
51.8701106175
 30
0.0
 40
0.1450000000000031
  0
CIRCLE
  5
29A
330
1F
100
AcDbEntity
  8
0
  6
Continuous
 62
     7
370
     0
100
AcDbCircle
 10
47.0243459846
 20
51.8701106175
 30
0.0
 40
0.1450000000000031
  0
CIRCLE
  5
29B
330
1F
100
AcDbEntity
  8
0
  6
Continuous
 62
     7
370
     0
100
AcDbCircle
 10
47.5243459846
 20
51.8701106175
 30
0.0
 40
0.144999999999996
  0
CIRCLE
  5
29C
330
1F
100
AcDbEntity
  8
0
  6
Continuous
 62
     7
370
     0
100
AcDbCircle
 10
48.0243459846
 20
51.8701106175
 30
0.0
 40
0.144999999999996
  0
CIRCLE
  5
29D
330
1F
100
AcDbEntity
  8
0
  6
Continuous
 62
     7
370
     0
100
AcDbCircle
 10
48.5243459846
 20
51.8701106175
 30
0.0
 40
0.144999999999996
  0
CIRCLE
  5
29E
330
1F
100
AcDbEntity
  8
0
  6
Continuous
 62
     7
370
     0
100
AcDbCircle
 10
49.0243459846
 20
51.8701106175
 30
0.0
 40
0.144999999999996
  0
CIRCLE
  5
29F
330
1F
100
AcDbEntity
  8
0
  6
Continuous
 62
     7
370
     0
100
AcDbCircle
 10
49.5243459846
 20
51.8701106175
 30
0.0
 40
0.144999999999996
  0
CIRCLE
  5
2A0
330
1F
100
AcDbEntity
  8
0
  6
Continuous
 62
     7
370
     0
100
AcDbCircle
 10
50.0243459846
 20
51.8701106175
 30
0.0
 40
0.144999999999996
  0
CIRCLE
  5
2A1
330
1F
100
AcDbEntity
  8
0
  6
Continuous
 62
     7
370
     0
100
AcDbCircle
 10
50.5243459846
 20
51.8701106175
 30
0.0
 40
0.144999999999996
  0
CIRCLE
  5
2A2
330
1F
100
AcDbEntity
  8
0
  6
Continuous
 62
     7
370
     0
100
AcDbCircle
 10
51.0243459846
 20
51.8701106175
 30
0.0
 40
0.1450000000000031
  0
CIRCLE
  5
2A3
330
1F
100
AcDbEntity
  8
0
  6
Continuous
 62
     7
370
     0
100
AcDbCircle
 10
51.5243459846
 20
51.8701106175
 30
0.0
 40
0.1450000000000031
  0
CIRCLE
  5
2A4
330
1F
100
AcDbEntity
  8
0
  6
Continuous
 62
     7
370
     0
100
AcDbCircle
 10
52.0243459846
 20
51.8701106175
 30
0.0
 40
0.1450000000000031
  0
CIRCLE
  5
2A5
330
1F
100
AcDbEntity
  8
0
  6
Continuous
 62
     7
370
     0
100
AcDbCircle
 10
52.5243459846
 20
51.8701106175
 30
0.0
 40
0.1450000000000031
  0
CIRCLE
  5
2A6
330
1F
100
AcDbEntity
  8
0
  6
Continuous
 62
     7
370
     0
100
AcDbCircle
 10
53.0243459846
 20
51.8701106175
 30
0.0
 40
0.1450000000000031
  0
CIRCLE
  5
2A7
330
1F
100
AcDbEntity
  8
0
  6
Continuous
 62
     7
370
     0
100
AcDbCircle
 10
38.5243459846
 20
51.3701106175
 30
0.0
 40
0.1450000000000031
  0
CIRCLE
  5
2A8
330
1F
100
AcDbEntity
  8
0
  6
Continuous
 62
     7
370
     0
100
AcDbCircle
 10
39.0243459846
 20
51.3701106175
 30
0.0
 40
0.1450000000000031
  0
CIRCLE
  5
2A9
330
1F
100
AcDbEntity
  8
0
  6
Continuous
 62
     7
370
     0
100
AcDbCircle
 10
39.5243459846
 20
51.3701106175
 30
0.0
 40
0.1450000000000031
  0
CIRCLE
  5
2AA
330
1F
100
AcDbEntity
  8
0
  6
Continuous
 62
     7
370
     0
100
AcDbCircle
 10
40.0243459846
 20
51.3701106175
 30
0.0
 40
0.144999999999996
  0
CIRCLE
  5
2AB
330
1F
100
AcDbEntity
  8
0
  6
Continuous
 62
     7
370
     0
100
AcDbCircle
 10
40.5243459846
 20
51.3701106175
 30
0.0
 40
0.144999999999996
  0
CIRCLE
  5
2AC
330
1F
100
AcDbEntity
  8
0
  6
Continuous
 62
     7
370
     0
100
AcDbCircle
 10
41.0243459846
 20
51.3701106175
 30
0.0
 40
0.144999999999996
  0
CIRCLE
  5
2AD
330
1F
100
AcDbEntity
  8
0
  6
Continuous
 62
     7
370
     0
100
AcDbCircle
 10
41.5243459846
 20
51.3701106175
 30
0.0
 40
0.144999999999996
  0
CIRCLE
  5
2AE
330
1F
100
AcDbEntity
  8
0
  6
Continuous
 62
     7
370
     0
100
AcDbCircle
 10
42.0243459846
 20
51.3701106175
 30
0.0
 40
0.144999999999996
  0
CIRCLE
  5
2AF
330
1F
100
AcDbEntity
  8
0
  6
Continuous
 62
     7
370
     0
100
AcDbCircle
 10
42.5243459846
 20
51.3701106175
 30
0.0
 40
0.144999999999996
  0
CIRCLE
  5
2B0
330
1F
100
AcDbEntity
  8
0
  6
Continuous
 62
     7
370
     0
100
AcDbCircle
 10
43.0243459846
 20
51.3701106175
 30
0.0
 40
0.144999999999996
  0
CIRCLE
  5
2B1
330
1F
100
AcDbEntity
  8
0
  6
Continuous
 62
     7
370
     0
100
AcDbCircle
 10
43.5243459846
 20
51.3701106175
 30
0.0
 40
0.1450000000000031
  0
CIRCLE
  5
2B2
330
1F
100
AcDbEntity
  8
0
  6
Continuous
 62
     7
370
     0
100
AcDbCircle
 10
44.0243459846
 20
51.3701106175
 30
0.0
 40
0.1450000000000031
  0
CIRCLE
  5
2B3
330
1F
100
AcDbEntity
  8
0
  6
Continuous
 62
     7
370
     0
100
AcDbCircle
 10
44.5243459846
 20
51.3701106175
 30
0.0
 40
0.1450000000000031
  0
CIRCLE
  5
2B4
330
1F
100
AcDbEntity
  8
0
  6
Continuous
 62
     7
370
     0
100
AcDbCircle
 10
45.0243459846
 20
51.3701106175
 30
0.0
 40
0.144999999999996
  0
CIRCLE
  5
2B5
330
1F
100
AcDbEntity
  8
0
  6
Continuous
 62
     7
370
     0
100
AcDbCircle
 10
45.5243459846
 20
51.3701106175
 30
0.0
 40
0.144999999999996
  0
CIRCLE
  5
2B6
330
1F
100
AcDbEntity
  8
0
  6
Continuous
 62
     7
370
     0
100
AcDbCircle
 10
46.0243459846
 20
51.3701106175
 30
0.0
 40
0.144999999999996
  0
CIRCLE
  5
2B7
330
1F
100
AcDbEntity
  8
0
  6
Continuous
 62
     7
370
     0
100
AcDbCircle
 10
46.5243459846
 20
51.3701106175
 30
0.0
 40
0.144999999999996
  0
CIRCLE
  5
2B8
330
1F
100
AcDbEntity
  8
0
  6
Continuous
 62
     7
370
     0
100
AcDbCircle
 10
47.0243459846
 20
51.3701106175
 30
0.0
 40
0.144999999999996
  0
CIRCLE
  5
2B9
330
1F
100
AcDbEntity
  8
0
  6
Continuous
 62
     7
370
     0
100
AcDbCircle
 10
47.5243459846
 20
51.3701106175
 30
0.0
 40
0.144999999999996
  0
CIRCLE
  5
2BA
330
1F
100
AcDbEntity
  8
0
  6
Continuous
 62
     7
370
     0
100
AcDbCircle
 10
48.0243459846
 20
51.3701106175
 30
0.0
 40
0.144999999999996
  0
CIRCLE
  5
2BB
330
1F
100
AcDbEntity
  8
0
  6
Continuous
 62
     7
370
     0
100
AcDbCircle
 10
48.5243459846
 20
51.3701106175
 30
0.0
 40
0.144999999999996
  0
CIRCLE
  5
2BC
330
1F
100
AcDbEntity
  8
0
  6
Continuous
 62
     7
370
     0
100
AcDbCircle
 10
49.0243459846
 20
51.3701106175
 30
0.0
 40
0.1450000000000102
  0
CIRCLE
  5
2BD
330
1F
100
AcDbEntity
  8
0
  6
Continuous
 62
     7
370
     0
100
AcDbCircle
 10
49.5243459846
 20
51.3701106175
 30
0.0
 40
0.1450000000000102
  0
CIRCLE
  5
2BE
330
1F
100
AcDbEntity
  8
0
  6
Continuous
 62
     7
370
     0
100
AcDbCircle
 10
50.0243459846
 20
51.3701106175
 30
0.0
 40
0.1450000000000102
  0
CIRCLE
  5
2BF
330
1F
100
AcDbEntity
  8
0
  6
Continuous
 62
     7
370
     0
100
AcDbCircle
 10
50.5243459846
 20
51.3701106175
 30
0.0
 40
0.1450000000000102
  0
CIRCLE
  5
2C0
330
1F
100
AcDbEntity
  8
0
  6
Continuous
 62
     7
370
     0
100
AcDbCircle
 10
51.0243459846
 20
51.3701106175
 30
0.0
 40
0.1450000000000102
  0
CIRCLE
  5
2C1
330
1F
100
AcDbEntity
  8
0
  6
Continuous
 62
     7
370
     0
100
AcDbCircle
 10
51.5243459846
 20
51.3701106175
 30
0.0
 40
0.1450000000000102
  0
CIRCLE
  5
2C2
330
1F
100
AcDbEntity
  8
0
  6
Continuous
 62
     7
370
     0
100
AcDbCircle
 10
52.0243459846
 20
51.3701106175
 30
0.0
 40
0.144999999999996
  0
CIRCLE
  5
2C3
330
1F
100
AcDbEntity
  8
0
  6
Continuous
 62
     7
370
     0
100
AcDbCircle
 10
52.5243459846
 20
51.3701106175
 30
0.0
 40
0.144999999999996
  0
CIRCLE
  5
2C4
330
1F
100
AcDbEntity
  8
0
  6
Continuous
 62
     7
370
     0
100
AcDbCircle
 10
53.0243459846
 20
51.3701106175
 30
0.0
 40
0.144999999999996
  0
CIRCLE
  5
2C5
330
1F
100
AcDbEntity
  8
0
  6
Continuous
 62
     7
370
     0
100
AcDbCircle
 10
38.5243459846
 20
50.8701106175
 30
0.0
 40
0.144999999999996
  0
CIRCLE
  5
2C6
330
1F
100
AcDbEntity
  8
0
  6
Continuous
 62
     7
370
     0
100
AcDbCircle
 10
39.0243459846
 20
50.8701106175
 30
0.0
 40
0.144999999999996
  0
CIRCLE
  5
2C7
330
1F
100
AcDbEntity
  8
0
  6
Continuous
 62
     7
370
     0
100
AcDbCircle
 10
39.5243459846
 20
50.8701106175
 30
0.0
 40
0.144999999999996
  0
ARC
  5
2C8
330
1F
100
AcDbEntity
  8
0
  6
Continuous
 62
     7
370
     0
100
AcDbCircle
 10
49.0243459846
 20
48.8701106175
 30
0.0
 40
0.145000000000001
100
AcDbArc
 50
249.3308345133
 51
196.719297465
  0
CIRCLE
  5
2C9
330
1F
100
AcDbEntity
  8
0
  6
Continuous
 62
     7
370
     0
100
AcDbCircle
 10
49.5243459846
 20
48.8701106175
 30
0.0
 40
0.1450000000000031
  0
CIRCLE
  5
2CA
330
1F
100
AcDbEntity
  8
0
  6
Continuous
 62
     7
370
     0
100
AcDbCircle
 10
50.0243459846
 20
48.8701106175
 30
0.0
 40
0.144999999999996
  0
CIRCLE
  5
2CB
330
1F
100
AcDbEntity
  8
0
  6
Continuous
 62
     7
370
     0
100
AcDbCircle
 10
50.5243459846
 20
48.8701106175
 30
0.0
 40
0.144999999999996
  0
CIRCLE
  5
2CC
330
1F
100
AcDbEntity
  8
0
  6
Continuous
 62
     7
370
     0
100
AcDbCircle
 10
51.0243459846
 20
48.8701106175
 30
0.0
 40
0.144999999999996
  0
CIRCLE
  5
2CD
330
1F
100
AcDbEntity
  8
0
  6
Continuous
 62
     7
370
     0
100
AcDbCircle
 10
51.5243459846
 20
48.8701106175
 30
0.0
 40
0.144999999999996
  0
CIRCLE
  5
2CE
330
1F
100
AcDbEntity
  8
0
  6
Continuous
 62
     7
370
     0
100
AcDbCircle
 10
52.0243459846
 20
48.8701106175
 30
0.0
 40
0.144999999999996
  0
CIRCLE
  5
2CF
330
1F
100
AcDbEntity
  8
0
  6
Continuous
 62
     7
370
     0
100
AcDbCircle
 10
52.5243459846
 20
48.8701106175
 30
0.0
 40
0.144999999999996
  0
CIRCLE
  5
2D0
330
1F
100
AcDbEntity
  8
0
  6
Continuous
 62
     7
370
     0
100
AcDbCircle
 10
53.0243459846
 20
48.8701106175
 30
0.0
 40
0.144999999999996
  0
CIRCLE
  5
2D1
330
1F
100
AcDbEntity
  8
0
  6
Continuous
 62
     7
370
     0
100
AcDbCircle
 10
38.5243459846
 20
48.3701106175
 30
0.0
 40
0.144999999999996
  0
CIRCLE
  5
2D2
330
1F
100
AcDbEntity
  8
0
  6
Continuous
 62
     7
370
     0
100
AcDbCircle
 10
39.0243459846
 20
48.3701106175
 30
0.0
 40
0.144999999999996
  0
CIRCLE
  5
2D3
330
1F
100
AcDbEntity
  8
0
  6
Continuous
 62
     7
370
     0
100
AcDbCircle
 10
39.5243459846
 20
48.3701106175
 30
0.0
 40
0.144999999999996
  0
CIRCLE
  5
2D4
330
1F
100
AcDbEntity
  8
0
  6
Continuous
 62
     7
370
     0
100
AcDbCircle
 10
40.0243459846
 20
48.3701106175
 30
0.0
 40
0.1450000000000031
  0
CIRCLE
  5
2D5
330
1F
100
AcDbEntity
  8
0
  6
Continuous
 62
     7
370
     0
100
AcDbCircle
 10
40.5243459846
 20
48.3701106175
 30
0.0
 40
0.1450000000000031
  0
CIRCLE
  5
2D6
330
1F
100
AcDbEntity
  8
0
  6
Continuous
 62
     7
370
     0
100
AcDbCircle
 10
41.0243459846
 20
48.3701106175
 30
0.0
 40
0.1450000000000031
  0
CIRCLE
  5
2D7
330
1F
100
AcDbEntity
  8
0
  6
Continuous
 62
     7
370
     0
100
AcDbCircle
 10
49.5243459846
 20
48.3701106175
 30
0.0
 40
0.144999999999996
  0
CIRCLE
  5
2D8
330
1F
100
AcDbEntity
  8
0
  6
Continuous
 62
     7
370
     0
100
AcDbCircle
 10
50.0243459846
 20
48.3701106175
 30
0.0
 40
0.144999999999996
  0
CIRCLE
  5
2D9
330
1F
100
AcDbEntity
  8
0
  6
Continuous
 62
     7
370
     0
100
AcDbCircle
 10
50.5243459846
 20
48.3701106175
 30
0.0
 40
0.144999999999996
  0
CIRCLE
  5
2DA
330
1F
100
AcDbEntity
  8
0
  6
Continuous
 62
     7
370
     0
100
AcDbCircle
 10
51.0243459846
 20
48.3701106175
 30
0.0
 40
0.144999999999996
  0
CIRCLE
  5
2DB
330
1F
100
AcDbEntity
  8
0
  6
Continuous
 62
     7
370
     0
100
AcDbCircle
 10
51.5243459846
 20
48.3701106175
 30
0.0
 40
0.1450000000000031
  0
CIRCLE
  5
2DC
330
1F
100
AcDbEntity
  8
0
  6
Continuous
 62
     7
370
     0
100
AcDbCircle
 10
52.0243459846
 20
48.3701106175
 30
0.0
 40
0.1450000000000031
  0
CIRCLE
  5
2DD
330
1F
100
AcDbEntity
  8
0
  6
Continuous
 62
     7
370
     0
100
AcDbCircle
 10
52.5243459846
 20
48.3701106175
 30
0.0
 40
0.1450000000000031
  0
CIRCLE
  5
2DE
330
1F
100
AcDbEntity
  8
0
  6
Continuous
 62
     7
370
     0
100
AcDbCircle
 10
53.0243459846
 20
48.3701106175
 30
0.0
 40
0.1450000000000031
  0
CIRCLE
  5
2DF
330
1F
100
AcDbEntity
  8
0
  6
Continuous
 62
     7
370
     0
100
AcDbCircle
 10
38.5243459846
 20
47.8701106175
 30
0.0
 40
0.1450000000000102
  0
CIRCLE
  5
2E0
330
1F
100
AcDbEntity
  8
0
  6
Continuous
 62
     7
370
     0
100
AcDbCircle
 10
39.0243459846
 20
47.8701106175
 30
0.0
 40
0.1450000000000102
  0
CIRCLE
  5
2E1
330
1F
100
AcDbEntity
  8
0
  6
Continuous
 62
     7
370
     0
100
AcDbCircle
 10
39.5243459846
 20
47.8701106175
 30
0.0
 40
0.144999999999996
  0
CIRCLE
  5
2E2
330
1F
100
AcDbEntity
  8
0
  6
Continuous
 62
     7
370
     0
100
AcDbCircle
 10
40.0243459846
 20
47.8701106175
 30
0.0
 40
0.144999999999996
  0
CIRCLE
  5
2E3
330
1F
100
AcDbEntity
  8
0
  6
Continuous
 62
     7
370
     0
100
AcDbCircle
 10
40.5243459846
 20
47.8701106175
 30
0.0
 40
0.144999999999996
  0
ARC
  5
2E4
330
1F
100
AcDbEntity
  8
0
  6
Continuous
 62
     7
370
     0
100
AcDbCircle
 10
41.0243459846
 20
47.8701106175
 30
0.0
 40
0.1450000000000007
100
AcDbArc
 50
87.3153312194
 51
211.7535789417
  0
ARC
  5
2E5
330
1F
100
AcDbEntity
  8
0
  6
Continuous
 62
     7
370
     0
100
AcDbCircle
 10
49.5243459846
 20
47.8701106175
 30
0.0
 40
0.1449999999999997
100
AcDbArc
 50
328.2464210583
 51
92.6846687806
  0
CIRCLE
  5
2E6
330
1F
100
AcDbEntity
  8
0
  6
Continuous
 62
     7
370
     0
100
AcDbCircle
 10
50.0243459846
 20
47.8701106175
 30
0.0
 40
0.1450000000000102
  0
CIRCLE
  5
2E7
330
1F
100
AcDbEntity
  8
0
  6
Continuous
 62
     7
370
     0
100
AcDbCircle
 10
50.5243459846
 20
47.8701106175
 30
0.0
 40
0.144999999999996
  0
CIRCLE
  5
2E8
330
1F
100
AcDbEntity
  8
0
  6
Continuous
 62
     7
370
     0
100
AcDbCircle
 10
51.0243459846
 20
47.8701106175
 30
0.0
 40
0.144999999999996
  0
CIRCLE
  5
2E9
330
1F
100
AcDbEntity
  8
0
  6
Continuous
 62
     7
370
     0
100
AcDbCircle
 10
51.5243459846
 20
47.8701106175
 30
0.0
 40
0.144999999999996
  0
CIRCLE
  5
2EA
330
1F
100
AcDbEntity
  8
0
  6
Continuous
 62
     7
370
     0
100
AcDbCircle
 10
52.0243459846
 20
47.8701106175
 30
0.0
 40
0.144999999999996
  0
CIRCLE
  5
2EB
330
1F
100
AcDbEntity
  8
0
  6
Continuous
 62
     7
370
     0
100
AcDbCircle
 10
52.5243459846
 20
47.8701106175
 30
0.0
 40
0.144999999999996
  0
CIRCLE
  5
2EC
330
1F
100
AcDbEntity
  8
0
  6
Continuous
 62
     7
370
     0
100
AcDbCircle
 10
53.0243459846
 20
47.8701106175
 30
0.0
 40
0.144999999999996
  0
CIRCLE
  5
2ED
330
1F
100
AcDbEntity
  8
0
  6
Continuous
 62
     7
370
     0
100
AcDbCircle
 10
38.5243459846
 20
47.3701106175
 30
0.0
 40
0.144999999999996
  0
CIRCLE
  5
2EE
330
1F
100
AcDbEntity
  8
0
  6
Continuous
 62
     7
370
     0
100
AcDbCircle
 10
39.0243459846
 20
47.3701106175
 30
0.0
 40
0.144999999999996
  0
CIRCLE
  5
2EF
330
1F
100
AcDbEntity
  8
0
  6
Continuous
 62
     7
370
     0
100
AcDbCircle
 10
39.5243459846
 20
47.3701106175
 30
0.0
 40
0.144999999999996
  0
CIRCLE
  5
2F0
330
1F
100
AcDbEntity
  8
0
  6
Continuous
 62
     7
370
     0
100
AcDbCircle
 10
40.0243459846
 20
47.3701106175
 30
0.0
 40
0.1450000000000102
  0
CIRCLE
  5
2F1
330
1F
100
AcDbEntity
  8
0
  6
Continuous
 62
     7
370
     0
100
AcDbCircle
 10
40.5243459846
 20
47.3701106175
 30
0.0
 40
0.1450000000000102
  0
CIRCLE
  5
2F2
330
1F
100
AcDbEntity
  8
0
  6
Continuous
 62
     7
370
     0
100
AcDbCircle
 10
50.0243459846
 20
47.3701106175
 30
0.0
 40
0.144999999999996
  0
CIRCLE
  5
2F3
330
1F
100
AcDbEntity
  8
0
  6
Continuous
 62
     7
370
     0
100
AcDbCircle
 10
50.5243459846
 20
47.3701106175
 30
0.0
 40
0.144999999999996
  0
CIRCLE
  5
2F4
330
1F
100
AcDbEntity
  8
0
  6
Continuous
 62
     7
370
     0
100
AcDbCircle
 10
51.0243459846
 20
47.3701106175
 30
0.0
 40
0.144999999999996
  0
CIRCLE
  5
2F5
330
1F
100
AcDbEntity
  8
0
  6
Continuous
 62
     7
370
     0
100
AcDbCircle
 10
51.5243459846
 20
47.3701106175
 30
0.0
 40
0.1450000000000031
  0
CIRCLE
  5
2F6
330
1F
100
AcDbEntity
  8
0
  6
Continuous
 62
     7
370
     0
100
AcDbCircle
 10
52.0243459846
 20
47.3701106175
 30
0.0
 40
0.1450000000000031
  0
CIRCLE
  5
2F7
330
1F
100
AcDbEntity
  8
0
  6
Continuous
 62
     7
370
     0
100
AcDbCircle
 10
52.5243459846
 20
47.3701106175
 30
0.0
 40
0.1450000000000031
  0
CIRCLE
  5
2F8
330
1F
100
AcDbEntity
  8
0
  6
Continuous
 62
     7
370
     0
100
AcDbCircle
 10
53.0243459846
 20
47.3701106175
 30
0.0
 40
0.1450000000000031
  0
CIRCLE
  5
2F9
330
1F
100
AcDbEntity
  8
0
  6
Continuous
 62
     7
370
     0
100
AcDbCircle
 10
38.5243459846
 20
46.8701106175
 30
0.0
 40
0.1450000000000102
  0
CIRCLE
  5
2FA
330
1F
100
AcDbEntity
  8
0
  6
Continuous
 62
     7
370
     0
100
AcDbCircle
 10
39.0243459846
 20
46.8701106175
 30
0.0
 40
0.1450000000000102
  0
CIRCLE
  5
2FB
330
1F
100
AcDbEntity
  8
0
  6
Continuous
 62
     7
370
     0
100
AcDbCircle
 10
39.5243459846
 20
46.8701106175
 30
0.0
 40
0.1450000000000102
  0
CIRCLE
  5
2FC
330
1F
100
AcDbEntity
  8
0
  6
Continuous
 62
     7
370
     0
100
AcDbCircle
 10
40.0243459846
 20
46.8701106175
 30
0.0
 40
0.144999999999996
  0
ARC
  5
2FD
330
1F
100
AcDbEntity
  8
0
  6
Continuous
 62
     7
370
     0
100
AcDbCircle
 10
40.5243459846
 20
46.8701106175
 30
0.0
 40
0.1450000000000026
100
AcDbArc
 50
79.0920912308
 51
245.8567720218
  0
ARC
  5
2FE
330
1F
100
AcDbEntity
  8
0
  6
Continuous
 62
     7
370
     0
100
AcDbCircle
 10
50.0243459846
 20
46.8701106175
 30
0.0
 40
0.1450000000000037
100
AcDbArc
 50
294.1432279783
 51
100.9079087692
  0
CIRCLE
  5
2FF
330
1F
100
AcDbEntity
  8
0
  6
Continuous
 62
     7
370
     0
100
AcDbCircle
 10
50.5243459846
 20
46.8701106175
 30
0.0
 40
0.1450000000000102
  0
CIRCLE
  5
300
330
1F
100
AcDbEntity
  8
0
  6
Continuous
 62
     7
370
     0
100
AcDbCircle
 10
51.0243459846
 20
46.8701106175
 30
0.0
 40
0.1450000000000102
  0
CIRCLE
  5
301
330
1F
100
AcDbEntity
  8
0
  6
Continuous
 62
     7
370
     0
100
AcDbCircle
 10
51.5243459846
 20
46.8701106175
 30
0.0
 40
0.144999999999996
  0
CIRCLE
  5
302
330
1F
100
AcDbEntity
  8
0
  6
Continuous
 62
     7
370
     0
100
AcDbCircle
 10
52.0243459846
 20
46.8701106175
 30
0.0
 40
0.144999999999996
  0
CIRCLE
  5
303
330
1F
100
AcDbEntity
  8
0
  6
Continuous
 62
     7
370
     0
100
AcDbCircle
 10
52.5243459846
 20
46.8701106175
 30
0.0
 40
0.144999999999996
  0
CIRCLE
  5
304
330
1F
100
AcDbEntity
  8
0
  6
Continuous
 62
     7
370
     0
100
AcDbCircle
 10
53.0243459846
 20
46.8701106175
 30
0.0
 40
0.144999999999996
  0
CIRCLE
  5
305
330
1F
100
AcDbEntity
  8
0
  6
Continuous
 62
     7
370
     0
100
AcDbCircle
 10
38.5243459846
 20
46.3701106175
 30
0.0
 40
0.144999999999996
  0
CIRCLE
  5
306
330
1F
100
AcDbEntity
  8
0
  6
Continuous
 62
     7
370
     0
100
AcDbCircle
 10
39.0243459846
 20
46.3701106175
 30
0.0
 40
0.144999999999996
  0
CIRCLE
  5
307
330
1F
100
AcDbEntity
  8
0
  6
Continuous
 62
     7
370
     0
100
AcDbCircle
 10
39.5243459846
 20
46.3701106175
 30
0.0
 40
0.144999999999996
  0
CIRCLE
  5
308
330
1F
100
AcDbEntity
  8
0
  6
Continuous
 62
     7
370
     0
100
AcDbCircle
 10
40.0243459846
 20
46.3701106175
 30
0.0
 40
0.144999999999996
  0
CIRCLE
  5
309
330
1F
100
AcDbEntity
  8
0
  6
Continuous
 62
     7
370
     0
100
AcDbCircle
 10
50.5243459846
 20
46.3701106175
 30
0.0
 40
0.144999999999996
  0
CIRCLE
  5
30A
330
1F
100
AcDbEntity
  8
0
  6
Continuous
 62
     7
370
     0
100
AcDbCircle
 10
51.0243459846
 20
46.3701106175
 30
0.0
 40
0.144999999999996
  0
CIRCLE
  5
30B
330
1F
100
AcDbEntity
  8
0
  6
Continuous
 62
     7
370
     0
100
AcDbCircle
 10
51.5243459846
 20
46.3701106175
 30
0.0
 40
0.144999999999996
  0
CIRCLE
  5
30C
330
1F
100
AcDbEntity
  8
0
  6
Continuous
 62
     7
370
     0
100
AcDbCircle
 10
52.0243459846
 20
46.3701106175
 30
0.0
 40
0.144999999999996
  0
CIRCLE
  5
30D
330
1F
100
AcDbEntity
  8
0
  6
Continuous
 62
     7
370
     0
100
AcDbCircle
 10
52.5243459846
 20
46.3701106175
 30
0.0
 40
0.144999999999996
  0
CIRCLE
  5
30E
330
1F
100
AcDbEntity
  8
0
  6
Continuous
 62
     7
370
     0
100
AcDbCircle
 10
53.0243459846
 20
46.3701106175
 30
0.0
 40
0.1450000000000031
  0
CIRCLE
  5
30F
330
1F
100
AcDbEntity
  8
0
  6
Continuous
 62
     7
370
     0
100
AcDbCircle
 10
38.5243459846
 20
45.8701106175
 30
0.0
 40
0.1450000000000031
  0
CIRCLE
  5
310
330
1F
100
AcDbEntity
  8
0
  6
Continuous
 62
     7
370
     0
100
AcDbCircle
 10
39.0243459846
 20
45.8701106175
 30
0.0
 40
0.1450000000000031
  0
CIRCLE
  5
311
330
1F
100
AcDbEntity
  8
0
  6
Continuous
 62
     7
370
     0
100
AcDbCircle
 10
39.5243459846
 20
45.8701106175
 30
0.0
 40
0.1450000000000031
  0
CIRCLE
  5
312
330
1F
100
AcDbEntity
  8
0
  6
Continuous
 62
     7
370
     0
100
AcDbCircle
 10
40.0243459846
 20
45.8701106175
 30
0.0
 40
0.1450000000000031
  0
CIRCLE
  5
313
330
1F
100
AcDbEntity
  8
0
  6
Continuous
 62
     7
370
     0
100
AcDbCircle
 10
50.5243459846
 20
45.8701106175
 30
0.0
 40
0.1450000000000102
  0
CIRCLE
  5
314
330
1F
100
AcDbEntity
  8
0
  6
Continuous
 62
     7
370
     0
100
AcDbCircle
 10
51.0243459846
 20
45.8701106175
 30
0.0
 40
0.1450000000000102
  0
CIRCLE
  5
315
330
1F
100
AcDbEntity
  8
0
  6
Continuous
 62
     7
370
     0
100
AcDbCircle
 10
51.5243459846
 20
45.8701106175
 30
0.0
 40
0.1450000000000102
  0
CIRCLE
  5
316
330
1F
100
AcDbEntity
  8
0
  6
Continuous
 62
     7
370
     0
100
AcDbCircle
 10
52.0243459846
 20
45.8701106175
 30
0.0
 40
0.144999999999996
  0
CIRCLE
  5
317
330
1F
100
AcDbEntity
  8
0
  6
Continuous
 62
     7
370
     0
100
AcDbCircle
 10
52.5243459846
 20
45.8701106175
 30
0.0
 40
0.144999999999996
  0
CIRCLE
  5
318
330
1F
100
AcDbEntity
  8
0
  6
Continuous
 62
     7
370
     0
100
AcDbCircle
 10
53.0243459846
 20
45.8701106175
 30
0.0
 40
0.144999999999996
  0
CIRCLE
  5
319
330
1F
100
AcDbEntity
  8
0
  6
Continuous
 62
     7
370
     0
100
AcDbCircle
 10
38.5243459846
 20
45.3701106175
 30
0.0
 40
0.144999999999996
  0
CIRCLE
  5
31A
330
1F
100
AcDbEntity
  8
0
  6
Continuous
 62
     7
370
     0
100
AcDbCircle
 10
39.0243459846
 20
45.3701106175
 30
0.0
 40
0.144999999999996
  0
CIRCLE
  5
31B
330
1F
100
AcDbEntity
  8
0
  6
Continuous
 62
     7
370
     0
100
AcDbCircle
 10
39.5243459846
 20
45.3701106175
 30
0.0
 40
0.144999999999996
  0
CIRCLE
  5
31C
330
1F
100
AcDbEntity
  8
0
  6
Continuous
 62
     7
370
     0
100
AcDbCircle
 10
40.0243459846
 20
45.3701106175
 30
0.0
 40
0.144999999999996
  0
ARC
  5
31D
330
1F
100
AcDbEntity
  8
0
  6
Continuous
 62
     7
370
     0
100
AcDbCircle
 10
47.5243459846
 20
49.8701106175
 30
0.0
 40
0.1450000000000021
100
AcDbArc
 50
320.2207005278
 51
166.649197118
  0
CIRCLE
  5
31E
330
1F
100
AcDbEntity
  8
0
  6
Continuous
 62
     7
370
     0
100
AcDbCircle
 10
48.0243459846
 20
49.8701106175
 30
0.0
 40
0.1450000000000031
  0
CIRCLE
  5
31F
330
1F
100
AcDbEntity
  8
0
  6
Continuous
 62
     7
370
     0
100
AcDbCircle
 10
48.5243459846
 20
49.8701106175
 30
0.0
 40
0.1450000000000031
  0
CIRCLE
  5
320
330
1F
100
AcDbEntity
  8
0
  6
Continuous
 62
     7
370
     0
100
AcDbCircle
 10
49.0243459846
 20
49.8701106175
 30
0.0
 40
0.1450000000000031
  0
CIRCLE
  5
321
330
1F
100
AcDbEntity
  8
0
  6
Continuous
 62
     7
370
     0
100
AcDbCircle
 10
49.5243459846
 20
49.8701106175
 30
0.0
 40
0.144999999999996
  0
CIRCLE
  5
322
330
1F
100
AcDbEntity
  8
0
  6
Continuous
 62
     7
370
     0
100
AcDbCircle
 10
50.0243459846
 20
49.8701106175
 30
0.0
 40
0.144999999999996
  0
CIRCLE
  5
323
330
1F
100
AcDbEntity
  8
0
  6
Continuous
 62
     7
370
     0
100
AcDbCircle
 10
50.5243459846
 20
49.8701106175
 30
0.0
 40
0.144999999999996
  0
CIRCLE
  5
324
330
1F
100
AcDbEntity
  8
0
  6
Continuous
 62
     7
370
     0
100
AcDbCircle
 10
51.0243459846
 20
49.8701106175
 30
0.0
 40
0.144999999999996
  0
CIRCLE
  5
325
330
1F
100
AcDbEntity
  8
0
  6
Continuous
 62
     7
370
     0
100
AcDbCircle
 10
51.5243459846
 20
49.8701106175
 30
0.0
 40
0.144999999999996
  0
CIRCLE
  5
326
330
1F
100
AcDbEntity
  8
0
  6
Continuous
 62
     7
370
     0
100
AcDbCircle
 10
52.0243459846
 20
49.8701106175
 30
0.0
 40
0.144999999999996
  0
CIRCLE
  5
327
330
1F
100
AcDbEntity
  8
0
  6
Continuous
 62
     7
370
     0
100
AcDbCircle
 10
52.5243459846
 20
49.8701106175
 30
0.0
 40
0.144999999999996
  0
CIRCLE
  5
328
330
1F
100
AcDbEntity
  8
0
  6
Continuous
 62
     7
370
     0
100
AcDbCircle
 10
53.0243459846
 20
49.8701106175
 30
0.0
 40
0.1450000000000102
  0
CIRCLE
  5
329
330
1F
100
AcDbEntity
  8
0
  6
Continuous
 62
     7
370
     0
100
AcDbCircle
 10
38.5243459846
 20
49.3701106175
 30
0.0
 40
0.1450000000000031
  0
CIRCLE
  5
32A
330
1F
100
AcDbEntity
  8
0
  6
Continuous
 62
     7
370
     0
100
AcDbCircle
 10
39.0243459846
 20
49.3701106175
 30
0.0
 40
0.1450000000000031
  0
CIRCLE
  5
32B
330
1F
100
AcDbEntity
  8
0
  6
Continuous
 62
     7
370
     0
100
AcDbCircle
 10
39.5243459846
 20
49.3701106175
 30
0.0
 40
0.1450000000000031
  0
CIRCLE
  5
32C
330
1F
100
AcDbEntity
  8
0
  6
Continuous
 62
     7
370
     0
100
AcDbCircle
 10
40.0243459846
 20
49.3701106175
 30
0.0
 40
0.1450000000000031
  0
CIRCLE
  5
32D
330
1F
100
AcDbEntity
  8
0
  6
Continuous
 62
     7
370
     0
100
AcDbCircle
 10
40.5243459846
 20
49.3701106175
 30
0.0
 40
0.1450000000000031
  0
CIRCLE
  5
32E
330
1F
100
AcDbEntity
  8
0
  6
Continuous
 62
     7
370
     0
100
AcDbCircle
 10
41.0243459846
 20
49.3701106175
 30
0.0
 40
0.144999999999996
  0
CIRCLE
  5
32F
330
1F
100
AcDbEntity
  8
0
  6
Continuous
 62
     7
370
     0
100
AcDbCircle
 10
41.5243459846
 20
49.3701106175
 30
0.0
 40
0.144999999999996
  0
CIRCLE
  5
330
330
1F
100
AcDbEntity
  8
0
  6
Continuous
 62
     7
370
     0
100
AcDbCircle
 10
42.0243459846
 20
49.3701106175
 30
0.0
 40
0.144999999999996
  0
CIRCLE
  5
331
330
1F
100
AcDbEntity
  8
0
  6
Continuous
 62
     7
370
     0
100
AcDbCircle
 10
48.5243459846
 20
49.3701106175
 30
0.0
 40
0.144999999999996
  0
CIRCLE
  5
332
330
1F
100
AcDbEntity
  8
0
  6
Continuous
 62
     7
370
     0
100
AcDbCircle
 10
49.0243459846
 20
49.3701106175
 30
0.0
 40
0.144999999999996
  0
CIRCLE
  5
333
330
1F
100
AcDbEntity
  8
0
  6
Continuous
 62
     7
370
     0
100
AcDbCircle
 10
49.5243459846
 20
49.3701106175
 30
0.0
 40
0.144999999999996
  0
CIRCLE
  5
334
330
1F
100
AcDbEntity
  8
0
  6
Continuous
 62
     7
370
     0
100
AcDbCircle
 10
50.0243459846
 20
49.3701106175
 30
0.0
 40
0.144999999999996
  0
CIRCLE
  5
335
330
1F
100
AcDbEntity
  8
0
  6
Continuous
 62
     7
370
     0
100
AcDbCircle
 10
50.5243459846
 20
49.3701106175
 30
0.0
 40
0.1450000000000031
  0
CIRCLE
  5
336
330
1F
100
AcDbEntity
  8
0
  6
Continuous
 62
     7
370
     0
100
AcDbCircle
 10
51.0243459846
 20
49.3701106175
 30
0.0
 40
0.1450000000000031
  0
CIRCLE
  5
337
330
1F
100
AcDbEntity
  8
0
  6
Continuous
 62
     7
370
     0
100
AcDbCircle
 10
51.5243459846
 20
49.3701106175
 30
0.0
 40
0.1450000000000031
  0
CIRCLE
  5
338
330
1F
100
AcDbEntity
  8
0
  6
Continuous
 62
     7
370
     0
100
AcDbCircle
 10
52.0243459846
 20
49.3701106175
 30
0.0
 40
0.1450000000000031
  0
CIRCLE
  5
339
330
1F
100
AcDbEntity
  8
0
  6
Continuous
 62
     7
370
     0
100
AcDbCircle
 10
52.5243459846
 20
49.3701106175
 30
0.0
 40
0.1450000000000031
  0
CIRCLE
  5
33A
330
1F
100
AcDbEntity
  8
0
  6
Continuous
 62
     7
370
     0
100
AcDbCircle
 10
53.0243459846
 20
49.3701106175
 30
0.0
 40
0.144999999999996
  0
CIRCLE
  5
33B
330
1F
100
AcDbEntity
  8
0
  6
Continuous
 62
     7
370
     0
100
AcDbCircle
 10
38.5243459846
 20
48.8701106175
 30
0.0
 40
0.144999999999996
  0
CIRCLE
  5
33C
330
1F
100
AcDbEntity
  8
0
  6
Continuous
 62
     7
370
     0
100
AcDbCircle
 10
39.0243459846
 20
48.8701106175
 30
0.0
 40
0.144999999999996
  0
CIRCLE
  5
33D
330
1F
100
AcDbEntity
  8
0
  6
Continuous
 62
     7
370
     0
100
AcDbCircle
 10
39.5243459846
 20
48.8701106175
 30
0.0
 40
0.144999999999996
  0
CIRCLE
  5
33E
330
1F
100
AcDbEntity
  8
0
  6
Continuous
 62
     7
370
     0
100
AcDbCircle
 10
40.0243459846
 20
48.8701106175
 30
0.0
 40
0.144999999999996
  0
CIRCLE
  5
33F
330
1F
100
AcDbEntity
  8
0
  6
Continuous
 62
     7
370
     0
100
AcDbCircle
 10
40.5243459846
 20
48.8701106175
 30
0.0
 40
0.144999999999996
  0
CIRCLE
  5
340
330
1F
100
AcDbEntity
  8
0
  6
Continuous
 62
     7
370
     0
100
AcDbCircle
 10
41.0243459846
 20
48.8701106175
 30
0.0
 40
0.144999999999996
  0
LINE
  5
341
330
1F
100
AcDbEntity
  8
0
  6
Continuous
 62
     7
370
     0
100
AcDbLine
 10
41.5243459846
 20
48.7251106175
 30
0.0
 11
41.5755268333
 21
48.7344436697
 31
0.0
  0
ARC
  5
342
330
1F
100
AcDbEntity
  8
0
  6
Continuous
 62
     7
370
     0
100
AcDbCircle
 10
41.5243459846
 20
48.8701106175
 30
0.0
 40
0.1450000000000024
100
AcDbArc
 50
343.280702535
 51
270.0
  0
CIRCLE
  5
343
330
1F
100
AcDbEntity
  8
0
  6
Continuous
 62
     7
370
     0
100
AcDbCircle
 10
51.5243459846
 20
40.3701106175
 30
0.0
 40
0.144999999999996
  0
CIRCLE
  5
344
330
1F
100
AcDbEntity
  8
0
  6
Continuous
 62
     7
370
     0
100
AcDbCircle
 10
52.0243459846
 20
40.3701106175
 30
0.0
 40
0.144999999999996
  0
CIRCLE
  5
345
330
1F
100
AcDbEntity
  8
0
  6
Continuous
 62
     7
370
     0
100
AcDbCircle
 10
52.5243459846
 20
40.3701106175
 30
0.0
 40
0.144999999999996
  0
CIRCLE
  5
346
330
1F
100
AcDbEntity
  8
0
  6
Continuous
 62
     7
370
     0
100
AcDbCircle
 10
53.0243459846
 20
40.3701106175
 30
0.0
 40
0.144999999999996
  0
CIRCLE
  5
347
330
1F
100
AcDbEntity
  8
0
  6
Continuous
 62
     7
370
     0
100
AcDbCircle
 10
38.5243459846
 20
39.8701106175
 30
0.0
 40
0.1450000000000031
  0
CIRCLE
  5
348
330
1F
100
AcDbEntity
  8
0
  6
Continuous
 62
     7
370
     0
100
AcDbCircle
 10
39.0243459846
 20
39.8701106175
 30
0.0
 40
0.1450000000000031
  0
CIRCLE
  5
349
330
1F
100
AcDbEntity
  8
0
  6
Continuous
 62
     7
370
     0
100
AcDbCircle
 10
50.5243459846
 20
44.3701106175
 30
0.0
 40
0.144999999999996
  0
CIRCLE
  5
34A
330
1F
100
AcDbEntity
  8
0
  6
Continuous
 62
     7
370
     0
100
AcDbCircle
 10
51.0243459846
 20
44.3701106175
 30
0.0
 40
0.144999999999996
  0
CIRCLE
  5
34B
330
1F
100
AcDbEntity
  8
0
  6
Continuous
 62
     7
370
     0
100
AcDbCircle
 10
51.5243459846
 20
44.3701106175
 30
0.0
 40
0.144999999999996
  0
CIRCLE
  5
34C
330
1F
100
AcDbEntity
  8
0
  6
Continuous
 62
     7
370
     0
100
AcDbCircle
 10
52.0243459846
 20
44.3701106175
 30
0.0
 40
0.144999999999996
  0
CIRCLE
  5
34D
330
1F
100
AcDbEntity
  8
0
  6
Continuous
 62
     7
370
     0
100
AcDbCircle
 10
52.5243459846
 20
44.3701106175
 30
0.0
 40
0.144999999999996
  0
CIRCLE
  5
34E
330
1F
100
AcDbEntity
  8
0
  6
Continuous
 62
     7
370
     0
100
AcDbCircle
 10
53.0243459846
 20
44.3701106175
 30
0.0
 40
0.144999999999996
  0
CIRCLE
  5
34F
330
1F
100
AcDbEntity
  8
0
  6
Continuous
 62
     7
370
     0
100
AcDbCircle
 10
38.5243459846
 20
43.8701106175
 30
0.0
 40
0.144999999999996
  0
CIRCLE
  5
350
330
1F
100
AcDbEntity
  8
0
  6
Continuous
 62
     7
370
     0
100
AcDbCircle
 10
39.0243459846
 20
43.8701106175
 30
0.0
 40
0.144999999999996
  0
CIRCLE
  5
351
330
1F
100
AcDbEntity
  8
0
  6
Continuous
 62
     7
370
     0
100
AcDbCircle
 10
39.5243459846
 20
43.8701106175
 30
0.0
 40
0.1450000000000031
  0
CIRCLE
  5
352
330
1F
100
AcDbEntity
  8
0
  6
Continuous
 62
     7
370
     0
100
AcDbCircle
 10
40.0243459846
 20
43.8701106175
 30
0.0
 40
0.1450000000000031
  0
LINE
  5
353
330
1F
100
AcDbEntity
  8
0
  6
Continuous
 62
     7
370
     0
100
AcDbLine
 10
40.5243459846
 20
43.7251106175
 30
0.0
 11
40.5517844774
 21
43.7277303902
 31
0.0
  0
ARC
  5
354
330
1F
100
AcDbEntity
  8
0
  6
Continuous
 62
     7
370
     0
100
AcDbCircle
 10
40.5243459846
 20
43.8701106175
 30
0.0
 40
0.1450000000000031
100
AcDbArc
 50
114.1432279782
 51
270.0
  0
ARC
  5
355
330
1F
100
AcDbEntity
  8
0
  6
Continuous
 62
     7
370
     0
100
AcDbCircle
 10
50.0243459846
 20
43.8701106175
 30
0.0
 40
0.1450000000000042
100
AcDbArc
 50
259.0920912308
 51
65.8567720217
  0
CIRCLE
  5
356
330
1F
100
AcDbEntity
  8
0
  6
Continuous
 62
     7
370
     0
100
AcDbCircle
 10
50.5243459846
 20
43.8701106175
 30
0.0
 40
0.144999999999996
  0
CIRCLE
  5
357
330
1F
100
AcDbEntity
  8
0
  6
Continuous
 62
     7
370
     0
100
AcDbCircle
 10
51.0243459846
 20
43.8701106175
 30
0.0
 40
0.144999999999996
  0
CIRCLE
  5
358
330
1F
100
AcDbEntity
  8
0
  6
Continuous
 62
     7
370
     0
100
AcDbCircle
 10
51.5243459846
 20
43.8701106175
 30
0.0
 40
0.144999999999996
  0
CIRCLE
  5
359
330
1F
100
AcDbEntity
  8
0
  6
Continuous
 62
     7
370
     0
100
AcDbCircle
 10
52.0243459846
 20
43.8701106175
 30
0.0
 40
0.144999999999996
  0
CIRCLE
  5
35A
330
1F
100
AcDbEntity
  8
0
  6
Continuous
 62
     7
370
     0
100
AcDbCircle
 10
52.5243459846
 20
43.8701106175
 30
0.0
 40
0.144999999999996
  0
CIRCLE
  5
35B
330
1F
100
AcDbEntity
  8
0
  6
Continuous
 62
     7
370
     0
100
AcDbCircle
 10
53.0243459846
 20
43.8701106175
 30
0.0
 40
0.144999999999996
  0
CIRCLE
  5
35C
330
1F
100
AcDbEntity
  8
0
  6
Continuous
 62
     7
370
     0
100
AcDbCircle
 10
38.5243459846
 20
43.3701106175
 30
0.0
 40
0.1450000000000031
  0
CIRCLE
  5
35D
330
1F
100
AcDbEntity
  8
0
  6
Continuous
 62
     7
370
     0
100
AcDbCircle
 10
39.0243459846
 20
43.3701106175
 30
0.0
 40
0.1450000000000031
  0
CIRCLE
  5
35E
330
1F
100
AcDbEntity
  8
0
  6
Continuous
 62
     7
370
     0
100
AcDbCircle
 10
39.5243459846
 20
43.3701106175
 30
0.0
 40
0.1450000000000031
  0
CIRCLE
  5
35F
330
1F
100
AcDbEntity
  8
0
  6
Continuous
 62
     7
370
     0
100
AcDbCircle
 10
40.0243459846
 20
43.3701106175
 30
0.0
 40
0.1450000000000031
  0
CIRCLE
  5
360
330
1F
100
AcDbEntity
  8
0
  6
Continuous
 62
     7
370
     0
100
AcDbCircle
 10
40.5243459846
 20
43.3701106175
 30
0.0
 40
0.1450000000000031
  0
CIRCLE
  5
361
330
1F
100
AcDbEntity
  8
0
  6
Continuous
 62
     7
370
     0
100
AcDbCircle
 10
50.0243459846
 20
43.3701106175
 30
0.0
 40
0.144999999999996
  0
CIRCLE
  5
362
330
1F
100
AcDbEntity
  8
0
  6
Continuous
 62
     7
370
     0
100
AcDbCircle
 10
50.5243459846
 20
43.3701106175
 30
0.0
 40
0.1450000000000031
  0
CIRCLE
  5
363
330
1F
100
AcDbEntity
  8
0
  6
Continuous
 62
     7
370
     0
100
AcDbCircle
 10
51.0243459846
 20
43.3701106175
 30
0.0
 40
0.1450000000000031
  0
CIRCLE
  5
364
330
1F
100
AcDbEntity
  8
0
  6
Continuous
 62
     7
370
     0
100
AcDbCircle
 10
51.5243459846
 20
43.3701106175
 30
0.0
 40
0.1450000000000031
  0
CIRCLE
  5
365
330
1F
100
AcDbEntity
  8
0
  6
Continuous
 62
     7
370
     0
100
AcDbCircle
 10
52.0243459846
 20
43.3701106175
 30
0.0
 40
0.1450000000000031
  0
CIRCLE
  5
366
330
1F
100
AcDbEntity
  8
0
  6
Continuous
 62
     7
370
     0
100
AcDbCircle
 10
52.5243459846
 20
43.3701106175
 30
0.0
 40
0.1450000000000031
  0
CIRCLE
  5
367
330
1F
100
AcDbEntity
  8
0
  6
Continuous
 62
     7
370
     0
100
AcDbCircle
 10
53.0243459846
 20
43.3701106175
 30
0.0
 40
0.1450000000000031
  0
CIRCLE
  5
368
330
1F
100
AcDbEntity
  8
0
  6
Continuous
 62
     7
370
     0
100
AcDbCircle
 10
38.5243459846
 20
42.8701106175
 30
0.0
 40
0.144999999999996
  0
CIRCLE
  5
369
330
1F
100
AcDbEntity
  8
0
  6
Continuous
 62
     7
370
     0
100
AcDbCircle
 10
39.0243459846
 20
42.8701106175
 30
0.0
 40
0.144999999999996
  0
CIRCLE
  5
36A
330
1F
100
AcDbEntity
  8
0
  6
Continuous
 62
     7
370
     0
100
AcDbCircle
 10
39.5243459846
 20
42.8701106175
 30
0.0
 40
0.1450000000000031
  0
CIRCLE
  5
36B
330
1F
100
AcDbEntity
  8
0
  6
Continuous
 62
     7
370
     0
100
AcDbCircle
 10
40.0243459846
 20
42.8701106175
 30
0.0
 40
0.1450000000000031
  0
CIRCLE
  5
36C
330
1F
100
AcDbEntity
  8
0
  6
Continuous
 62
     7
370
     0
100
AcDbCircle
 10
40.5243459846
 20
42.8701106175
 30
0.0
 40
0.1450000000000031
  0
LINE
  5
36D
330
1F
100
AcDbEntity
  8
0
  6
Continuous
 62
     7
370
     0
100
AcDbLine
 10
41.0243459846
 20
42.7251106175
 30
0.0
 11
41.0311376636
 21
42.7252697631
 31
0.0
  0
ARC
  5
36E
330
1F
100
AcDbEntity
  8
0
  6
Continuous
 62
     7
370
     0
100
AcDbCircle
 10
41.0243459846
 20
42.8701106175
 30
0.0
 40
0.1450000000000031
100
AcDbArc
 50
148.2464210583
 51
270.0
  0
ARC
  5
36F
330
1F
100
AcDbEntity
  8
0
  6
Continuous
 62
     7
370
     0
100
AcDbCircle
 10
49.5243459846
 20
42.8701106175
 30
0.0
 40
0.145000000000001
100
AcDbArc
 50
267.3153312194
 51
31.7535789417
  0
CIRCLE
  5
370
330
1F
100
AcDbEntity
  8
0
  6
Continuous
 62
     7
370
     0
100
AcDbCircle
 10
50.0243459846
 20
42.8701106175
 30
0.0
 40
0.1450000000000031
  0
CIRCLE
  5
371
330
1F
100
AcDbEntity
  8
0
  6
Continuous
 62
     7
370
     0
100
AcDbCircle
 10
50.5243459846
 20
42.8701106175
 30
0.0
 40
0.144999999999996
  0
CIRCLE
  5
372
330
1F
100
AcDbEntity
  8
0
  6
Continuous
 62
     7
370
     0
100
AcDbCircle
 10
51.0243459846
 20
42.8701106175
 30
0.0
 40
0.144999999999996
  0
CIRCLE
  5
373
330
1F
100
AcDbEntity
  8
0
  6
Continuous
 62
     7
370
     0
100
AcDbCircle
 10
51.5243459846
 20
42.8701106175
 30
0.0
 40
0.1450000000000031
  0
CIRCLE
  5
374
330
1F
100
AcDbEntity
  8
0
  6
Continuous
 62
     7
370
     0
100
AcDbCircle
 10
52.0243459846
 20
42.8701106175
 30
0.0
 40
0.1450000000000031
  0
CIRCLE
  5
375
330
1F
100
AcDbEntity
  8
0
  6
Continuous
 62
     7
370
     0
100
AcDbCircle
 10
52.5243459846
 20
42.8701106175
 30
0.0
 40
0.1450000000000031
  0
CIRCLE
  5
376
330
1F
100
AcDbEntity
  8
0
  6
Continuous
 62
     7
370
     0
100
AcDbCircle
 10
53.0243459846
 20
42.8701106175
 30
0.0
 40
0.1450000000000031
  0
CIRCLE
  5
377
330
1F
100
AcDbEntity
  8
0
  6
Continuous
 62
     7
370
     0
100
AcDbCircle
 10
38.5243459846
 20
42.3701106175
 30
0.0
 40
0.1450000000000031
  0
CIRCLE
  5
378
330
1F
100
AcDbEntity
  8
0
  6
Continuous
 62
     7
370
     0
100
AcDbCircle
 10
39.0243459846
 20
42.3701106175
 30
0.0
 40
0.1450000000000031
  0
CIRCLE
  5
379
330
1F
100
AcDbEntity
  8
0
  6
Continuous
 62
     7
370
     0
100
AcDbCircle
 10
39.5243459846
 20
42.3701106175
 30
0.0
 40
0.144999999999996
  0
CIRCLE
  5
37A
330
1F
100
AcDbEntity
  8
0
  6
Continuous
 62
     7
370
     0
100
AcDbCircle
 10
40.0243459846
 20
42.3701106175
 30
0.0
 40
0.1450000000000031
  0
CIRCLE
  5
37B
330
1F
100
AcDbEntity
  8
0
  6
Continuous
 62
     7
370
     0
100
AcDbCircle
 10
40.5243459846
 20
42.3701106175
 30
0.0
 40
0.1450000000000031
  0
CIRCLE
  5
37C
330
1F
100
AcDbEntity
  8
0
  6
Continuous
 62
     7
370
     0
100
AcDbCircle
 10
41.0243459846
 20
42.3701106175
 30
0.0
 40
0.1450000000000031
  0
CIRCLE
  5
37D
330
1F
100
AcDbEntity
  8
0
  6
Continuous
 62
     7
370
     0
100
AcDbCircle
 10
49.5243459846
 20
42.3701106175
 30
0.0
 40
0.1450000000000031
  0
CIRCLE
  5
37E
330
1F
100
AcDbEntity
  8
0
  6
Continuous
 62
     7
370
     0
100
AcDbCircle
 10
50.0243459846
 20
42.3701106175
 30
0.0
 40
0.1450000000000031
  0
CIRCLE
  5
37F
330
1F
100
AcDbEntity
  8
0
  6
Continuous
 62
     7
370
     0
100
AcDbCircle
 10
50.5243459846
 20
42.3701106175
 30
0.0
 40
0.1450000000000031
  0
CIRCLE
  5
380
330
1F
100
AcDbEntity
  8
0
  6
Continuous
 62
     7
370
     0
100
AcDbCircle
 10
51.0243459846
 20
42.3701106175
 30
0.0
 40
0.1450000000000031
  0
CIRCLE
  5
381
330
1F
100
AcDbEntity
  8
0
  6
Continuous
 62
     7
370
     0
100
AcDbCircle
 10
51.5243459846
 20
42.3701106175
 30
0.0
 40
0.144999999999996
  0
CIRCLE
  5
382
330
1F
100
AcDbEntity
  8
0
  6
Continuous
 62
     7
370
     0
100
AcDbCircle
 10
52.0243459846
 20
42.3701106175
 30
0.0
 40
0.1450000000000031
  0
CIRCLE
  5
383
330
1F
100
AcDbEntity
  8
0
  6
Continuous
 62
     7
370
     0
100
AcDbCircle
 10
52.5243459846
 20
42.3701106175
 30
0.0
 40
0.1450000000000031
  0
CIRCLE
  5
384
330
1F
100
AcDbEntity
  8
0
  6
Continuous
 62
     7
370
     0
100
AcDbCircle
 10
53.0243459846
 20
42.3701106175
 30
0.0
 40
0.1450000000000031
  0
CIRCLE
  5
385
330
1F
100
AcDbEntity
  8
0
  6
Continuous
 62
     7
370
     0
100
AcDbCircle
 10
38.5243459846
 20
41.8701106175
 30
0.0
 40
0.144999999999996
  0
CIRCLE
  5
386
330
1F
100
AcDbEntity
  8
0
  6
Continuous
 62
     7
370
     0
100
AcDbCircle
 10
39.0243459846
 20
41.8701106175
 30
0.0
 40
0.144999999999996
  0
CIRCLE
  5
387
330
1F
100
AcDbEntity
  8
0
  6
Continuous
 62
     7
370
     0
100
AcDbCircle
 10
39.5243459846
 20
41.8701106175
 30
0.0
 40
0.144999999999996
  0
CIRCLE
  5
388
330
1F
100
AcDbEntity
  8
0
  6
Continuous
 62
     7
370
     0
100
AcDbCircle
 10
40.0243459846
 20
41.8701106175
 30
0.0
 40
0.1450000000000031
  0
CIRCLE
  5
389
330
1F
100
AcDbEntity
  8
0
  6
Continuous
 62
     7
370
     0
100
AcDbCircle
 10
40.5243459846
 20
41.8701106175
 30
0.0
 40
0.1450000000000031
  0
CIRCLE
  5
38A
330
1F
100
AcDbEntity
  8
0
  6
Continuous
 62
     7
370
     0
100
AcDbCircle
 10
41.0243459846
 20
41.8701106175
 30
0.0
 40
0.1450000000000031
  0
ARC
  5
38B
330
1F
100
AcDbEntity
  8
0
  6
Continuous
 62
     7
370
     0
100
AcDbCircle
 10
41.5243459846
 20
41.8701106175
 30
0.0
 40
0.1450000000000031
100
AcDbArc
 50
270.0
 51
16.719297465
  0
ARC
  5
38C
330
1F
100
AcDbEntity
  8
0
  6
Continuous
 62
     7
370
     0
100
AcDbCircle
 10
41.5243459846
 20
41.8701106175
 30
0.0
 40
0.1450000000000045
100
AcDbArc
 50
69.3308345132
 51
270.0
  0
ARC
  5
38D
330
1F
100
AcDbEntity
  8
0
  6
Continuous
 62
     7
370
     0
100
AcDbCircle
 10
49.0243459846
 20
41.8701106175
 30
0.0
 40
0.1450000000000031
100
AcDbArc
 50
270.0
 51
110.6691654868
  0
ARC
  5
38E
330
1F
100
AcDbEntity
  8
0
  6
Continuous
 62
     7
370
     0
100
AcDbCircle
 10
49.0243459846
 20
41.8701106175
 30
0.0
 40
0.1450000000000105
100
AcDbArc
 50
163.280702535
 51
270.0
  0
CIRCLE
  5
38F
330
1F
100
AcDbEntity
  8
0
  6
Continuous
 62
     7
370
     0
100
AcDbCircle
 10
49.5243459846
 20
41.8701106175
 30
0.0
 40
0.1450000000000031
  0
CIRCLE
  5
390
330
1F
100
AcDbEntity
  8
0
  6
Continuous
 62
     7
370
     0
100
AcDbCircle
 10
50.0243459846
 20
41.8701106175
 30
0.0
 40
0.1450000000000031
  0
CIRCLE
  5
391
330
1F
100
AcDbEntity
  8
0
  6
Continuous
 62
     7
370
     0
100
AcDbCircle
 10
50.5243459846
 20
41.8701106175
 30
0.0
 40
0.1450000000000031
  0
CIRCLE
  5
392
330
1F
100
AcDbEntity
  8
0
  6
Continuous
 62
     7
370
     0
100
AcDbCircle
 10
51.0243459846
 20
41.8701106175
 30
0.0
 40
0.144999999999996
  0
CIRCLE
  5
393
330
1F
100
AcDbEntity
  8
0
  6
Continuous
 62
     7
370
     0
100
AcDbCircle
 10
51.5243459846
 20
41.8701106175
 30
0.0
 40
0.144999999999996
  0
CIRCLE
  5
394
330
1F
100
AcDbEntity
  8
0
  6
Continuous
 62
     7
370
     0
100
AcDbCircle
 10
52.0243459846
 20
41.8701106175
 30
0.0
 40
0.1450000000000031
  0
CIRCLE
  5
395
330
1F
100
AcDbEntity
  8
0
  6
Continuous
 62
     7
370
     0
100
AcDbCircle
 10
52.5243459846
 20
41.8701106175
 30
0.0
 40
0.1450000000000031
  0
CIRCLE
  5
396
330
1F
100
AcDbEntity
  8
0
  6
Continuous
 62
     7
370
     0
100
AcDbCircle
 10
53.0243459846
 20
41.8701106175
 30
0.0
 40
0.1450000000000031
  0
CIRCLE
  5
397
330
1F
100
AcDbEntity
  8
0
  6
Continuous
 62
     7
370
     0
100
AcDbCircle
 10
38.5243459846
 20
41.3701106175
 30
0.0
 40
0.144999999999996
  0
CIRCLE
  5
398
330
1F
100
AcDbEntity
  8
0
  6
Continuous
 62
     7
370
     0
100
AcDbCircle
 10
39.0243459846
 20
41.3701106175
 30
0.0
 40
0.144999999999996
  0
CIRCLE
  5
399
330
1F
100
AcDbEntity
  8
0
  6
Continuous
 62
     7
370
     0
100
AcDbCircle
 10
39.5243459846
 20
41.3701106175
 30
0.0
 40
0.144999999999996
  0
CIRCLE
  5
39A
330
1F
100
AcDbEntity
  8
0
  6
Continuous
 62
     7
370
     0
100
AcDbCircle
 10
40.0243459846
 20
41.3701106175
 30
0.0
 40
0.144999999999996
  0
CIRCLE
  5
39B
330
1F
100
AcDbEntity
  8
0
  6
Continuous
 62
     7
370
     0
100
AcDbCircle
 10
40.5243459846
 20
41.3701106175
 30
0.0
 40
0.1450000000000031
  0
CIRCLE
  5
39C
330
1F
100
AcDbEntity
  8
0
  6
Continuous
 62
     7
370
     0
100
AcDbCircle
 10
41.0243459846
 20
41.3701106175
 30
0.0
 40
0.1450000000000031
  0
CIRCLE
  5
39D
330
1F
100
AcDbEntity
  8
0
  6
Continuous
 62
     7
370
     0
100
AcDbCircle
 10
41.5243459846
 20
41.3701106175
 30
0.0
 40
0.1450000000000031
  0
CIRCLE
  5
39E
330
1F
100
AcDbEntity
  8
0
  6
Continuous
 62
     7
370
     0
100
AcDbCircle
 10
42.0243459846
 20
41.3701106175
 30
0.0
 40
0.1450000000000031
  0
CIRCLE
  5
39F
330
1F
100
AcDbEntity
  8
0
  6
Continuous
 62
     7
370
     0
100
AcDbCircle
 10
48.5243459846
 20
41.3701106175
 30
0.0
 40
0.144999999999996
  0
CIRCLE
  5
3A0
330
1F
100
AcDbEntity
  8
0
  6
Continuous
 62
     7
370
     0
100
AcDbCircle
 10
49.0243459846
 20
41.3701106175
 30
0.0
 40
0.144999999999996
  0
CIRCLE
  5
3A1
330
1F
100
AcDbEntity
  8
0
  6
Continuous
 62
     7
370
     0
100
AcDbCircle
 10
49.5243459846
 20
41.3701106175
 30
0.0
 40
0.1450000000000031
  0
CIRCLE
  5
3A2
330
1F
100
AcDbEntity
  8
0
  6
Continuous
 62
     7
370
     0
100
AcDbCircle
 10
50.0243459846
 20
41.3701106175
 30
0.0
 40
0.1450000000000031
  0
CIRCLE
  5
3A3
330
1F
100
AcDbEntity
  8
0
  6
Continuous
 62
     7
370
     0
100
AcDbCircle
 10
50.5243459846
 20
41.3701106175
 30
0.0
 40
0.1450000000000031
  0
CIRCLE
  5
3A4
330
1F
100
AcDbEntity
  8
0
  6
Continuous
 62
     7
370
     0
100
AcDbCircle
 10
51.0243459846
 20
41.3701106175
 30
0.0
 40
0.1450000000000031
  0
CIRCLE
  5
3A5
330
1F
100
AcDbEntity
  8
0
  6
Continuous
 62
     7
370
     0
100
AcDbCircle
 10
51.5243459846
 20
41.3701106175
 30
0.0
 40
0.1450000000000031
  0
CIRCLE
  5
3A6
330
1F
100
AcDbEntity
  8
0
  6
Continuous
 62
     7
370
     0
100
AcDbCircle
 10
52.0243459846
 20
41.3701106175
 30
0.0
 40
0.1450000000000031
  0
CIRCLE
  5
3A7
330
1F
100
AcDbEntity
  8
0
  6
Continuous
 62
     7
370
     0
100
AcDbCircle
 10
52.5243459846
 20
41.3701106175
 30
0.0
 40
0.1450000000000031
  0
CIRCLE
  5
3A8
330
1F
100
AcDbEntity
  8
0
  6
Continuous
 62
     7
370
     0
100
AcDbCircle
 10
53.0243459846
 20
41.3701106175
 30
0.0
 40
0.1450000000000031
  0
CIRCLE
  5
3A9
330
1F
100
AcDbEntity
  8
0
  6
Continuous
 62
     7
370
     0
100
AcDbCircle
 10
38.5243459846
 20
40.8701106175
 30
0.0
 40
0.144999999999996
  0
CIRCLE
  5
3AA
330
1F
100
AcDbEntity
  8
0
  6
Continuous
 62
     7
370
     0
100
AcDbCircle
 10
39.0243459846
 20
40.8701106175
 30
0.0
 40
0.144999999999996
  0
CIRCLE
  5
3AB
330
1F
100
AcDbEntity
  8
0
  6
Continuous
 62
     7
370
     0
100
AcDbCircle
 10
39.5243459846
 20
40.8701106175
 30
0.0
 40
0.144999999999996
  0
CIRCLE
  5
3AC
330
1F
100
AcDbEntity
  8
0
  6
Continuous
 62
     7
370
     0
100
AcDbCircle
 10
40.0243459846
 20
40.8701106175
 30
0.0
 40
0.144999999999996
  0
CIRCLE
  5
3AD
330
1F
100
AcDbEntity
  8
0
  6
Continuous
 62
     7
370
     0
100
AcDbCircle
 10
40.5243459846
 20
40.8701106175
 30
0.0
 40
0.144999999999996
  0
CIRCLE
  5
3AE
330
1F
100
AcDbEntity
  8
0
  6
Continuous
 62
     7
370
     0
100
AcDbCircle
 10
41.0243459846
 20
40.8701106175
 30
0.0
 40
0.1450000000000031
  0
CIRCLE
  5
3AF
330
1F
100
AcDbEntity
  8
0
  6
Continuous
 62
     7
370
     0
100
AcDbCircle
 10
41.5243459846
 20
40.8701106175
 30
0.0
 40
0.1450000000000031
  0
CIRCLE
  5
3B0
330
1F
100
AcDbEntity
  8
0
  6
Continuous
 62
     7
370
     0
100
AcDbCircle
 10
42.0243459846
 20
40.8701106175
 30
0.0
 40
0.1450000000000031
  0
CIRCLE
  5
3B1
330
1F
100
AcDbEntity
  8
0
  6
Continuous
 62
     7
370
     0
100
AcDbCircle
 10
42.5243459846
 20
40.8701106175
 30
0.0
 40
0.1450000000000031
  0
ARC
  5
3B2
330
1F
100
AcDbEntity
  8
0
  6
Continuous
 62
     7
370
     0
100
AcDbCircle
 10
43.0243459846
 20
40.8701106175
 30
0.0
 40
0.1450000000000031
100
AcDbArc
 50
270.0
 51
346.6491971181
  0
ARC
  5
3B3
330
1F
100
AcDbEntity
  8
0
  6
Continuous
 62
     7
370
     0
100
AcDbCircle
 10
43.0243459846
 20
40.8701106175
 30
0.0
 40
0.1450000000000031
100
AcDbArc
 50
140.2207005278
 51
270.0
  0
ARC
  5
3B4
330
1F
100
AcDbEntity
  8
0
  6
Continuous
 62
     7
370
     0
100
AcDbCircle
 10
47.5243459846
 20
40.8701106175
 30
0.0
 40
0.1450000000000061
100
AcDbArc
 50
270.0
 51
39.7792994722
  0
ARC
  5
3B5
330
1F
100
AcDbEntity
  8
0
  6
Continuous
 62
     7
370
     0
100
AcDbCircle
 10
47.5243459846
 20
40.8701106175
 30
0.0
 40
0.1449999999999975
100
AcDbArc
 50
193.350802882
 51
270.0
  0
CIRCLE
  5
3B6
330
1F
100
AcDbEntity
  8
0
  6
Continuous
 62
     7
370
     0
100
AcDbCircle
 10
48.0243459846
 20
40.8701106175
 30
0.0
 40
0.144999999999996
  0
CIRCLE
  5
3B7
330
1F
100
AcDbEntity
  8
0
  6
Continuous
 62
     7
370
     0
100
AcDbCircle
 10
48.5243459846
 20
40.8701106175
 30
0.0
 40
0.144999999999996
  0
CIRCLE
  5
3B8
330
1F
100
AcDbEntity
  8
0
  6
Continuous
 62
     7
370
     0
100
AcDbCircle
 10
49.0243459846
 20
40.8701106175
 30
0.0
 40
0.144999999999996
  0
CIRCLE
  5
3B9
330
1F
100
AcDbEntity
  8
0
  6
Continuous
 62
     7
370
     0
100
AcDbCircle
 10
49.5243459846
 20
40.8701106175
 30
0.0
 40
0.144999999999996
  0
CIRCLE
  5
3BA
330
1F
100
AcDbEntity
  8
0
  6
Continuous
 62
     7
370
     0
100
AcDbCircle
 10
50.0243459846
 20
40.8701106175
 30
0.0
 40
0.1450000000000031
  0
CIRCLE
  5
3BB
330
1F
100
AcDbEntity
  8
0
  6
Continuous
 62
     7
370
     0
100
AcDbCircle
 10
50.5243459846
 20
40.8701106175
 30
0.0
 40
0.1450000000000031
  0
CIRCLE
  5
3BC
330
1F
100
AcDbEntity
  8
0
  6
Continuous
 62
     7
370
     0
100
AcDbCircle
 10
51.0243459846
 20
40.8701106175
 30
0.0
 40
0.1450000000000031
  0
CIRCLE
  5
3BD
330
1F
100
AcDbEntity
  8
0
  6
Continuous
 62
     7
370
     0
100
AcDbCircle
 10
51.5243459846
 20
40.8701106175
 30
0.0
 40
0.1450000000000031
  0
CIRCLE
  5
3BE
330
1F
100
AcDbEntity
  8
0
  6
Continuous
 62
     7
370
     0
100
AcDbCircle
 10
52.0243459846
 20
40.8701106175
 30
0.0
 40
0.144999999999996
  0
CIRCLE
  5
3BF
330
1F
100
AcDbEntity
  8
0
  6
Continuous
 62
     7
370
     0
100
AcDbCircle
 10
52.5243459846
 20
40.8701106175
 30
0.0
 40
0.144999999999996
  0
CIRCLE
  5
3C0
330
1F
100
AcDbEntity
  8
0
  6
Continuous
 62
     7
370
     0
100
AcDbCircle
 10
53.0243459846
 20
40.8701106175
 30
0.0
 40
0.1450000000000031
  0
CIRCLE
  5
3C1
330
1F
100
AcDbEntity
  8
0
  6
Continuous
 62
     7
370
     0
100
AcDbCircle
 10
38.5243459846
 20
40.3701106175
 30
0.0
 40
0.144999999999996
  0
CIRCLE
  5
3C2
330
1F
100
AcDbEntity
  8
0
  6
Continuous
 62
     7
370
     0
100
AcDbCircle
 10
39.0243459846
 20
40.3701106175
 30
0.0
 40
0.144999999999996
  0
CIRCLE
  5
3C3
330
1F
100
AcDbEntity
  8
0
  6
Continuous
 62
     7
370
     0
100
AcDbCircle
 10
39.5243459846
 20
40.3701106175
 30
0.0
 40
0.144999999999996
  0
CIRCLE
  5
3C4
330
1F
100
AcDbEntity
  8
0
  6
Continuous
 62
     7
370
     0
100
AcDbCircle
 10
40.0243459846
 20
40.3701106175
 30
0.0
 40
0.144999999999996
  0
CIRCLE
  5
3C5
330
1F
100
AcDbEntity
  8
0
  6
Continuous
 62
     7
370
     0
100
AcDbCircle
 10
40.5243459846
 20
40.3701106175
 30
0.0
 40
0.144999999999996
  0
CIRCLE
  5
3C6
330
1F
100
AcDbEntity
  8
0
  6
Continuous
 62
     7
370
     0
100
AcDbCircle
 10
41.0243459846
 20
40.3701106175
 30
0.0
 40
0.144999999999996
  0
CIRCLE
  5
3C7
330
1F
100
AcDbEntity
  8
0
  6
Continuous
 62
     7
370
     0
100
AcDbCircle
 10
41.5243459846
 20
40.3701106175
 30
0.0
 40
0.1450000000000031
  0
CIRCLE
  5
3C8
330
1F
100
AcDbEntity
  8
0
  6
Continuous
 62
     7
370
     0
100
AcDbCircle
 10
42.0243459846
 20
40.3701106175
 30
0.0
 40
0.1450000000000031
  0
CIRCLE
  5
3C9
330
1F
100
AcDbEntity
  8
0
  6
Continuous
 62
     7
370
     0
100
AcDbCircle
 10
42.5243459846
 20
40.3701106175
 30
0.0
 40
0.1450000000000031
  0
CIRCLE
  5
3CA
330
1F
100
AcDbEntity
  8
0
  6
Continuous
 62
     7
370
     0
100
AcDbCircle
 10
43.0243459846
 20
40.3701106175
 30
0.0
 40
0.1450000000000031
  0
CIRCLE
  5
3CB
330
1F
100
AcDbEntity
  8
0
  6
Continuous
 62
     7
370
     0
100
AcDbCircle
 10
43.5243459846
 20
40.3701106175
 30
0.0
 40
0.144999999999996
  0
CIRCLE
  5
3CC
330
1F
100
AcDbEntity
  8
0
  6
Continuous
 62
     7
370
     0
100
AcDbCircle
 10
44.0243459846
 20
40.3701106175
 30
0.0
 40
0.144999999999996
  0
ARC
  5
3CD
330
1F
100
AcDbEntity
  8
0
  6
Continuous
 62
     7
370
     0
100
AcDbCircle
 10
44.5243459846
 20
40.3701106175
 30
0.0
 40
0.1450000000000031
100
AcDbArc
 50
270.0
 51
14.9211110346
  0
ARC
  5
3CE
330
1F
100
AcDbEntity
  8
0
  6
Continuous
 62
     7
370
     0
100
AcDbCircle
 10
44.5243459846
 20
40.3701106175
 30
0.0
 40
0.1450000000000031
100
AcDbArc
 50
148.0173577455
 51
270.0
  0
ARC
  5
3CF
330
1F
100
AcDbEntity
  8
0
  6
Continuous
 62
     7
370
     0
100
AcDbCircle
 10
45.0243459846
 20
40.3701106175
 30
0.0
 40
0.1450000000000031
100
AcDbArc
 50
270.0
 51
0.435732539
  0
ARC
  5
3D0
330
1F
100
AcDbEntity
  8
0
  6
Continuous
 62
     7
370
     0
100
AcDbCircle
 10
45.0243459846
 20
40.3701106175
 30
0.0
 40
0.1450000000000031
100
AcDbArc
 50
173.8394570088
 51
270.0
  0
ARC
  5
3D1
330
1F
100
AcDbEntity
  8
0
  6
Continuous
 62
     7
370
     0
100
AcDbCircle
 10
45.5243459846
 20
40.3701106175
 30
0.0
 40
0.1450000000000031
100
AcDbArc
 50
270.0
 51
6.1605429912
  0
ARC
  5
3D2
330
1F
100
AcDbEntity
  8
0
  6
Continuous
 62
     7
370
     0
100
AcDbCircle
 10
45.5243459846
 20
40.3701106175
 30
0.0
 40
0.1450000000000047
100
AcDbArc
 50
179.564267461
 51
270.0
  0
ARC
  5
3D3
330
1F
100
AcDbEntity
  8
0
  6
Continuous
 62
     7
370
     0
100
AcDbCircle
 10
46.0243459846
 20
40.3701106175
 30
0.0
 40
0.1450000000000031
100
AcDbArc
 50
270.0
 51
31.9826422545
  0
ARC
  5
3D4
330
1F
100
AcDbEntity
  8
0
  6
Continuous
 62
     7
370
     0
100
AcDbCircle
 10
46.0243459846
 20
40.3701106175
 30
0.0
 40
0.1450000000000072
100
AcDbArc
 50
165.0788889654
 51
270.0
  0
CIRCLE
  5
3D5
330
1F
100
AcDbEntity
  8
0
  6
Continuous
 62
     7
370
     0
100
AcDbCircle
 10
46.5243459846
 20
40.3701106175
 30
0.0
 40
0.1450000000000031
  0
CIRCLE
  5
3D6
330
1F
100
AcDbEntity
  8
0
  6
Continuous
 62
     7
370
     0
100
AcDbCircle
 10
47.0243459846
 20
40.3701106175
 30
0.0
 40
0.1450000000000031
  0
CIRCLE
  5
3D7
330
1F
100
AcDbEntity
  8
0
  6
Continuous
 62
     7
370
     0
100
AcDbCircle
 10
47.5243459846
 20
40.3701106175
 30
0.0
 40
0.1450000000000031
  0
CIRCLE
  5
3D8
330
1F
100
AcDbEntity
  8
0
  6
Continuous
 62
     7
370
     0
100
AcDbCircle
 10
48.0243459846
 20
40.3701106175
 30
0.0
 40
0.1450000000000031
  0
CIRCLE
  5
3D9
330
1F
100
AcDbEntity
  8
0
  6
Continuous
 62
     7
370
     0
100
AcDbCircle
 10
48.5243459846
 20
40.3701106175
 30
0.0
 40
0.1450000000000031
  0
CIRCLE
  5
3DA
330
1F
100
AcDbEntity
  8
0
  6
Continuous
 62
     7
370
     0
100
AcDbCircle
 10
49.0243459846
 20
40.3701106175
 30
0.0
 40
0.1450000000000031
  0
CIRCLE
  5
3DB
330
1F
100
AcDbEntity
  8
0
  6
Continuous
 62
     7
370
     0
100
AcDbCircle
 10
49.5243459846
 20
40.3701106175
 30
0.0
 40
0.1450000000000031
  0
CIRCLE
  5
3DC
330
1F
100
AcDbEntity
  8
0
  6
Continuous
 62
     7
370
     0
100
AcDbCircle
 10
50.0243459846
 20
40.3701106175
 30
0.0
 40
0.144999999999996
  0
CIRCLE
  5
3DD
330
1F
100
AcDbEntity
  8
0
  6
Continuous
 62
     7
370
     0
100
AcDbCircle
 10
50.5243459846
 20
40.3701106175
 30
0.0
 40
0.144999999999996
  0
CIRCLE
  5
3DE
330
1F
100
AcDbEntity
  8
0
  6
Continuous
 62
     7
370
     0
100
AcDbCircle
 10
51.0243459846
 20
40.3701106175
 30
0.0
 40
0.144999999999996
  0
CIRCLE
  5
3DF
330
1F
100
AcDbEntity
  8
0
  6
Continuous
 62
     7
370
     0
100
AcDbCircle
 10
42.0243459846
 20
37.8701106175
 30
0.0
 40
0.144999999999996
  0
CIRCLE
  5
3E0
330
1F
100
AcDbEntity
  8
0
  6
Continuous
 62
     7
370
     0
100
AcDbCircle
 10
42.5243459846
 20
37.8701106175
 30
0.0
 40
0.144999999999996
  0
CIRCLE
  5
3E1
330
1F
100
AcDbEntity
  8
0
  6
Continuous
 62
     7
370
     0
100
AcDbCircle
 10
43.0243459846
 20
37.8701106175
 30
0.0
 40
0.1450000000000031
  0
CIRCLE
  5
3E2
330
1F
100
AcDbEntity
  8
0
  6
Continuous
 62
     7
370
     0
100
AcDbCircle
 10
43.5243459846
 20
37.8701106175
 30
0.0
 40
0.1450000000000031
  0
CIRCLE
  5
3E3
330
1F
100
AcDbEntity
  8
0
  6
Continuous
 62
     7
370
     0
100
AcDbCircle
 10
44.0243459846
 20
37.8701106175
 30
0.0
 40
0.1450000000000031
  0
CIRCLE
  5
3E4
330
1F
100
AcDbEntity
  8
0
  6
Continuous
 62
     7
370
     0
100
AcDbCircle
 10
39.5243459846
 20
39.8701106175
 30
0.0
 40
0.1450000000000031
  0
CIRCLE
  5
3E5
330
1F
100
AcDbEntity
  8
0
  6
Continuous
 62
     7
370
     0
100
AcDbCircle
 10
40.0243459846
 20
39.8701106175
 30
0.0
 40
0.1450000000000031
  0
CIRCLE
  5
3E6
330
1F
100
AcDbEntity
  8
0
  6
Continuous
 62
     7
370
     0
100
AcDbCircle
 10
40.5243459846
 20
39.8701106175
 30
0.0
 40
0.1450000000000031
  0
CIRCLE
  5
3E7
330
1F
100
AcDbEntity
  8
0
  6
Continuous
 62
     7
370
     0
100
AcDbCircle
 10
41.0243459846
 20
39.8701106175
 30
0.0
 40
0.144999999999996
  0
CIRCLE
  5
3E8
330
1F
100
AcDbEntity
  8
0
  6
Continuous
 62
     7
370
     0
100
AcDbCircle
 10
41.5243459846
 20
39.8701106175
 30
0.0
 40
0.144999999999996
  0
CIRCLE
  5
3E9
330
1F
100
AcDbEntity
  8
0
  6
Continuous
 62
     7
370
     0
100
AcDbCircle
 10
42.0243459846
 20
39.8701106175
 30
0.0
 40
0.144999999999996
  0
CIRCLE
  5
3EA
330
1F
100
AcDbEntity
  8
0
  6
Continuous
 62
     7
370
     0
100
AcDbCircle
 10
42.5243459846
 20
39.8701106175
 30
0.0
 40
0.144999999999996
  0
CIRCLE
  5
3EB
330
1F
100
AcDbEntity
  8
0
  6
Continuous
 62
     7
370
     0
100
AcDbCircle
 10
43.0243459846
 20
39.8701106175
 30
0.0
 40
0.144999999999996
  0
CIRCLE
  5
3EC
330
1F
100
AcDbEntity
  8
0
  6
Continuous
 62
     7
370
     0
100
AcDbCircle
 10
43.5243459846
 20
39.8701106175
 30
0.0
 40
0.144999999999996
  0
CIRCLE
  5
3ED
330
1F
100
AcDbEntity
  8
0
  6
Continuous
 62
     7
370
     0
100
AcDbCircle
 10
44.0243459846
 20
39.8701106175
 30
0.0
 40
0.144999999999996
  0
CIRCLE
  5
3EE
330
1F
100
AcDbEntity
  8
0
  6
Continuous
 62
     7
370
     0
100
AcDbCircle
 10
44.5243459846
 20
39.8701106175
 30
0.0
 40
0.144999999999996
  0
CIRCLE
  5
3EF
330
1F
100
AcDbEntity
  8
0
  6
Continuous
 62
     7
370
     0
100
AcDbCircle
 10
45.0243459846
 20
39.8701106175
 30
0.0
 40
0.1450000000000031
  0
CIRCLE
  5
3F0
330
1F
100
AcDbEntity
  8
0
  6
Continuous
 62
     7
370
     0
100
AcDbCircle
 10
45.5243459846
 20
39.8701106175
 30
0.0
 40
0.1450000000000031
  0
CIRCLE
  5
3F1
330
1F
100
AcDbEntity
  8
0
  6
Continuous
 62
     7
370
     0
100
AcDbCircle
 10
46.0243459846
 20
39.8701106175
 30
0.0
 40
0.1450000000000031
  0
CIRCLE
  5
3F2
330
1F
100
AcDbEntity
  8
0
  6
Continuous
 62
     7
370
     0
100
AcDbCircle
 10
46.5243459846
 20
39.8701106175
 30
0.0
 40
0.1450000000000031
  0
CIRCLE
  5
3F3
330
1F
100
AcDbEntity
  8
0
  6
Continuous
 62
     7
370
     0
100
AcDbCircle
 10
47.0243459846
 20
39.8701106175
 30
0.0
 40
0.1450000000000031
  0
CIRCLE
  5
3F4
330
1F
100
AcDbEntity
  8
0
  6
Continuous
 62
     7
370
     0
100
AcDbCircle
 10
47.5243459846
 20
39.8701106175
 30
0.0
 40
0.144999999999996
  0
CIRCLE
  5
3F5
330
1F
100
AcDbEntity
  8
0
  6
Continuous
 62
     7
370
     0
100
AcDbCircle
 10
48.0243459846
 20
39.8701106175
 30
0.0
 40
0.144999999999996
  0
CIRCLE
  5
3F6
330
1F
100
AcDbEntity
  8
0
  6
Continuous
 62
     7
370
     0
100
AcDbCircle
 10
48.5243459846
 20
39.8701106175
 30
0.0
 40
0.1450000000000031
  0
CIRCLE
  5
3F7
330
1F
100
AcDbEntity
  8
0
  6
Continuous
 62
     7
370
     0
100
AcDbCircle
 10
49.0243459846
 20
39.8701106175
 30
0.0
 40
0.1450000000000031
  0
CIRCLE
  5
3F8
330
1F
100
AcDbEntity
  8
0
  6
Continuous
 62
     7
370
     0
100
AcDbCircle
 10
49.5243459846
 20
39.8701106175
 30
0.0
 40
0.1450000000000031
  0
CIRCLE
  5
3F9
330
1F
100
AcDbEntity
  8
0
  6
Continuous
 62
     7
370
     0
100
AcDbCircle
 10
50.0243459846
 20
39.8701106175
 30
0.0
 40
0.1450000000000031
  0
CIRCLE
  5
3FA
330
1F
100
AcDbEntity
  8
0
  6
Continuous
 62
     7
370
     0
100
AcDbCircle
 10
50.5243459846
 20
39.8701106175
 30
0.0
 40
0.1450000000000031
  0
CIRCLE
  5
3FB
330
1F
100
AcDbEntity
  8
0
  6
Continuous
 62
     7
370
     0
100
AcDbCircle
 10
51.0243459846
 20
39.8701106175
 30
0.0
 40
0.144999999999996
  0
CIRCLE
  5
3FC
330
1F
100
AcDbEntity
  8
0
  6
Continuous
 62
     7
370
     0
100
AcDbCircle
 10
51.5243459846
 20
39.8701106175
 30
0.0
 40
0.144999999999996
  0
CIRCLE
  5
3FD
330
1F
100
AcDbEntity
  8
0
  6
Continuous
 62
     7
370
     0
100
AcDbCircle
 10
52.0243459846
 20
39.8701106175
 30
0.0
 40
0.144999999999996
  0
CIRCLE
  5
3FE
330
1F
100
AcDbEntity
  8
0
  6
Continuous
 62
     7
370
     0
100
AcDbCircle
 10
52.5243459846
 20
39.8701106175
 30
0.0
 40
0.144999999999996
  0
CIRCLE
  5
3FF
330
1F
100
AcDbEntity
  8
0
  6
Continuous
 62
     7
370
     0
100
AcDbCircle
 10
53.0243459846
 20
39.8701106175
 30
0.0
 40
0.144999999999996
  0
CIRCLE
  5
400
330
1F
100
AcDbEntity
  8
0
  6
Continuous
 62
     7
370
     0
100
AcDbCircle
 10
38.5243459846
 20
39.3701106175
 30
0.0
 40
0.144999999999996
  0
CIRCLE
  5
401
330
1F
100
AcDbEntity
  8
0
  6
Continuous
 62
     7
370
     0
100
AcDbCircle
 10
39.0243459846
 20
39.3701106175
 30
0.0
 40
0.144999999999996
  0
CIRCLE
  5
402
330
1F
100
AcDbEntity
  8
0
  6
Continuous
 62
     7
370
     0
100
AcDbCircle
 10
39.5243459846
 20
39.3701106175
 30
0.0
 40
0.1450000000000031
  0
CIRCLE
  5
403
330
1F
100
AcDbEntity
  8
0
  6
Continuous
 62
     7
370
     0
100
AcDbCircle
 10
40.0243459846
 20
39.3701106175
 30
0.0
 40
0.1450000000000031
  0
CIRCLE
  5
404
330
1F
100
AcDbEntity
  8
0
  6
Continuous
 62
     7
370
     0
100
AcDbCircle
 10
40.5243459846
 20
39.3701106175
 30
0.0
 40
0.1450000000000031
  0
CIRCLE
  5
405
330
1F
100
AcDbEntity
  8
0
  6
Continuous
 62
     7
370
     0
100
AcDbCircle
 10
41.0243459846
 20
39.3701106175
 30
0.0
 40
0.1450000000000031
  0
CIRCLE
  5
406
330
1F
100
AcDbEntity
  8
0
  6
Continuous
 62
     7
370
     0
100
AcDbCircle
 10
41.5243459846
 20
39.3701106175
 30
0.0
 40
0.1450000000000031
  0
CIRCLE
  5
407
330
1F
100
AcDbEntity
  8
0
  6
Continuous
 62
     7
370
     0
100
AcDbCircle
 10
42.0243459846
 20
39.3701106175
 30
0.0
 40
0.144999999999996
  0
CIRCLE
  5
408
330
1F
100
AcDbEntity
  8
0
  6
Continuous
 62
     7
370
     0
100
AcDbCircle
 10
42.5243459846
 20
39.3701106175
 30
0.0
 40
0.144999999999996
  0
CIRCLE
  5
409
330
1F
100
AcDbEntity
  8
0
  6
Continuous
 62
     7
370
     0
100
AcDbCircle
 10
43.0243459846
 20
39.3701106175
 30
0.0
 40
0.144999999999996
  0
CIRCLE
  5
40A
330
1F
100
AcDbEntity
  8
0
  6
Continuous
 62
     7
370
     0
100
AcDbCircle
 10
43.5243459846
 20
39.3701106175
 30
0.0
 40
0.144999999999996
  0
CIRCLE
  5
40B
330
1F
100
AcDbEntity
  8
0
  6
Continuous
 62
     7
370
     0
100
AcDbCircle
 10
44.0243459846
 20
39.3701106175
 30
0.0
 40
0.144999999999996
  0
CIRCLE
  5
40C
330
1F
100
AcDbEntity
  8
0
  6
Continuous
 62
     7
370
     0
100
AcDbCircle
 10
44.5243459846
 20
39.3701106175
 30
0.0
 40
0.144999999999996
  0
CIRCLE
  5
40D
330
1F
100
AcDbEntity
  8
0
  6
Continuous
 62
     7
370
     0
100
AcDbCircle
 10
45.0243459846
 20
39.3701106175
 30
0.0
 40
0.144999999999996
  0
CIRCLE
  5
40E
330
1F
100
AcDbEntity
  8
0
  6
Continuous
 62
     7
370
     0
100
AcDbCircle
 10
45.5243459846
 20
39.3701106175
 30
0.0
 40
0.144999999999996
  0
CIRCLE
  5
40F
330
1F
100
AcDbEntity
  8
0
  6
Continuous
 62
     7
370
     0
100
AcDbCircle
 10
46.0243459846
 20
39.3701106175
 30
0.0
 40
0.1450000000000031
  0
CIRCLE
  5
410
330
1F
100
AcDbEntity
  8
0
  6
Continuous
 62
     7
370
     0
100
AcDbCircle
 10
46.5243459846
 20
39.3701106175
 30
0.0
 40
0.1450000000000031
  0
CIRCLE
  5
411
330
1F
100
AcDbEntity
  8
0
  6
Continuous
 62
     7
370
     0
100
AcDbCircle
 10
47.0243459846
 20
39.3701106175
 30
0.0
 40
0.1450000000000031
  0
CIRCLE
  5
412
330
1F
100
AcDbEntity
  8
0
  6
Continuous
 62
     7
370
     0
100
AcDbCircle
 10
47.5243459846
 20
39.3701106175
 30
0.0
 40
0.1450000000000031
  0
CIRCLE
  5
413
330
1F
100
AcDbEntity
  8
0
  6
Continuous
 62
     7
370
     0
100
AcDbCircle
 10
48.0243459846
 20
39.3701106175
 30
0.0
 40
0.1450000000000031
  0
CIRCLE
  5
414
330
1F
100
AcDbEntity
  8
0
  6
Continuous
 62
     7
370
     0
100
AcDbCircle
 10
48.5243459846
 20
39.3701106175
 30
0.0
 40
0.1450000000000031
  0
CIRCLE
  5
415
330
1F
100
AcDbEntity
  8
0
  6
Continuous
 62
     7
370
     0
100
AcDbCircle
 10
49.0243459846
 20
39.3701106175
 30
0.0
 40
0.1450000000000031
  0
CIRCLE
  5
416
330
1F
100
AcDbEntity
  8
0
  6
Continuous
 62
     7
370
     0
100
AcDbCircle
 10
49.5243459846
 20
39.3701106175
 30
0.0
 40
0.1450000000000031
  0
CIRCLE
  5
417
330
1F
100
AcDbEntity
  8
0
  6
Continuous
 62
     7
370
     0
100
AcDbCircle
 10
50.0243459846
 20
39.3701106175
 30
0.0
 40
0.144999999999996
  0
CIRCLE
  5
418
330
1F
100
AcDbEntity
  8
0
  6
Continuous
 62
     7
370
     0
100
AcDbCircle
 10
50.5243459846
 20
39.3701106175
 30
0.0
 40
0.144999999999996
  0
CIRCLE
  5
419
330
1F
100
AcDbEntity
  8
0
  6
Continuous
 62
     7
370
     0
100
AcDbCircle
 10
51.0243459846
 20
39.3701106175
 30
0.0
 40
0.144999999999996
  0
CIRCLE
  5
41A
330
1F
100
AcDbEntity
  8
0
  6
Continuous
 62
     7
370
     0
100
AcDbCircle
 10
51.5243459846
 20
39.3701106175
 30
0.0
 40
0.144999999999996
  0
CIRCLE
  5
41B
330
1F
100
AcDbEntity
  8
0
  6
Continuous
 62
     7
370
     0
100
AcDbCircle
 10
52.0243459846
 20
39.3701106175
 30
0.0
 40
0.144999999999996
  0
CIRCLE
  5
41C
330
1F
100
AcDbEntity
  8
0
  6
Continuous
 62
     7
370
     0
100
AcDbCircle
 10
52.5243459846
 20
39.3701106175
 30
0.0
 40
0.144999999999996
  0
CIRCLE
  5
41D
330
1F
100
AcDbEntity
  8
0
  6
Continuous
 62
     7
370
     0
100
AcDbCircle
 10
53.0243459846
 20
39.3701106175
 30
0.0
 40
0.144999999999996
  0
CIRCLE
  5
41E
330
1F
100
AcDbEntity
  8
0
  6
Continuous
 62
     7
370
     0
100
AcDbCircle
 10
38.5243459846
 20
38.8701106175
 30
0.0
 40
0.1450000000000031
  0
CIRCLE
  5
41F
330
1F
100
AcDbEntity
  8
0
  6
Continuous
 62
     7
370
     0
100
AcDbCircle
 10
39.0243459846
 20
38.8701106175
 30
0.0
 40
0.1450000000000031
  0
CIRCLE
  5
420
330
1F
100
AcDbEntity
  8
0
  6
Continuous
 62
     7
370
     0
100
AcDbCircle
 10
39.5243459846
 20
38.8701106175
 30
0.0
 40
0.1450000000000031
  0
CIRCLE
  5
421
330
1F
100
AcDbEntity
  8
0
  6
Continuous
 62
     7
370
     0
100
AcDbCircle
 10
40.0243459846
 20
38.8701106175
 30
0.0
 40
0.1450000000000031
  0
CIRCLE
  5
422
330
1F
100
AcDbEntity
  8
0
  6
Continuous
 62
     7
370
     0
100
AcDbCircle
 10
40.5243459846
 20
38.8701106175
 30
0.0
 40
0.1450000000000031
  0
CIRCLE
  5
423
330
1F
100
AcDbEntity
  8
0
  6
Continuous
 62
     7
370
     0
100
AcDbCircle
 10
41.0243459846
 20
38.8701106175
 30
0.0
 40
0.1450000000000031
  0
CIRCLE
  5
424
330
1F
100
AcDbEntity
  8
0
  6
Continuous
 62
     7
370
     0
100
AcDbCircle
 10
41.5243459846
 20
38.8701106175
 30
0.0
 40
0.144999999999996
  0
CIRCLE
  5
425
330
1F
100
AcDbEntity
  8
0
  6
Continuous
 62
     7
370
     0
100
AcDbCircle
 10
42.0243459846
 20
38.8701106175
 30
0.0
 40
0.144999999999996
  0
CIRCLE
  5
426
330
1F
100
AcDbEntity
  8
0
  6
Continuous
 62
     7
370
     0
100
AcDbCircle
 10
42.5243459846
 20
38.8701106175
 30
0.0
 40
0.144999999999996
  0
CIRCLE
  5
427
330
1F
100
AcDbEntity
  8
0
  6
Continuous
 62
     7
370
     0
100
AcDbCircle
 10
43.0243459846
 20
38.8701106175
 30
0.0
 40
0.144999999999996
  0
CIRCLE
  5
428
330
1F
100
AcDbEntity
  8
0
  6
Continuous
 62
     7
370
     0
100
AcDbCircle
 10
43.5243459846
 20
38.8701106175
 30
0.0
 40
0.144999999999996
  0
CIRCLE
  5
429
330
1F
100
AcDbEntity
  8
0
  6
Continuous
 62
     7
370
     0
100
AcDbCircle
 10
44.0243459846
 20
38.8701106175
 30
0.0
 40
0.144999999999996
  0
CIRCLE
  5
42A
330
1F
100
AcDbEntity
  8
0
  6
Continuous
 62
     7
370
     0
100
AcDbCircle
 10
44.5243459846
 20
38.8701106175
 30
0.0
 40
0.144999999999996
  0
CIRCLE
  5
42B
330
1F
100
AcDbEntity
  8
0
  6
Continuous
 62
     7
370
     0
100
AcDbCircle
 10
45.0243459846
 20
38.8701106175
 30
0.0
 40
0.1450000000000031
  0
CIRCLE
  5
42C
330
1F
100
AcDbEntity
  8
0
  6
Continuous
 62
     7
370
     0
100
AcDbCircle
 10
45.5243459846
 20
38.8701106175
 30
0.0
 40
0.1450000000000031
  0
CIRCLE
  5
42D
330
1F
100
AcDbEntity
  8
0
  6
Continuous
 62
     7
370
     0
100
AcDbCircle
 10
46.0243459846
 20
38.8701106175
 30
0.0
 40
0.1450000000000031
  0
CIRCLE
  5
42E
330
1F
100
AcDbEntity
  8
0
  6
Continuous
 62
     7
370
     0
100
AcDbCircle
 10
46.5243459846
 20
38.8701106175
 30
0.0
 40
0.1450000000000031
  0
CIRCLE
  5
42F
330
1F
100
AcDbEntity
  8
0
  6
Continuous
 62
     7
370
     0
100
AcDbCircle
 10
47.0243459846
 20
38.8701106175
 30
0.0
 40
0.1450000000000031
  0
CIRCLE
  5
430
330
1F
100
AcDbEntity
  8
0
  6
Continuous
 62
     7
370
     0
100
AcDbCircle
 10
47.5243459846
 20
38.8701106175
 30
0.0
 40
0.1450000000000031
  0
CIRCLE
  5
431
330
1F
100
AcDbEntity
  8
0
  6
Continuous
 62
     7
370
     0
100
AcDbCircle
 10
48.0243459846
 20
38.8701106175
 30
0.0
 40
0.144999999999996
  0
CIRCLE
  5
432
330
1F
100
AcDbEntity
  8
0
  6
Continuous
 62
     7
370
     0
100
AcDbCircle
 10
48.5243459846
 20
38.8701106175
 30
0.0
 40
0.144999999999996
  0
CIRCLE
  5
433
330
1F
100
AcDbEntity
  8
0
  6
Continuous
 62
     7
370
     0
100
AcDbCircle
 10
49.0243459846
 20
38.8701106175
 30
0.0
 40
0.144999999999996
  0
CIRCLE
  5
434
330
1F
100
AcDbEntity
  8
0
  6
Continuous
 62
     7
370
     0
100
AcDbCircle
 10
49.5243459846
 20
38.8701106175
 30
0.0
 40
0.1450000000000031
  0
CIRCLE
  5
435
330
1F
100
AcDbEntity
  8
0
  6
Continuous
 62
     7
370
     0
100
AcDbCircle
 10
50.0243459846
 20
38.8701106175
 30
0.0
 40
0.1450000000000031
  0
CIRCLE
  5
436
330
1F
100
AcDbEntity
  8
0
  6
Continuous
 62
     7
370
     0
100
AcDbCircle
 10
50.5243459846
 20
38.8701106175
 30
0.0
 40
0.1450000000000031
  0
CIRCLE
  5
437
330
1F
100
AcDbEntity
  8
0
  6
Continuous
 62
     7
370
     0
100
AcDbCircle
 10
51.0243459846
 20
38.8701106175
 30
0.0
 40
0.1450000000000031
  0
CIRCLE
  5
438
330
1F
100
AcDbEntity
  8
0
  6
Continuous
 62
     7
370
     0
100
AcDbCircle
 10
51.5243459846
 20
38.8701106175
 30
0.0
 40
0.144999999999996
  0
CIRCLE
  5
439
330
1F
100
AcDbEntity
  8
0
  6
Continuous
 62
     7
370
     0
100
AcDbCircle
 10
52.0243459846
 20
38.8701106175
 30
0.0
 40
0.144999999999996
  0
CIRCLE
  5
43A
330
1F
100
AcDbEntity
  8
0
  6
Continuous
 62
     7
370
     0
100
AcDbCircle
 10
52.5243459846
 20
38.8701106175
 30
0.0
 40
0.144999999999996
  0
CIRCLE
  5
43B
330
1F
100
AcDbEntity
  8
0
  6
Continuous
 62
     7
370
     0
100
AcDbCircle
 10
53.0243459846
 20
38.8701106175
 30
0.0
 40
0.144999999999996
  0
CIRCLE
  5
43C
330
1F
100
AcDbEntity
  8
0
  6
Continuous
 62
     7
370
     0
100
AcDbCircle
 10
38.5243459846
 20
38.3701106175
 30
0.0
 40
0.1450000000000031
  0
CIRCLE
  5
43D
330
1F
100
AcDbEntity
  8
0
  6
Continuous
 62
     7
370
     0
100
AcDbCircle
 10
39.0243459846
 20
38.3701106175
 30
0.0
 40
0.1450000000000031
  0
CIRCLE
  5
43E
330
1F
100
AcDbEntity
  8
0
  6
Continuous
 62
     7
370
     0
100
AcDbCircle
 10
39.5243459846
 20
38.3701106175
 30
0.0
 40
0.144999999999996
  0
CIRCLE
  5
43F
330
1F
100
AcDbEntity
  8
0
  6
Continuous
 62
     7
370
     0
100
AcDbCircle
 10
40.0243459846
 20
38.3701106175
 30
0.0
 40
0.144999999999996
  0
CIRCLE
  5
440
330
1F
100
AcDbEntity
  8
0
  6
Continuous
 62
     7
370
     0
100
AcDbCircle
 10
40.5243459846
 20
38.3701106175
 30
0.0
 40
0.144999999999996
  0
CIRCLE
  5
441
330
1F
100
AcDbEntity
  8
0
  6
Continuous
 62
     7
370
     0
100
AcDbCircle
 10
41.0243459846
 20
38.3701106175
 30
0.0
 40
0.1450000000000031
  0
CIRCLE
  5
442
330
1F
100
AcDbEntity
  8
0
  6
Continuous
 62
     7
370
     0
100
AcDbCircle
 10
41.5243459846
 20
38.3701106175
 30
0.0
 40
0.1450000000000031
  0
CIRCLE
  5
443
330
1F
100
AcDbEntity
  8
0
  6
Continuous
 62
     7
370
     0
100
AcDbCircle
 10
42.0243459846
 20
38.3701106175
 30
0.0
 40
0.1450000000000031
  0
CIRCLE
  5
444
330
1F
100
AcDbEntity
  8
0
  6
Continuous
 62
     7
370
     0
100
AcDbCircle
 10
42.5243459846
 20
38.3701106175
 30
0.0
 40
0.1450000000000031
  0
CIRCLE
  5
445
330
1F
100
AcDbEntity
  8
0
  6
Continuous
 62
     7
370
     0
100
AcDbCircle
 10
43.0243459846
 20
38.3701106175
 30
0.0
 40
0.144999999999996
  0
CIRCLE
  5
446
330
1F
100
AcDbEntity
  8
0
  6
Continuous
 62
     7
370
     0
100
AcDbCircle
 10
43.5243459846
 20
38.3701106175
 30
0.0
 40
0.144999999999996
  0
CIRCLE
  5
447
330
1F
100
AcDbEntity
  8
0
  6
Continuous
 62
     7
370
     0
100
AcDbCircle
 10
44.0243459846
 20
38.3701106175
 30
0.0
 40
0.144999999999996
  0
CIRCLE
  5
448
330
1F
100
AcDbEntity
  8
0
  6
Continuous
 62
     7
370
     0
100
AcDbCircle
 10
44.5243459846
 20
38.3701106175
 30
0.0
 40
0.144999999999996
  0
CIRCLE
  5
449
330
1F
100
AcDbEntity
  8
0
  6
Continuous
 62
     7
370
     0
100
AcDbCircle
 10
45.0243459846
 20
38.3701106175
 30
0.0
 40
0.144999999999996
  0
CIRCLE
  5
44A
330
1F
100
AcDbEntity
  8
0
  6
Continuous
 62
     7
370
     0
100
AcDbCircle
 10
45.5243459846
 20
38.3701106175
 30
0.0
 40
0.144999999999996
  0
CIRCLE
  5
44B
330
1F
100
AcDbEntity
  8
0
  6
Continuous
 62
     7
370
     0
100
AcDbCircle
 10
46.0243459846
 20
38.3701106175
 30
0.0
 40
0.144999999999996
  0
CIRCLE
  5
44C
330
1F
100
AcDbEntity
  8
0
  6
Continuous
 62
     7
370
     0
100
AcDbCircle
 10
46.5243459846
 20
38.3701106175
 30
0.0
 40
0.144999999999996
  0
CIRCLE
  5
44D
330
1F
100
AcDbEntity
  8
0
  6
Continuous
 62
     7
370
     0
100
AcDbCircle
 10
47.0243459846
 20
38.3701106175
 30
0.0
 40
0.1450000000000031
  0
CIRCLE
  5
44E
330
1F
100
AcDbEntity
  8
0
  6
Continuous
 62
     7
370
     0
100
AcDbCircle
 10
47.5243459846
 20
38.3701106175
 30
0.0
 40
0.1450000000000031
  0
CIRCLE
  5
44F
330
1F
100
AcDbEntity
  8
0
  6
Continuous
 62
     7
370
     0
100
AcDbCircle
 10
48.0243459846
 20
38.3701106175
 30
0.0
 40
0.1450000000000031
  0
CIRCLE
  5
450
330
1F
100
AcDbEntity
  8
0
  6
Continuous
 62
     7
370
     0
100
AcDbCircle
 10
48.5243459846
 20
38.3701106175
 30
0.0
 40
0.1450000000000031
  0
CIRCLE
  5
451
330
1F
100
AcDbEntity
  8
0
  6
Continuous
 62
     7
370
     0
100
AcDbCircle
 10
49.0243459846
 20
38.3701106175
 30
0.0
 40
0.1450000000000031
  0
CIRCLE
  5
452
330
1F
100
AcDbEntity
  8
0
  6
Continuous
 62
     7
370
     0
100
AcDbCircle
 10
49.5243459846
 20
38.3701106175
 30
0.0
 40
0.1450000000000031
  0
CIRCLE
  5
453
330
1F
100
AcDbEntity
  8
0
  6
Continuous
 62
     7
370
     0
100
AcDbCircle
 10
50.0243459846
 20
38.3701106175
 30
0.0
 40
0.1450000000000031
  0
CIRCLE
  5
454
330
1F
100
AcDbEntity
  8
0
  6
Continuous
 62
     7
370
     0
100
AcDbCircle
 10
50.5243459846
 20
38.3701106175
 30
0.0
 40
0.1450000000000031
  0
CIRCLE
  5
455
330
1F
100
AcDbEntity
  8
0
  6
Continuous
 62
     7
370
     0
100
AcDbCircle
 10
51.0243459846
 20
38.3701106175
 30
0.0
 40
0.1450000000000031
  0
CIRCLE
  5
456
330
1F
100
AcDbEntity
  8
0
  6
Continuous
 62
     7
370
     0
100
AcDbCircle
 10
51.5243459846
 20
38.3701106175
 30
0.0
 40
0.144999999999996
  0
CIRCLE
  5
457
330
1F
100
AcDbEntity
  8
0
  6
Continuous
 62
     7
370
     0
100
AcDbCircle
 10
52.0243459846
 20
38.3701106175
 30
0.0
 40
0.144999999999996
  0
CIRCLE
  5
458
330
1F
100
AcDbEntity
  8
0
  6
Continuous
 62
     7
370
     0
100
AcDbCircle
 10
52.5243459846
 20
38.3701106175
 30
0.0
 40
0.1450000000000031
  0
CIRCLE
  5
459
330
1F
100
AcDbEntity
  8
0
  6
Continuous
 62
     7
370
     0
100
AcDbCircle
 10
53.0243459846
 20
38.3701106175
 30
0.0
 40
0.1450000000000031
  0
CIRCLE
  5
45A
330
1F
100
AcDbEntity
  8
0
  6
Continuous
 62
     7
370
     0
100
AcDbCircle
 10
38.5243459846
 20
37.8701106175
 30
0.0
 40
0.1450000000000031
  0
CIRCLE
  5
45B
330
1F
100
AcDbEntity
  8
0
  6
Continuous
 62
     7
370
     0
100
AcDbCircle
 10
39.0243459846
 20
37.8701106175
 30
0.0
 40
0.1450000000000031
  0
CIRCLE
  5
45C
330
1F
100
AcDbEntity
  8
0
  6
Continuous
 62
     7
370
     0
100
AcDbCircle
 10
39.5243459846
 20
37.8701106175
 30
0.0
 40
0.1450000000000031
  0
CIRCLE
  5
45D
330
1F
100
AcDbEntity
  8
0
  6
Continuous
 62
     7
370
     0
100
AcDbCircle
 10
40.0243459846
 20
37.8701106175
 30
0.0
 40
0.1450000000000031
  0
CIRCLE
  5
45E
330
1F
100
AcDbEntity
  8
0
  6
Continuous
 62
     7
370
     0
100
AcDbCircle
 10
40.5243459846
 20
37.8701106175
 30
0.0
 40
0.1450000000000031
  0
CIRCLE
  5
45F
330
1F
100
AcDbEntity
  8
0
  6
Continuous
 62
     7
370
     0
100
AcDbCircle
 10
41.0243459846
 20
37.8701106175
 30
0.0
 40
0.1450000000000031
  0
CIRCLE
  5
460
330
1F
100
AcDbEntity
  8
0
  6
Continuous
 62
     7
370
     0
100
AcDbCircle
 10
41.5243459846
 20
37.8701106175
 30
0.0
 40
0.1450000000000031
  0
CIRCLE
  5
461
330
1F
100
AcDbEntity
  8
0
  6
Continuous
 62
     7
370
     0
100
AcDbCircle
 10
38.0243459846
 20
47.8701106175
 30
0.0
 40
0.1450000000000102
  0
CIRCLE
  5
462
330
1F
100
AcDbEntity
  8
0
  6
Continuous
 62
     7
370
     0
100
AcDbCircle
 10
38.0243459846
 20
47.3701106175
 30
0.0
 40
0.144999999999996
  0
CIRCLE
  5
463
330
1F
100
AcDbEntity
  8
0
  6
Continuous
 62
     7
370
     0
100
AcDbCircle
 10
38.0243459846
 20
46.8701106175
 30
0.0
 40
0.1450000000000102
  0
CIRCLE
  5
464
330
1F
100
AcDbEntity
  8
0
  6
Continuous
 62
     7
370
     0
100
AcDbCircle
 10
38.0243459846
 20
46.3701106175
 30
0.0
 40
0.144999999999996
  0
CIRCLE
  5
465
330
1F
100
AcDbEntity
  8
0
  6
Continuous
 62
     7
370
     0
100
AcDbCircle
 10
38.0243459846
 20
45.8701106175
 30
0.0
 40
0.144999999999996
  0
CIRCLE
  5
466
330
1F
100
AcDbEntity
  8
0
  6
Continuous
 62
     7
370
     0
100
AcDbCircle
 10
38.0243459846
 20
45.3701106175
 30
0.0
 40
0.144999999999996
  0
CIRCLE
  5
467
330
1F
100
AcDbEntity
  8
0
  6
Continuous
 62
     7
370
     0
100
AcDbCircle
 10
44.5243459846
 20
37.8701106175
 30
0.0
 40
0.1450000000000031
  0
CIRCLE
  5
468
330
1F
100
AcDbEntity
  8
0
  6
Continuous
 62
     7
370
     0
100
AcDbCircle
 10
45.0243459846
 20
37.8701106175
 30
0.0
 40
0.1450000000000031
  0
CIRCLE
  5
469
330
1F
100
AcDbEntity
  8
0
  6
Continuous
 62
     7
370
     0
100
AcDbCircle
 10
45.5243459846
 20
37.8701106175
 30
0.0
 40
0.1450000000000031
  0
CIRCLE
  5
46A
330
1F
100
AcDbEntity
  8
0
  6
Continuous
 62
     7
370
     0
100
AcDbCircle
 10
46.0243459846
 20
37.8701106175
 30
0.0
 40
0.1450000000000031
  0
CIRCLE
  5
46B
330
1F
100
AcDbEntity
  8
0
  6
Continuous
 62
     7
370
     0
100
AcDbCircle
 10
46.5243459846
 20
37.8701106175
 30
0.0
 40
0.1450000000000031
  0
CIRCLE
  5
46C
330
1F
100
AcDbEntity
  8
0
  6
Continuous
 62
     7
370
     0
100
AcDbCircle
 10
47.0243459846
 20
37.8701106175
 30
0.0
 40
0.1450000000000031
  0
CIRCLE
  5
46D
330
1F
100
AcDbEntity
  8
0
  6
Continuous
 62
     7
370
     0
100
AcDbCircle
 10
47.5243459846
 20
37.8701106175
 30
0.0
 40
0.1450000000000031
  0
CIRCLE
  5
46E
330
1F
100
AcDbEntity
  8
0
  6
Continuous
 62
     7
370
     0
100
AcDbCircle
 10
48.0243459846
 20
37.8701106175
 30
0.0
 40
0.144999999999996
  0
CIRCLE
  5
46F
330
1F
100
AcDbEntity
  8
0
  6
Continuous
 62
     7
370
     0
100
AcDbCircle
 10
48.5243459846
 20
37.8701106175
 30
0.0
 40
0.144999999999996
  0
CIRCLE
  5
470
330
1F
100
AcDbEntity
  8
0
  6
Continuous
 62
     7
370
     0
100
AcDbCircle
 10
49.0243459846
 20
37.8701106175
 30
0.0
 40
0.144999999999996
  0
CIRCLE
  5
471
330
1F
100
AcDbEntity
  8
0
  6
Continuous
 62
     7
370
     0
100
AcDbCircle
 10
49.5243459846
 20
37.8701106175
 30
0.0
 40
0.1450000000000031
  0
CIRCLE
  5
472
330
1F
100
AcDbEntity
  8
0
  6
Continuous
 62
     7
370
     0
100
AcDbCircle
 10
50.0243459846
 20
37.8701106175
 30
0.0
 40
0.1450000000000031
  0
CIRCLE
  5
473
330
1F
100
AcDbEntity
  8
0
  6
Continuous
 62
     7
370
     0
100
AcDbCircle
 10
50.5243459846
 20
37.8701106175
 30
0.0
 40
0.1450000000000031
  0
CIRCLE
  5
474
330
1F
100
AcDbEntity
  8
0
  6
Continuous
 62
     7
370
     0
100
AcDbCircle
 10
51.0243459846
 20
37.8701106175
 30
0.0
 40
0.1450000000000031
  0
CIRCLE
  5
475
330
1F
100
AcDbEntity
  8
0
  6
Continuous
 62
     7
370
     0
100
AcDbCircle
 10
51.5243459846
 20
37.8701106175
 30
0.0
 40
0.1450000000000031
  0
CIRCLE
  5
476
330
1F
100
AcDbEntity
  8
0
  6
Continuous
 62
     7
370
     0
100
AcDbCircle
 10
52.0243459846
 20
37.8701106175
 30
0.0
 40
0.1450000000000031
  0
CIRCLE
  5
477
330
1F
100
AcDbEntity
  8
0
  6
Continuous
 62
     7
370
     0
100
AcDbCircle
 10
52.5243459846
 20
37.8701106175
 30
0.0
 40
0.1450000000000031
  0
CIRCLE
  5
478
330
1F
100
AcDbEntity
  8
0
  6
Continuous
 62
     7
370
     0
100
AcDbCircle
 10
53.0243459846
 20
37.8701106175
 30
0.0
 40
0.1450000000000031
  0
CIRCLE
  5
479
330
1F
100
AcDbEntity
  8
0
  6
Continuous
 62
     7
370
     0
100
AcDbCircle
 10
38.0243459846
 20
52.3701106175
 30
0.0
 40
0.1450000000000102
  0
CIRCLE
  5
47A
330
1F
100
AcDbEntity
  8
0
  6
Continuous
 62
     7
370
     0
100
AcDbCircle
 10
38.0243459846
 20
51.8701106175
 30
0.0
 40
0.144999999999996
  0
CIRCLE
  5
47B
330
1F
100
AcDbEntity
  8
0
  6
Continuous
 62
     7
370
     0
100
AcDbCircle
 10
38.0243459846
 20
51.3701106175
 30
0.0
 40
0.1450000000000031
  0
CIRCLE
  5
47C
330
1F
100
AcDbEntity
  8
0
  6
Continuous
 62
     7
370
     0
100
AcDbCircle
 10
38.0243459846
 20
50.8701106175
 30
0.0
 40
0.144999999999996
  0
CIRCLE
  5
47D
330
1F
100
AcDbEntity
  8
0
  6
Continuous
 62
     7
370
     0
100
AcDbCircle
 10
38.0243459846
 20
50.3701106175
 30
0.0
 40
0.144999999999996
  0
CIRCLE
  5
47E
330
1F
100
AcDbEntity
  8
0
  6
Continuous
 62
     7
370
     0
100
AcDbCircle
 10
38.0243459846
 20
49.8701106175
 30
0.0
 40
0.144999999999996
  0
CIRCLE
  5
47F
330
1F
100
AcDbEntity
  8
0
  6
Continuous
 62
     7
370
     0
100
AcDbCircle
 10
38.0243459846
 20
49.3701106175
 30
0.0
 40
0.144999999999996
  0
CIRCLE
  5
480
330
1F
100
AcDbEntity
  8
0
  6
Continuous
 62
     7
370
     0
100
AcDbCircle
 10
38.0243459846
 20
48.8701106175
 30
0.0
 40
0.1450000000000102
  0
CIRCLE
  5
481
330
1F
100
AcDbEntity
  8
0
  6
Continuous
 62
     7
370
     0
100
AcDbCircle
 10
38.0243459846
 20
48.3701106175
 30
0.0
 40
0.144999999999996
  0
CIRCLE
  5
482
330
1F
100
AcDbEntity
  8
0
  6
Continuous
 62
     7
370
     0
100
AcDbCircle
 10
39.5243459846
 20
44.8701106175
 30
0.0
 40
0.1450000000000031
  0
CIRCLE
  5
483
330
1F
100
AcDbEntity
  8
0
  6
Continuous
 62
     7
370
     0
100
AcDbCircle
 10
40.0243459846
 20
44.8701106175
 30
0.0
 40
0.1450000000000031
  0
CIRCLE
  5
484
330
1F
100
AcDbEntity
  8
0
  6
Continuous
 62
     7
370
     0
100
AcDbCircle
 10
38.0243459846
 20
44.8701106175
 30
0.0
 40
0.144999999999996
  0
CIRCLE
  5
485
330
1F
100
AcDbEntity
  8
0
  6
Continuous
 62
     7
370
     0
100
AcDbCircle
 10
38.0243459846
 20
44.3701106175
 30
0.0
 40
0.144999999999996
  0
CIRCLE
  5
486
330
1F
100
AcDbEntity
  8
0
  6
Continuous
 62
     7
370
     0
100
AcDbCircle
 10
38.0243459846
 20
43.8701106175
 30
0.0
 40
0.1450000000000031
  0
CIRCLE
  5
487
330
1F
100
AcDbEntity
  8
0
  6
Continuous
 62
     7
370
     0
100
AcDbCircle
 10
38.0243459846
 20
43.3701106175
 30
0.0
 40
0.144999999999996
  0
CIRCLE
  5
488
330
1F
100
AcDbEntity
  8
0
  6
Continuous
 62
     7
370
     0
100
AcDbCircle
 10
38.0243459846
 20
42.8701106175
 30
0.0
 40
0.1450000000000031
  0
CIRCLE
  5
489
330
1F
100
AcDbEntity
  8
0
  6
Continuous
 62
     7
370
     0
100
AcDbCircle
 10
38.0243459846
 20
42.3701106175
 30
0.0
 40
0.1450000000000031
  0
CIRCLE
  5
48A
330
1F
100
AcDbEntity
  8
0
  6
Continuous
 62
     7
370
     0
100
AcDbCircle
 10
38.0243459846
 20
41.8701106175
 30
0.0
 40
0.144999999999996
  0
CIRCLE
  5
48B
330
1F
100
AcDbEntity
  8
0
  6
Continuous
 62
     7
370
     0
100
AcDbCircle
 10
38.0243459846
 20
41.3701106175
 30
0.0
 40
0.144999999999996
  0
CIRCLE
  5
48C
330
1F
100
AcDbEntity
  8
0
  6
Continuous
 62
     7
370
     0
100
AcDbCircle
 10
38.0243459846
 20
40.8701106175
 30
0.0
 40
0.144999999999996
  0
CIRCLE
  5
48D
330
1F
100
AcDbEntity
  8
0
  6
Continuous
 62
     7
370
     0
100
AcDbCircle
 10
38.0243459846
 20
40.3701106175
 30
0.0
 40
0.144999999999996
  0
CIRCLE
  5
48E
330
1F
100
AcDbEntity
  8
0
  6
Continuous
 62
     7
370
     0
100
AcDbCircle
 10
38.0243459846
 20
39.8701106175
 30
0.0
 40
0.1450000000000031
  0
CIRCLE
  5
48F
330
1F
100
AcDbEntity
  8
0
  6
Continuous
 62
     7
370
     0
100
AcDbCircle
 10
38.0243459846
 20
39.3701106175
 30
0.0
 40
0.1450000000000031
  0
CIRCLE
  5
490
330
1F
100
AcDbEntity
  8
0
  6
Continuous
 62
     7
370
     0
100
AcDbCircle
 10
38.0243459846
 20
38.8701106175
 30
0.0
 40
0.1450000000000031
  0
CIRCLE
  5
491
330
1F
100
AcDbEntity
  8
0
  6
Continuous
 62
     7
370
     0
100
AcDbCircle
 10
38.0243459846
 20
38.3701106175
 30
0.0
 40
0.1450000000000031
  0
CIRCLE
  5
492
330
1F
100
AcDbEntity
  8
0
  6
Continuous
 62
     7
370
     0
100
AcDbCircle
 10
38.0243459846
 20
37.8701106175
 30
0.0
 40
0.1450000000000031
  0
CIRCLE
  5
493
330
1F
100
AcDbEntity
  8
0
  6
Continuous
 62
     7
370
     0
100
AcDbCircle
 10
50.5243459846
 20
44.8701106175
 30
0.0
 40
0.144999999999996
  0
CIRCLE
  5
494
330
1F
100
AcDbEntity
  8
0
  6
Continuous
 62
     7
370
     0
100
AcDbCircle
 10
51.0243459846
 20
44.8701106175
 30
0.0
 40
0.144999999999996
  0
CIRCLE
  5
495
330
1F
100
AcDbEntity
  8
0
  6
Continuous
 62
     7
370
     0
100
AcDbCircle
 10
51.5243459846
 20
44.8701106175
 30
0.0
 40
0.1450000000000031
  0
CIRCLE
  5
496
330
1F
100
AcDbEntity
  8
0
  6
Continuous
 62
     7
370
     0
100
AcDbCircle
 10
52.0243459846
 20
44.8701106175
 30
0.0
 40
0.1450000000000031
  0
CIRCLE
  5
497
330
1F
100
AcDbEntity
  8
0
  6
Continuous
 62
     7
370
     0
100
AcDbCircle
 10
52.5243459846
 20
44.8701106175
 30
0.0
 40
0.1450000000000031
  0
CIRCLE
  5
498
330
1F
100
AcDbEntity
  8
0
  6
Continuous
 62
     7
370
     0
100
AcDbCircle
 10
53.0243459846
 20
44.8701106175
 30
0.0
 40
0.1450000000000031
  0
CIRCLE
  5
499
330
1F
100
AcDbEntity
  8
0
  6
Continuous
 62
     7
370
     0
100
AcDbCircle
 10
38.5243459846
 20
44.3701106175
 30
0.0
 40
0.1450000000000031
  0
CIRCLE
  5
49A
330
1F
100
AcDbEntity
  8
0
  6
Continuous
 62
     7
370
     0
100
AcDbCircle
 10
39.0243459846
 20
44.3701106175
 30
0.0
 40
0.1450000000000031
  0
CIRCLE
  5
49B
330
1F
100
AcDbEntity
  8
0
  6
Continuous
 62
     7
370
     0
100
AcDbCircle
 10
39.5243459846
 20
44.3701106175
 30
0.0
 40
0.1450000000000031
  0
CIRCLE
  5
49C
330
1F
100
AcDbEntity
  8
0
  6
Continuous
 62
     7
370
     0
100
AcDbCircle
 10
40.0243459846
 20
44.3701106175
 30
0.0
 40
0.1450000000000031
  0
CIRCLE
  5
49D
330
1F
100
AcDbEntity
  8
0
  6
Continuous
 62
     7
370
     0
100
AcDbCircle
 10
50.5243459846
 20
45.3701106175
 30
0.0
 40
0.144999999999996
  0
CIRCLE
  5
49E
330
1F
100
AcDbEntity
  8
0
  6
Continuous
 62
     7
370
     0
100
AcDbCircle
 10
51.0243459846
 20
45.3701106175
 30
0.0
 40
0.144999999999996
  0
CIRCLE
  5
49F
330
1F
100
AcDbEntity
  8
0
  6
Continuous
 62
     7
370
     0
100
AcDbCircle
 10
51.5243459846
 20
45.3701106175
 30
0.0
 40
0.144999999999996
  0
CIRCLE
  5
4A0
330
1F
100
AcDbEntity
  8
0
  6
Continuous
 62
     7
370
     0
100
AcDbCircle
 10
52.0243459846
 20
45.3701106175
 30
0.0
 40
0.144999999999996
  0
CIRCLE
  5
4A1
330
1F
100
AcDbEntity
  8
0
  6
Continuous
 62
     7
370
     0
100
AcDbCircle
 10
52.5243459846
 20
45.3701106175
 30
0.0
 40
0.144999999999996
  0
CIRCLE
  5
4A2
330
1F
100
AcDbEntity
  8
0
  6
Continuous
 62
     7
370
     0
100
AcDbCircle
 10
53.0243459846
 20
45.3701106175
 30
0.0
 40
0.1450000000000102
  0
CIRCLE
  5
4A3
330
1F
100
AcDbEntity
  8
0
  6
Continuous
 62
     7
370
     0
100
AcDbCircle
 10
38.5243459846
 20
44.8701106175
 30
0.0
 40
0.144999999999996
  0
CIRCLE
  5
4A4
330
1F
100
AcDbEntity
  8
0
  6
Continuous
 62
     7
370
     0
100
AcDbCircle
 10
39.0243459846
 20
44.8701106175
 30
0.0
 40
0.144999999999996
  0
CIRCLE
  5
4A5
330
1F
100
AcDbEntity
  8
0
  6
Continuous
 62
     7
370
     0
100
AcDbCircle
 10
35.9118459846
 20
54.7326106175
 30
0.0
 40
0.855000000000004
  0
CIRCLE
  5
4A6
330
1F
100
AcDbEntity
  8
0
  6
Continuous
 62
     7
370
     0
100
AcDbCircle
 10
35.9118459846
 20
41.0876106175
 30
0.0
 40
0.4250000000000043
  0
CIRCLE
  5
4A7
330
1F
100
AcDbEntity
  8
0
  6
Continuous
 62
     7
370
     0
100
AcDbCircle
 10
54.6368459846
 20
52.1926106175
 30
0.0
 40
0.4250000000000043
  0
CIRCLE
  5
4A8
330
1F
100
AcDbEntity
  8
0
  6
Continuous
 62
     7
370
     0
100
AcDbCircle
 10
54.6368459846
 20
36.0076106175
 30
0.0
 40
0.855000000000004
  0
CIRCLE
  5
4A9
330
1F
100
AcDbEntity
  8
0
  6
Continuous
 62
     7
370
     0
100
AcDbCircle
 10
54.6368459846
 20
54.7326106175
 30
0.0
 40
0.8549999999999969
  0
CIRCLE
  5
4AA
330
1F
100
AcDbEntity
  8
0
  6
Continuous
 62
     7
370
     0
100
AcDbCircle
 10
35.9118459846
 20
36.0076106175
 30
0.0
 40
0.855000000000004
  0
CIRCLE
  5
4AB
330
1F
100
AcDbEntity
  8
0
  6
HIDDEN
 62
     7
370
     0
100
AcDbCircle
 10
54.6368459846
 20
36.0076106175
 30
0.0
 40
2.0
  0
CIRCLE
  5
4AC
330
1F
100
AcDbEntity
  8
0
  6
HIDDEN
 62
     7
370
     0
100
AcDbCircle
 10
35.9118459846
 20
36.0076106175
 30
0.0
 40
2.0
  0
CIRCLE
  5
4AD
330
1F
100
AcDbEntity
  8
0
  6
HIDDEN
 62
     7
370
     0
100
AcDbCircle
 10
35.9118459846
 20
54.7326106175
 30
0.0
 40
1.999999999999993
  0
CIRCLE
  5
4AE
330
1F
100
AcDbEntity
  8
0
  6
HIDDEN
 62
     7
370
     0
100
AcDbCircle
 10
54.6368459846
 20
54.7326106175
 30
0.0
 40
1.999999999999993
  0
ARC
  5
4AF
330
1F
100
AcDbEntity
  8
0
  6
HIDDEN
 62
     7
370
     0
100
AcDbCircle
 10
38.6618459846
 20
60.9826106175
 30
0.0
 40
4.000000000000007
100
AcDbArc
 50
90.0
 51
180.0
  0
ARC
  5
4B0
330
1F
100
AcDbEntity
  8
0
  6
HIDDEN
 62
     7
370
     0
100
AcDbCircle
 10
51.8868459846
 20
60.9826106175
 30
0.0
 40
4.0
100
AcDbArc
 50
0.0
 51
90.0
  0
LINE
  5
4B1
330
1F
100
AcDbEntity
  8
0
  6
Continuous
 62
     7
370
     0
100
AcDbLine
 10
55.8868459846
 20
31.7576106175
 30
0.0
 11
55.8868459846
 21
41.3177434734
 31
0.0
  0
LINE
  5
4B2
330
1F
100
AcDbEntity
  8
0
  6
Continuous
 62
     7
370
     0
100
AcDbLine
 10
55.8868459846
 20
44.4224777615
 30
0.0
 11
55.8868459846
 21
60.9826106175
 31
0.0
  0
ARC
  5
4B3
330
1F
100
AcDbEntity
  8
0
  6
HIDDEN
 62
     7
370
     0
100
AcDbCircle
 10
51.8868459846
 20
31.7576106175
 30
0.0
 40
4.000000000000007
100
AcDbArc
 50
321.3178125465
 51
0.0
  0
ARC
  5
4B4
330
1F
100
AcDbEntity
  8
0
  6
HIDDEN
 62
     7
370
     0
100
AcDbCircle
 10
38.6618459846
 20
31.7576106175
 30
0.0
 40
4.000000000000004
100
AcDbArc
 50
180.0
 51
218.6821874535
  0
LINE
  5
4B5
330
1F
100
AcDbEntity
  8
0
  6
Continuous
 62
     7
370
     0
100
AcDbLine
 10
34.6618459846
 20
60.9826106175
 30
0.0
 11
34.6618459846
 21
49.4224777615
 31
0.0
  0
LINE
  5
4B6
330
1F
100
AcDbEntity
  8
0
  6
Continuous
 62
     7
370
     0
100
AcDbLine
 10
34.6618459846
 20
46.3177434734
 30
0.0
 11
34.6618459846
 21
31.7576106175
 31
0.0
  0
LINE
  5
4B7
330
1F
100
AcDbEntity
  8
0
  6
HIDDEN
 62
     7
370
     0
100
AcDbLine
 10
52.9368459846
 20
36.4576106175
 30
0.0
 11
37.6118459846
 21
36.4576106175
 31
0.0
  0
ARC
  5
4B8
330
1F
100
AcDbEntity
  8
0
  6
HIDDEN
 62
     7
370
     0
100
AcDbCircle
 10
52.9368459846
 20
37.7076106175
 30
0.0
 40
1.25
100
AcDbArc
 50
270.0
 51
0.0
  0
LINE
  5
4B9
330
1F
100
AcDbEntity
  8
0
  6
HIDDEN
 62
     7
370
     0
100
AcDbLine
 10
54.1868459846
 20
53.0326106175
 30
0.0
 11
54.1868459846
 21
37.7076106175
 31
0.0
  0
ARC
  5
4BA
330
1F
100
AcDbEntity
  8
0
  6
HIDDEN
 62
     7
370
     0
100
AcDbCircle
 10
52.9368459846
 20
53.0326106175
 30
0.0
 40
1.25
100
AcDbArc
 50
0.0
 51
90.0
  0
LINE
  5
4BB
330
1F
100
AcDbEntity
  8
0
  6
HIDDEN
 62
     7
370
     0
100
AcDbLine
 10
37.6118459846
 20
54.2826106175
 30
0.0
 11
52.9368459846
 21
54.2826106175
 31
0.0
  0
ARC
  5
4BC
330
1F
100
AcDbEntity
  8
0
  6
HIDDEN
 62
     7
370
     0
100
AcDbCircle
 10
37.6118459846
 20
53.0326106175
 30
0.0
 40
1.25
100
AcDbArc
 50
90.0
 51
180.0
  0
LINE
  5
4BD
330
1F
100
AcDbEntity
  8
0
  6
HIDDEN
 62
     7
370
     0
100
AcDbLine
 10
36.3618459846
 20
37.7076106175
 30
0.0
 11
36.3618459846
 21
53.0326106175
 31
0.0
  0
ARC
  5
4BE
330
1F
100
AcDbEntity
  8
0
  6
HIDDEN
 62
     7
370
     0
100
AcDbCircle
 10
37.6118459846
 20
37.7076106175
 30
0.0
 40
1.25
100
AcDbArc
 50
180.0
 51
270.0
  0
LINE
  5
4BF
330
1F
100
AcDbEntity
  8
0
  6
HIDDEN
 62
     7
370
     0
100
AcDbLine
 10
40.4564060185
 20
57.5092217344
 30
0.0
 11
38.3779450494
 21
57.5092217344
 31
0.0
  0
ARC
  5
4C0
330
1F
100
AcDbEntity
  8
0
  6
HIDDEN
 62
     7
370
     0
100
AcDbCircle
 10
38.3779450494
 20
57.1092217344
 30
0.0
 40
0.4000000000000069
100
AcDbArc
 50
90.0
 51
210.0
  0
LINE
  5
4C1
330
1F
100
AcDbEntity
  8
0
  6
HIDDEN
 62
     7
370
     0
100
AcDbLine
 10
38.0315348879
 20
56.9092217344
 30
0.0
 11
39.0707653725
 21
55.1092217344
 31
0.0
  0
ARC
  5
4C2
330
1F
100
AcDbEntity
  8
0
  6
HIDDEN
 62
     7
370
     0
100
AcDbCircle
 10
39.417175534
 20
55.3092217344
 30
0.0
 40
0.3999999999999989
100
AcDbArc
 50
210.0
 51
330.0
  0
LINE
  5
4C3
330
1F
100
AcDbEntity
  8
0
  6
HIDDEN
 62
     7
370
     0
100
AcDbLine
 10
39.7635856955
 20
55.1092217344
 30
0.0
 11
40.80281618
 21
56.9092217344
 31
0.0
  0
ARC
  5
4C4
330
1F
100
AcDbEntity
  8
0
  6
HIDDEN
 62
     7
370
     0
100
AcDbCircle
 10
40.4564060185
 20
57.1092217344
 30
0.0
 40
0.3999999999999998
100
AcDbArc
 50
330.0
 51
90.0
  0
ARC
  5
4C5
330
1F
100
AcDbEntity
  8
0
  6
HIDDEN
 62
     7
370
     0
100
AcDbCircle
 10
36.3118459846
 20
51.447523869
 30
0.0
 40
0.8000000000000043
100
AcDbArc
 50
0.0
 51
50.6433010727
  0
LINE
  5
4C6
330
1F
100
AcDbEntity
  8
0
  6
HIDDEN
 62
     7
370
     0
100
AcDbLine
 10
37.1118459846
 20
51.447523869
 30
0.0
 11
37.1118459846
 21
39.2926973659
 31
0.0
  0
ARC
  5
4C7
330
1F
100
AcDbEntity
  8
0
  6
HIDDEN
 62
     7
370
     0
100
AcDbCircle
 10
36.3118459846
 20
39.2926973659
 30
0.0
 40
0.8000000000000043
100
AcDbArc
 50
309.3566989273
 51
0.0
  0
ARC
  5
4C8
330
1F
100
AcDbEntity
  8
0
  6
HIDDEN
 62
     7
370
     0
100
AcDbCircle
 10
37.6118459846
 20
37.7076106175
 30
0.0
 40
1.250000000000003
100
AcDbArc
 50
129.3566989273
 51
180.0
  0
ARC
  5
4C9
330
1F
100
AcDbEntity
  8
0
  6
HIDDEN
 62
     7
370
     0
100
AcDbCircle
 10
37.6118459846
 20
53.0326106175
 30
0.0
 40
1.25
100
AcDbArc
 50
180.0
 51
230.6433010727
  0
ARC
  5
4CA
330
1F
100
AcDbEntity
  8
0
  6
HIDDEN
 62
     7
370
     0
100
AcDbCircle
 10
38.6618459846
 20
31.7576106175
 30
0.0
 40
4.000000000000007
100
AcDbArc
 50
218.6821874535
 51
270.0
  0
ARC
  5
4CB
330
1F
100
AcDbEntity
  8
0
  6
HIDDEN
 62
     7
370
     0
100
AcDbCircle
 10
51.8868459846
 20
31.7576106175
 30
0.0
 40
4.000000000000007
100
AcDbArc
 50
270.0
 51
321.3178125465
  0
ARC
  5
4CC
330
1F
100
AcDbEntity
  8
0
  6
HIDDEN
 62
     7
370
     0
100
AcDbCircle
 10
39.196932733
 20
54.3326106175
 30
0.0
 40
0.8000000000000033
100
AcDbArc
 50
219.3566989273
 51
270.0
  0
ARC
  5
4CD
330
1F
100
AcDbEntity
  8
0
  6
HIDDEN
 62
     7
370
     0
100
AcDbCircle
 10
51.3517592362
 20
54.3326106175
 30
0.0
 40
0.7999999999999978
100
AcDbArc
 50
270.0
 51
320.6433010727
  0
LINE
  5
4CE
330
1F
100
AcDbEntity
  8
0
  6
HIDDEN
 62
     7
370
     0
100
AcDbLine
 10
51.3517592362
 20
53.5326106175
 30
0.0
 11
39.196932733
 21
53.5326106175
 31
0.0
  0
ARC
  5
4CF
330
1F
100
AcDbEntity
  8
0
  6
HIDDEN
 62
     7
370
     0
100
AcDbCircle
 10
52.9368459846
 20
53.0326106175
 30
0.0
 40
1.250000000000002
100
AcDbArc
 50
90.0
 51
140.6433010727
  0
ARC
  5
4D0
330
1F
100
AcDbEntity
  8
0
  6
HIDDEN
 62
     7
370
     0
100
AcDbCircle
 10
37.6118459846
 20
53.0326106175
 30
0.0
 40
1.250000000000002
100
AcDbArc
 50
39.3566989273
 51
90.0
  0
ARC
  5
4D1
330
1F
100
AcDbEntity
  8
0
  6
HIDDEN
 62
     7
370
     0
100
AcDbCircle
 10
51.3517592362
 20
36.4076106175
 30
0.0
 40
0.7999999999999972
100
AcDbArc
 50
39.3566989273
 51
90.0
  0
ARC
  5
4D2
330
1F
100
AcDbEntity
  8
0
  6
HIDDEN
 62
     7
370
     0
100
AcDbCircle
 10
39.196932733
 20
36.4076106175
 30
0.0
 40
0.7999999999999988
100
AcDbArc
 50
90.0
 51
140.6433010727
  0
LINE
  5
4D3
330
1F
100
AcDbEntity
  8
0
  6
HIDDEN
 62
     7
370
     0
100
AcDbLine
 10
39.196932733
 20
37.2076106175
 30
0.0
 11
51.3517592362
 21
37.2076106175
 31
0.0
  0
ARC
  5
4D4
330
1F
100
AcDbEntity
  8
0
  6
HIDDEN
 62
     7
370
     0
100
AcDbCircle
 10
52.9368459846
 20
37.7076106175
 30
0.0
 40
1.250000000000002
100
AcDbArc
 50
219.3566989273
 51
270.0
  0
ARC
  5
4D5
330
1F
100
AcDbEntity
  8
0
  6
HIDDEN
 62
     7
370
     0
100
AcDbCircle
 10
37.6118459846
 20
37.7076106175
 30
0.0
 40
1.250000000000002
100
AcDbArc
 50
270.0
 51
320.6433010727
  0
ARC
  5
4D6
330
1F
100
AcDbEntity
  8
0
  6
HIDDEN
 62
     7
370
     0
100
AcDbCircle
 10
54.2368459846
 20
51.447523869
 30
0.0
 40
0.8000000000000043
100
AcDbArc
 50
129.3566989273
 51
180.0
  0
ARC
  5
4D7
330
1F
100
AcDbEntity
  8
0
  6
HIDDEN
 62
     7
370
     0
100
AcDbCircle
 10
54.2368459846
 20
39.2926973659
 30
0.0
 40
0.8000000000000043
100
AcDbArc
 50
180.0
 51
230.6433010727
  0
LINE
  5
4D8
330
1F
100
AcDbEntity
  8
0
  6
HIDDEN
 62
     7
370
     0
100
AcDbLine
 10
53.4368459846
 20
39.2926973659
 30
0.0
 11
53.4368459846
 21
51.447523869
 31
0.0
  0
ARC
  5
4D9
330
1F
100
AcDbEntity
  8
0
  6
HIDDEN
 62
     7
370
     0
100
AcDbCircle
 10
52.9368459846
 20
53.0326106175
 30
0.0
 40
1.250000000000001
100
AcDbArc
 50
309.3566989273
 51
0.0
  0
ARC
  5
4DA
330
1F
100
AcDbEntity
  8
0
  6
HIDDEN
 62
     7
370
     0
100
AcDbCircle
 10
52.9368459846
 20
37.7076106175
 30
0.0
 40
1.250000000000001
100
AcDbArc
 50
0.0
 51
50.6433010727
  0
LINE
  5
4DB
330
1F
100
AcDbEntity
  8
0
  6
HIDDEN
 62
     7
370
     0
100
AcDbLine
 10
39.5243459846
 20
27.7576106175
 30
0.0
 11
39.5243459846
 21
30.2576106175
 31
0.0
  0
ARC
  5
4DC
330
1F
100
AcDbEntity
  8
0
  6
HIDDEN
 62
     7
370
     0
100
AcDbCircle
 10
41.0243459846
 20
30.2576106175
 30
0.0
 40
1.500000000000004
100
AcDbArc
 50
90.0
 51
180.0
  0
ARC
  5
4DD
330
1F
100
AcDbEntity
  8
0
  6
HIDDEN
 62
     7
370
     0
100
AcDbCircle
 10
49.5243459846
 20
30.2576106175
 30
0.0
 40
1.500000000000004
100
AcDbArc
 50
0.0
 51
90.0
  0
LINE
  5
4DE
330
1F
100
AcDbEntity
  8
0
  6
HIDDEN
 62
     7
370
     0
100
AcDbLine
 10
41.0243459846
 20
31.7576106175
 30
0.0
 11
49.5243459846
 21
31.7576106175
 31
0.0
  0
LINE
  5
4DF
330
1F
100
AcDbEntity
  8
0
  6
HIDDEN
 62
     7
370
     0
100
AcDbLine
 10
51.0243459846
 20
30.2576106175
 30
0.0
 11
51.0243459846
 21
27.7576106175
 31
0.0
  0
LINE
  5
4E0
330
1F
100
AcDbEntity
  8
0
  6
Continuous
 62
     7
370
     0
100
AcDbLine
 10
55.8868459846
 20
55.9826106175
 30
0.0
 11
34.6618459846
 21
55.9826106175
 31
0.0
  0
LINE
  5
4E1
330
1F
100
AcDbEntity
  8
0
  6
Continuous
 62
     7
370
     0
100
AcDbLine
 10
34.6618459846
 20
34.7576106175
 30
0.0
 11
55.8868459846
 21
34.7576106175
 31
0.0
  0
LINE
  5
4E2
330
1F
100
AcDbEntity
  8
LAYOUT
100
AcDbLine
 10
51.0243459846
 20
25.7576106175
 30
0.0
 11
56.7743459846
 21
25.7576106175
 31
0.0
  0
LINE
  5
4E3
330
1F
100
AcDbEntity
  8
LAYOUT
100
AcDbLine
 10
38.6618459846
 20
64.9826106175
 30
0.0
 11
51.8868459846
 21
64.9826106175
 31
0.0
  0
LINE
  5
4E4
330
1F
100
AcDbEntity
  8
LAYOUT
100
AcDbLine
 10
33.7743459846
 20
64.9826106175
 30
0.0
 11
33.7743459846
 21
62.9826106175
 31
0.0
  0
LINE
  5
4E5
330
1F
100
AcDbEntity
  8
LAYOUT
100
AcDbLine
 10
33.7743459846
 20
62.9826106175
 30
0.0
 11
33.7743459846
 21
55.9826106175
 31
0.0
  0
LINE
  5
4E6
330
1F
100
AcDbEntity
  8
LAYOUT
100
AcDbLine
 10
31.7743459846
 20
53.9826106175
 30
0.0
 11
30.9743459846
 21
53.9826106175
 31
0.0
  0
LINE
  5
4E7
330
1F
100
AcDbEntity
  8
LAYOUT
100
AcDbLine
 10
28.9743459846
 20
51.9826106175
 30
0.0
 11
28.9743459846
 21
38.7576106175
 31
0.0
  0
LINE
  5
4E8
330
1F
100
AcDbEntity
  8
LAYOUT
100
AcDbLine
 10
30.9743459846
 20
36.7576106175
 30
0.0
 11
31.7743459846
 21
36.7576106175
 31
0.0
  0
LINE
  5
4E9
330
1F
100
AcDbEntity
  8
LAYOUT
100
AcDbLine
 10
33.7743459846
 20
34.7576106175
 30
0.0
 11
33.7743459846
 21
27.7576106175
 31
0.0
  0
LINE
  5
4EA
330
1F
100
AcDbEntity
  8
LAYOUT
100
AcDbLine
 10
33.7743459846
 20
27.7576106175
 30
0.0
 11
33.7743459846
 21
25.7576106175
 31
0.0
  0
LINE
  5
4EB
330
1F
100
AcDbEntity
  8
LAYOUT
100
AcDbLine
 10
40.7743459846
 20
25.7576106175
 30
0.0
 11
33.7743459846
 21
25.7576106175
 31
0.0
  0
LINE
  5
4EC
330
1F
100
AcDbEntity
  8
LAYOUT
100
AcDbLine
 10
56.7743459846
 20
25.7576106175
 30
0.0
 11
49.7743459846
 21
25.7576106175
 31
0.0
  0
LINE
  5
4ED
330
1F
100
AcDbEntity
  8
LAYOUT
100
AcDbLine
 10
56.7743459846
 20
27.7576106175
 30
0.0
 11
56.7743459846
 21
34.7576106175
 31
0.0
  0
LINE
  5
4EE
330
1F
100
AcDbEntity
  8
LAYOUT
100
AcDbLine
 10
56.7743459846
 20
25.7576106175
 30
0.0
 11
56.7743459846
 21
27.7576106175
 31
0.0
  0
LINE
  5
4EF
330
1F
100
AcDbEntity
  8
LAYOUT
100
AcDbLine
 10
51.0243459846
 20
25.7576106175
 30
0.0
 11
51.0243459846
 21
27.7576106175
 31
0.0
  0
LINE
  5
4F0
330
1F
100
AcDbEntity
  8
LAYOUT
100
AcDbLine
 10
34.6618459846
 20
34.7576106175
 30
0.0
 11
55.8868459846
 21
34.7576106175
 31
0.0
  0
LINE
  5
4F1
330
1F
100
AcDbEntity
  8
LAYOUT
100
AcDbLine
 10
58.7743459846
 20
36.7576106175
 30
0.0
 11
59.5743459846
 21
36.7576106175
 31
0.0
  0
LINE
  5
4F2
330
1F
100
AcDbEntity
  8
LAYOUT
100
AcDbLine
 10
61.5743459846
 20
38.7576106175
 30
0.0
 11
61.5743459846
 21
51.9826106175
 31
0.0
  0
LINE
  5
4F3
330
1F
100
AcDbEntity
  8
LAYOUT
100
AcDbLine
 10
59.5743459846
 20
53.9826106175
 30
0.0
 11
58.7743459846
 21
53.9826106175
 31
0.0
  0
LINE
  5
4F4
330
1F
100
AcDbEntity
  8
LAYOUT
100
AcDbLine
 10
56.7743459846
 20
55.9826106175
 30
0.0
 11
56.7743459846
 21
62.9826106175
 31
0.0
  0
LINE
  5
4F5
330
1F
100
AcDbEntity
  8
LAYOUT
100
AcDbLine
 10
56.7743459846
 20
62.9826106175
 30
0.0
 11
56.7743459846
 21
64.9826106175
 31
0.0
  0
LINE
  5
4F6
330
1F
100
AcDbEntity
  8
LAYOUT
100
AcDbLine
 10
56.7743459846
 20
25.7576106175
 30
0.0
 11
56.7743459846
 21
27.7576106175
 31
0.0
  0
LINE
  5
4F7
330
1F
100
AcDbEntity
  8
LAYOUT
100
AcDbLine
 10
34.6618459846
 20
55.9826106175
 30
0.0
 11
55.8868459846
 21
55.9826106175
 31
0.0
  0
LINE
  5
4F8
330
1F
100
AcDbEntity
  8
LAYOUT
100
AcDbLine
 10
34.6618459846
 20
55.9826106175
 30
0.0
 11
34.6618459846
 21
60.9826106175
 31
0.0
  0
LINE
  5
4F9
330
1F
100
AcDbEntity
  8
LAYOUT
100
AcDbLine
 10
33.7743459846
 20
64.9826106175
 30
0.0
 11
38.6618459846
 21
64.9826106175
 31
0.0
  0
LINE
  5
4FA
330
1F
100
AcDbEntity
  8
LAYOUT
100
AcDbLine
 10
55.8868459846
 20
55.9826106175
 30
0.0
 11
55.8868459846
 21
60.9826106175
 31
0.0
  0
LINE
  5
4FB
330
1F
100
AcDbEntity
  8
LAYOUT
  6
CENTERX2
100
AcDbLine
 10
39.5243459846
 20
25.7576106175
 30
0.0
 11
51.0243459846
 21
25.7576106175
 31
0.0
  0
LINE
  5
4FC
330
1F
100
AcDbEntity
  8
LAYOUT
  6
CENTERX2
100
AcDbLine
 10
39.5243459846
 20
25.7576106175
 30
0.0
 11
39.5243459846
 21
22.3401106175
 31
0.0
  0
LINE
  5
4FD
330
1F
100
AcDbEntity
  8
LAYOUT
100
AcDbLine
 10
34.6618459846
 20
34.7576106175
 30
0.0
 11
34.6618459846
 21
31.7576106175
 31
0.0
  0
LINE
  5
4FE
330
1F
100
AcDbEntity
  8
LAYOUT
100
AcDbLine
 10
55.8868459846
 20
34.7576106175
 30
0.0
 11
55.8868459846
 21
31.7576106175
 31
0.0
  0
LINE
  5
4FF
330
1F
100
AcDbEntity
  8
LAYOUT
100
AcDbLine
 10
38.6618459846
 20
27.7576106175
 30
0.0
 11
39.5243459846
 21
27.7576106175
 31
0.0
  0
LINE
  5
500
330
1F
100
AcDbEntity
  8
LAYOUT
100
AcDbLine
 10
51.8868459846
 20
27.7576106175
 30
0.0
 11
51.0243459846
 21
27.7576106175
 31
0.0
  0
LINE
  5
501
330
1F
100
AcDbEntity
  8
LAYOUT
  6
CENTERX2
100
AcDbLine
 10
39.5243459846
 20
22.3401106175
 30
0.0
 11
51.0243459846
 21
22.3401106175
 31
0.0
  0
LINE
  5
502
330
1F
100
AcDbEntity
  8
LAYOUT
  6
CENTERX2
100
AcDbLine
 10
51.0243459846
 20
25.7576106175
 30
0.0
 11
51.0243459846
 21
22.3401106175
 31
0.0
  0
LINE
  5
503
330
1F
100
AcDbEntity
  8
LAYOUT
100
AcDbLine
 10
39.5243459846
 20
25.7576106175
 30
0.0
 11
51.0243459846
 21
25.7576106175
 31
0.0
  0
LINE
  5
504
330
1F
100
AcDbEntity
  8
LAYOUT
100
AcDbLine
 10
39.5243459846
 20
25.7576106175
 30
0.0
 11
39.5243459846
 21
30.2576106175
 31
0.0
  0
LINE
  5
505
330
1F
100
AcDbEntity
  8
LAYOUT
100
AcDbLine
 10
41.0243459846
 20
31.7576106175
 30
0.0
 11
49.5243459846
 21
31.7576106175
 31
0.0
  0
LINE
  5
506
330
1F
100
AcDbEntity
  8
LAYOUT
100
AcDbLine
 10
51.0243459846
 20
25.7576106175
 30
0.0
 11
51.0243459846
 21
30.2576106175
 31
0.0
  0
LINE
  5
507
330
1F
100
AcDbEntity
  8
LAYOUT
100
AcDbLine
 10
34.6618459846
 20
55.9826106175
 30
0.0
 11
55.8868459846
 21
55.9826106175
 31
0.0
  0
LINE
  5
508
330
1F
100
AcDbEntity
  8
LAYOUT
100
AcDbLine
 10
34.6618459846
 20
55.9826106175
 30
0.0
 11
34.6618459846
 21
60.9826106175
 31
0.0
  0
LINE
  5
509
330
1F
100
AcDbEntity
  8
LAYOUT
100
AcDbLine
 10
38.6618459846
 20
64.9826106175
 30
0.0
 11
51.8868459846
 21
64.9826106175
 31
0.0
  0
LINE
  5
50A
330
1F
100
AcDbEntity
  8
LAYOUT
100
AcDbLine
 10
55.8868459846
 20
55.9826106175
 30
0.0
 11
55.8868459846
 21
60.9826106175
 31
0.0
  0
LINE
  5
50B
330
1F
100
AcDbEntity
  8
LAYOUT
100
AcDbLine
 10
51.8868459846
 20
64.9826106175
 30
0.0
 11
56.7743459846
 21
64.9826106175
 31
0.0
  0
LINE
  5
50C
330
1F
100
AcDbEntity
  8
LAYOUT
100
AcDbLine
 10
34.6618459846
 20
55.9826106175
 30
0.0
 11
34.6618459846
 21
34.7576106175
 31
0.0
  0
LINE
  5
50D
330
1F
100
AcDbEntity
  8
LAYOUT
100
AcDbLine
 10
55.8868459846
 20
55.9826106175
 30
0.0
 11
55.8868459846
 21
34.7576106175
 31
0.0
  0
ARC
  5
50E
330
1F
100
AcDbEntity
  8
LAYOUT
100
AcDbCircle
 10
31.7743459846
 20
55.9826106175
 30
0.0
 40
2.0
100
AcDbArc
 50
270.0
 51
0.0
  0
ARC
  5
50F
330
1F
100
AcDbEntity
  8
LAYOUT
100
AcDbCircle
 10
30.9743459846
 20
51.9826106175
 30
0.0
 40
2.000000000000007
100
AcDbArc
 50
90.0
 51
180.0
  0
ARC
  5
510
330
1F
100
AcDbEntity
  8
LAYOUT
100
AcDbCircle
 10
30.9743459846
 20
38.7576106175
 30
0.0
 40
2.0
100
AcDbArc
 50
180.0
 51
270.0
  0
ARC
  5
511
330
1F
100
AcDbEntity
  8
LAYOUT
100
AcDbCircle
 10
31.7743459846
 20
34.7576106175
 30
0.0
 40
2.0
100
AcDbArc
 50
0.0
 51
90.0
  0
ARC
  5
512
330
1F
100
AcDbEntity
  8
LAYOUT
100
AcDbCircle
 10
51.8868459846
 20
31.7576106175
 30
0.0
 40
4.000000000000001
100
AcDbArc
 50
270.0
 51
321.3178125465
  0
ARC
  5
513
330
1F
100
AcDbEntity
  8
LAYOUT
100
AcDbCircle
 10
51.8868459846
 20
31.7576106175
 30
0.0
 40
4.000000000000007
100
AcDbArc
 50
321.3178125465
 51
0.0
  0
ARC
  5
514
330
1F
100
AcDbEntity
  8
LAYOUT
100
AcDbCircle
 10
38.6618459846
 20
31.7576106175
 30
0.0
 40
4.0
100
AcDbArc
 50
180.0
 51
218.6821874535
  0
ARC
  5
515
330
1F
100
AcDbEntity
  8
LAYOUT
100
AcDbCircle
 10
38.6618459846
 20
31.7576106175
 30
0.0
 40
4.0
100
AcDbArc
 50
218.6821874535
 51
270.0
  0
ARC
  5
516
330
1F
100
AcDbEntity
  8
LAYOUT
100
AcDbCircle
 10
58.7743459846
 20
34.7576106175
 30
0.0
 40
2.0
100
AcDbArc
 50
90.0
 51
180.0
  0
ARC
  5
517
330
1F
100
AcDbEntity
  8
LAYOUT
100
AcDbCircle
 10
59.5743459846
 20
38.7576106175
 30
0.0
 40
2.0
100
AcDbArc
 50
270.0
 51
0.0
  0
ARC
  5
518
330
1F
100
AcDbEntity
  8
LAYOUT
100
AcDbCircle
 10
59.5743459846
 20
51.9826106175
 30
0.0
 40
2.000000000000007
100
AcDbArc
 50
0.0
 51
90.0
  0
ARC
  5
519
330
1F
100
AcDbEntity
  8
LAYOUT
100
AcDbCircle
 10
58.7743459846
 20
55.9826106175
 30
0.0
 40
2.000000000000007
100
AcDbArc
 50
180.0
 51
270.0
  0
ARC
  5
51A
330
1F
100
AcDbEntity
  8
LAYOUT
100
AcDbCircle
 10
51.8868459846
 20
60.9826106175
 30
0.0
 40
4.000000000000007
100
AcDbArc
 50
0.0
 51
90.0
  0
ARC
  5
51B
330
1F
100
AcDbEntity
  8
LAYOUT
100
AcDbCircle
 10
38.6618459846
 20
60.9826106175
 30
0.0
 40
4.000000000000007
100
AcDbArc
 50
90.0
 51
180.0
  0
CIRCLE
  5
51C
330
1F
100
AcDbEntity
  8
LAYOUT
100
AcDbCircle
 10
37.3228804003
 20
54.2688711213
 30
0.0
 40
0.313188543993285
  0
ARC
  5
51D
330
1F
100
AcDbEntity
  8
LAYOUT
100
AcDbCircle
 10
49.5243459846
 20
30.2576106175
 30
0.0
 40
1.5
100
AcDbArc
 50
0.0
 51
90.0
  0
ARC
  5
51E
330
1F
100
AcDbEntity
  8
LAYOUT
100
AcDbCircle
 10
41.0243459846
 20
30.2576106175
 30
0.0
 40
1.5
100
AcDbArc
 50
90.0
 51
180.0
  0
ARC
  5
51F
330
1F
100
AcDbEntity
  8
LAYOUT
100
AcDbCircle
 10
51.8868459846
 20
60.9826106175
 30
0.0
 40
4.0
100
AcDbArc
 50
0.0
 51
90.0
  0
ARC
  5
520
330
1F
100
AcDbEntity
  8
LAYOUT
100
AcDbCircle
 10
38.6618459846
 20
60.9826106175
 30
0.0
 40
4.000000000000007
100
AcDbArc
 50
90.0
 51
180.0
  0
HATCH
  5
521
330
1F
100
AcDbEntity
  8
LAYOUT
 62
   179
100
AcDbHatch
 10
0.0
 20
0.0
 30
0.0
210
0.0
220
0.0
230
1.0
  2
ANSI31
 70
     0
 71
     0
 91
        1
 92
        0
 93
        6
 72
     2
 10
41.02434598456793
 20
30.25761061745434
 40
1.5
 50
179.9999999999996
 51
270.0000000000013
 73
     0
 72
     1
 10
41.02434598456794
 20
31.75761061745434
 11
49.52434598456791
 21
31.75761061745434
 72
     2
 10
49.52434598456792
 20
30.25761061745434
 40
1.5
 50
270.0000000000002
 51
360.0000000000012
 73
     0
 72
     1
 10
51.02434598456792
 20
30.25761061745433
 11
51.02434598456792
 21
25.75761061745433
 72
     1
 10
51.02434598456792
 20
25.75761061745433
 11
39.52434598456793
 21
25.75761061745433
 72
     1
 10
39.52434598456793
 20
25.75761061745433
 11
39.52434598456793
 21
30.25761061745433
 97
        0
 75
     0
 76
     1
 52
0.0
 41
0.0625
 77
     0
 78
     1
 53
45.0
 43
0.0
 44
0.0
 45
-0.1403165018917055
 46
0.1403165018917055
 79
     0
 98
        1
 10
0.0
 20
0.0
  0
HATCH
  5
522
330
1F
100
AcDbEntity
  8
LAYOUT
 62
   179
100
AcDbHatch
 10
0.0
 20
0.0
 30
0.0
210
0.0
220
0.0
230
1.0
  2
ANSI31
 70
     0
 71
     0
 91
        1
 92
        0
 93
        6
 72
     2
 10
38.66184598456794
 20
60.98261061745433
 40
4.000000000000004
 50
149.9999999999999
 51
179.9999999999999
 73
     1
 72
     1
 10
34.66184598456794
 20
60.98261061745434
 11
34.66184598456794
 21
55.98261061745433
 72
     1
 10
34.66184598456794
 20
55.98261061745433
 11
55.88684598456794
 21
55.98261061745433
 72
     1
 10
55.88684598456794
 20
55.98261061745433
 11
55.88684598456795
 21
60.98261061745434
 72
     2
 10
51.88684598456794
 20
60.98261061745433
 40
4.000000000000005
 50
0.0000000000001018
 51
30.00000000000002
 73
     1
 72
     1
 10
55.35094759970571
 20
62.98261061745434
 11
35.19774436943018
 21
62.98261061745434
 97
        0
 75
     0
 76
     1
 52
90.0
 41
0.125
 77
     0
 78
     1
 53
135.0000000000002
 43
0.0
 44
0.0
 45
-0.2806330037834101
 46
-0.280633003783412
 79
     0
 98
        1
 10
0.0
 20
0.0
  0
HATCH
  5
523
330
1F
100
AcDbEntity
  8
LAYOUT
 62
   179
100
AcDbHatch
 10
0.0
 20
0.0
 30
0.0
210
0.0
220
0.0
230
1.0
  2
ANSI31
 70
     0
 71
     0
 91
        1
 92
        0
 93
        4
 72
     2
 10
38.66184598456794
 20
60.98261061745433
 40
4.000000000000004
 50
90.0
 51
149.9999999999999
 73
     1
 72
     1
 10
35.19774436943018
 20
62.98261061745434
 11
55.35094759970571
 21
62.98261061745434
 72
     2
 10
51.88684598456794
 20
60.98261061745433
 40
4.000000000000005
 50
30.00000000000002
 51
89.9999999999998
 73
     1
 72
     1
 10
51.88684598456796
 20
64.98261061745434
 11
38.66184598456794
 21
64.98261061745434
 97
        0
 75
     0
 76
     1
 52
90.0
 41
0.125
 77
     0
 78
     1
 53
135.0000000000002
 43
0.0
 44
0.0
 45
-0.2806330037834101
 46
-0.280633003783412
 79
     0
 98
        1
 10
0.0
 20
0.0
  0
HATCH
  5
524
330
1F
100
AcDbEntity
  8
LAYOUT
 62
   179
100
AcDbHatch
 10
0.0
 20
0.0
 30
0.0
210
0.0
220
0.0
230
1.0
  2
ANSI31
 70
     0
 71
     0
 91
        1
 92
        0
 93
       19
 72
     2
 10
34.27434598456793
 20
47.87011061745433
 40
2.999999999999976
 50
82.57856016393751
 51
277.4214398360633
 73
     0
 72
     1
 10
34.66184598456793
 20
50.84497931203563
 11
34.66184598456794
 21
55.98261061745433
 72
     1
 10
34.66184598456794
 20
55.98261061745433
 11
34.66184598456794
 21
60.98261061745434
 72
     2
 10
38.66184598456794
 20
60.98261061745433
 40
4.000000000000004
 50
180.0000000000009
 51
210.0000000000009
 73
     0
 72
     1
 10
35.19774436943018
 20
62.98261061745434
 11
33.77434598456793
 21
62.98261061745434
 72
     1
 10
33.77434598456793
 20
62.98261061745434
 11
33.77434598456793
 21
55.98261061745433
 72
     2
 10
31.77434598456793
 20
55.98261061745433
 40
1.999999999999998
 50
0.0
 51
90.0
 73
     0
 72
     1
 10
31.77434598456793
 20
53.98261061745434
 11
30.97434598456793
 21
53.98261061745434
 72
     2
 10
30.97434598456793
 20
51.98261061745433
 40
2.000000000000003
 50
90.0
 51
180.0
 73
     1
 72
     1
 10
28.97434598456793
 20
51.98261061745433
 11
28.97434598456793
 21
38.75761061745433
 72
     2
 10
30.97434598456793
 20
38.75761061745433
 40
1.999999999999998
 50
180.0
 51
270.0000000000008
 73
     1
 72
     1
 10
30.97434598456793
 20
36.75761061745433
 11
31.77434598456793
 21
36.75761061745433
 72
     2
 10
31.77434598456793
 20
34.75761061745433
 40
1.999999999999998
 50
270.0000000000008
 51
360.0000000000008
 73
     0
 72
     1
 10
33.77434598456793
 20
34.75761061745433
 11
33.77434598456793
 21
27.75761061745433
 72
     1
 10
33.77434598456793
 20
27.75761061745433
 11
38.66184598456793
 21
27.75761061745433
 72
     2
 10
38.66184598456793
 20
31.75761061745433
 40
3.999999999999999
 50
90.0
 51
141.3178125465107
 73
     0
 72
     2
 10
38.66184598456793
 20
31.75761061745433
 40
3.999999999999999
 50
141.3178125465107
 51
179.9999999999999
 73
     0
 72
     1
 10
34.66184598456793
 20
31.75761061745433
 11
34.66184598456793
 21
34.75761061745433
 72
     1
 10
34.66184598456793
 20
34.75761061745433
 11
34.66184598456793
 21
44.89524192287303
 97
        0
 75
     0
 76
     1
 52
0.0
 41
0.125
 77
     0
 78
     1
 53
45.0
 43
0.0
 44
0.0
 45
-0.280633003783411
 46
0.2806330037834111
 79
     0
 98
        1
 10
0.0
 20
0.0
  0
HATCH
  5
525
330
1F
100
AcDbEntity
  8
LAYOUT
 62
   179
100
AcDbHatch
 10
0.0
 20
0.0
 30
0.0
210
0.0
220
0.0
230
1.0
  2
ANSI31
 70
     0
 71
     0
 91
        1
 92
        0
 93
        6
 72
     1
 10
40.77434598456793
 20
32.25761061745433
 11
40.77434598456793
 21
31.73663056322924
 72
     2
 10
41.02434598456793
 20
30.25761061745434
 40
1.499999999999998
 50
260.4059317731403
 51
270.0000000000013
 73
     0
 72
     1
 10
41.02434598456794
 20
31.75761061745434
 11
49.52434598456791
 21
31.75761061745434
 72
     2
 10
49.52434598456792
 20
30.25761061745434
 40
1.500000000000001
 50
270.0000000000002
 51
279.5940682268613
 73
     0
 72
     1
 10
49.77434598456792
 20
31.73663056322924
 11
49.77434598456792
 21
32.25761061745433
 72
     1
 10
49.77434598456792
 20
32.25761061745433
 11
40.77434598456793
 21
32.25761061745433
 97
        0
 75
     0
 76
     1
 52
90.0
 41
0.125
 77
     0
 78
     1
 53
135.0000000000002
 43
0.0
 44
0.0
 45
-0.2806330037834101
 46
-0.280633003783412
 79
     0
 98
        1
 10
0.0
 20
0.0
  0
HATCH
  5
526
330
1F
100
AcDbEntity
  8
LAYOUT
 62
   179
100
AcDbHatch
 10
0.0
 20
0.0
 30
0.0
210
0.0
220
0.0
230
1.0
  2
ANSI31
 70
     0
 71
     0
 91
        1
 92
        0
 93
        4
 72
     1
 10
33.77434598456793
 20
62.98261061745434
 11
35.19774436943018
 21
62.98261061745434
 72
     2
 10
38.66184598456794
 20
60.98261061745433
 40
4.000000000000004
 50
210.0000000000009
 51
270.0000000000008
 73
     0
 72
     1
 10
38.66184598456794
 20
64.98261061745434
 11
33.77434598456793
 21
64.98261061745434
 72
     1
 10
33.77434598456793
 20
64.98261061745434
 11
33.77434598456793
 21
62.98261061745434
 97
        0
 75
     0
 76
     1
 52
0.0
 41
0.125
 77
     0
 78
     1
 53
45.0
 43
0.0
 44
0.0
 45
-0.280633003783411
 46
0.2806330037834111
 79
     0
 98
        1
 10
0.0
 20
0.0
  0
HATCH
  5
527
330
1F
100
AcDbEntity
  8
LAYOUT
 62
   179
100
AcDbHatch
 10
0.0
 20
0.0
 30
0.0
210
0.0
220
0.0
230
1.0
  2
DOTS
 70
     0
 71
     0
 91
        1
 92
        0
 93
        4
 72
     1
 10
39.52434598456793
 20
25.75761061745433
 11
51.02434598456792
 21
25.75761061745433
 72
     1
 10
51.02434598456792
 20
25.75761061745433
 11
51.02434598456792
 21
22.34011061745433
 72
     1
 10
51.02434598456792
 20
22.34011061745433
 11
39.52434598456793
 21
22.34011061745433
 72
     1
 10
39.52434598456793
 20
22.34011061745433
 11
39.52434598456793
 21
25.75761061745433
 97
        0
 75
     0
 76
     1
 52
0.0
 41
0.125
 77
     0
 78
     1
 53
0.0
 43
0.0
 44
0.0
 45
0.09921875
 46
0.1984375
 79
     2
 49
0.0
 49
-0.1984375
 98
        1
 10
0.0
 20
0.0
  0
HATCH
  5
528
330
1F
100
AcDbEntity
  8
LAYOUT
 62
   179
100
AcDbHatch
 10
0.0
 20
0.0
 30
0.0
210
0.0
220
0.0
230
1.0
  2
ANSI31
 70
     0
 71
     0
 91
        1
 92
        0
 93
        4
 72
     2
 10
51.88684598456794
 20
60.98261061745433
 40
4.000000000000005
 50
270.000000000001
 51
330.0000000000008
 73
     0
 72
     1
 10
55.35094759970571
 20
62.98261061745434
 11
56.77434598456792
 21
62.98261061745434
 72
     1
 10
56.77434598456792
 20
62.98261061745434
 11
56.77434598456792
 21
64.98261061745434
 72
     1
 10
56.77434598456792
 20
64.98261061745434
 11
51.88684598456796
 21
64.98261061745434
 97
        0
 75
     0
 76
     1
 52
0.0
 41
0.125
 77
     0
 78
     1
 53
45.0
 43
0.0
 44
0.0
 45
-0.280633003783411
 46
0.2806330037834111
 79
     0
 98
        1
 10
0.0
 20
0.0
  0
HATCH
  5
529
330
1F
100
AcDbEntity
  8
LAYOUT
 62
   179
100
AcDbHatch
 10
0.0
 20
0.0
 30
0.0
210
0.0
220
0.0
230
1.0
  2
ANSI31
 70
     0
 71
     0
 91
        1
 92
        0
 93
        5
 72
     2
 10
51.88684598456794
 20
60.98261061745434
 40
4.000000000000001
 50
330.0000000000009
 51
360.0000000000008
 73
     0
 72
     1
 10
55.88684598456795
 20
60.98261061745434
 11
55.88684598456794
 21
55.98261061745433
 72
     1
 10
55.88684598456794
 20
55.98261061745433
 11
56.77434598456791
 21
55.98261061745433
 72
     1
 10
56.77434598456791
 20
55.98261061745433
 11
56.77434598456791
 21
62.98261061745434
 72
     1
 10
56.77434598456791
 20
62.98261061745434
 11
55.35094759970571
 21
62.98261061745434
 97
        0
 75
     0
 76
     1
 52
0.0
 41
0.125
 77
     0
 78
     1
 53
45.0
 43
0.0
 44
0.0
 45
-0.280633003783411
 46
0.2806330037834111
 79
     0
 98
        1
 10
0.0
 20
0.0
  0
HATCH
  5
52A
330
1F
100
AcDbEntity
  8
LAYOUT
 62
   179
100
AcDbHatch
 10
0.0
 20
0.0
 30
0.0
210
0.0
220
0.0
230
1.0
  2
ANSI31
 70
     0
 71
     0
 91
        1
 92
        0
 93
        2
 72
     1
 10
34.66184598456793
 20
46.3177434733805
 11
34.66184598456793
 21
49.42247776152817
 72
     2
 10
34.27434598456793
 20
47.87011061745433
 40
1.599999999999985
 50
75.98431557484301
 51
284.0156844251578
 73
     1
 97
        0
 75
     0
 76
     1
 52
0.0
 41
0.125
 77
     0
 78
     1
 53
45.0
 43
0.0
 44
0.0
 45
-0.280633003783411
 46
0.2806330037834111
 79
     0
 98
        1
 10
0.0
 20
0.0
  0
HATCH
  5
52B
330
1F
100
AcDbEntity
  8
LAYOUT
 62
   179
100
AcDbHatch
 10
0.0
 20
0.0
 30
0.0
210
0.0
220
0.0
230
1.0
  2
ANSI31
 70
     0
 71
     0
 91
        1
 92
        0
 93
        5
 72
     1
 10
38.66184598456793
 20
27.75761061745433
 11
33.77434598456793
 21
27.75761061745433
 72
     1
 10
33.77434598456793
 20
27.75761061745433
 11
33.77434598456793
 21
25.75761061745433
 72
     1
 10
33.77434598456793
 20
25.75761061745433
 11
39.52434598456793
 21
25.75761061745433
 72
     1
 10
39.52434598456793
 20
25.75761061745433
 11
39.52434598456793
 21
27.75761061745434
 72
     1
 10
39.52434598456793
 20
27.75761061745434
 11
38.66184598456793
 21
27.75761061745433
 97
        0
 75
     0
 76
     1
 52
0.0
 41
0.125
 77
     0
 78
     1
 53
45.0
 43
0.0
 44
0.0
 45
-0.280633003783411
 46
0.2806330037834111
 79
     0
 98
        1
 10
0.0
 20
0.0
  0
HATCH
  5
52C
330
1F
100
AcDbEntity
  8
LAYOUT
 62
   179
100
AcDbHatch
 10
0.0
 20
0.0
 30
0.0
210
0.0
220
0.0
230
1.0
  2
ANSI31
 70
     0
 71
     0
 91
        1
 92
        0
 93
        5
 72
     1
 10
51.88684598456793
 20
27.75761061745433
 11
51.02434598456792
 21
27.75761061745433
 72
     1
 10
51.02434598456792
 20
27.75761061745433
 11
51.02434598456792
 21
25.75761061745433
 72
     1
 10
51.02434598456792
 20
25.75761061745433
 11
56.77434598456792
 21
25.75761061745433
 72
     1
 10
56.77434598456792
 20
25.75761061745433
 11
56.77434598456794
 21
27.75761061745433
 72
     1
 10
56.77434598456794
 20
27.75761061745433
 11
51.88684598456793
 21
27.75761061745433
 97
        0
 75
     0
 76
     1
 52
0.0
 41
0.125
 77
     0
 78
     1
 53
45.0
 43
0.0
 44
0.0
 45
-0.280633003783411
 46
0.2806330037834111
 79
     0
 98
        1
 10
0.0
 20
0.0
  0
HATCH
  5
52D
330
1F
100
AcDbEntity
  8
LAYOUT
 62
   179
100
AcDbHatch
 10
0.0
 20
0.0
 30
0.0
210
0.0
220
0.0
230
1.0
  2
ANSI31
 70
     0
 71
     0
 91
        1
 92
        0
 93
       16
 72
     1
 10
39.52434598456793
 20
27.75761061745434
 11
39.52434598456793
 21
30.25761061745433
 72
     2
 10
41.02434598456793
 20
30.25761061745434
 40
1.499999999999998
 50
179.9999999999993
 51
260.4059317731403
 73
     0
 72
     1
 10
40.77434598456793
 20
31.73663056322924
 11
40.77434598456793
 21
32.25761061745433
 72
     1
 10
40.77434598456793
 20
32.25761061745433
 11
49.77434598456792
 21
32.25761061745433
 72
     1
 10
49.77434598456792
 20
32.25761061745433
 11
49.77434598456792
 21
31.73663056322924
 72
     2
 10
49.52434598456792
 20
30.25761061745434
 40
1.500000000000001
 50
279.5940682268613
 51
360.0000000000014
 73
     0
 72
     1
 10
51.02434598456792
 20
30.25761061745433
 11
51.02434598456792
 21
27.75761061745433
 72
     1
 10
51.02434598456792
 20
27.75761061745433
 11
51.88684598456793
 21
27.75761061745433
 72
     2
 10
51.88684598456793
 20
31.75761061745433
 40
4.000000000000002
 50
270.0000000000008
 51
321.3178125465116
 73
     1
 72
     2
 10
51.88684598456793
 20
31.75761061745433
 40
4.000000000000004
 50
321.3178125465116
 51
360.0000000000008
 73
     1
 72
     1
 10
55.88684598456794
 20
31.75761061745433
 11
55.88684598456794
 21
34.75761061745433
 72
     1
 10
55.88684598456794
 20
34.75761061745433
 11
34.66184598456793
 21
34.75761061745433
 72
     1
 10
34.66184598456793
 20
34.75761061745433
 11
34.66184598456793
 21
31.75761061745433
 72
     2
 10
38.66184598456793
 20
31.75761061745433
 40
3.999999999999999
 50
180.0000000000009
 51
218.6821874534901
 73
     1
 72
     2
 10
38.66184598456793
 20
31.75761061745433
 40
3.999999999999999
 50
218.6821874534901
 51
270.0000000000008
 73
     1
 72
     1
 10
38.66184598456793
 20
27.75761061745433
 11
39.52434598456793
 21
27.75761061745434
 97
        0
 75
     0
 76
     1
 52
90.0
 41
0.125
 77
     0
 78
     1
 53
135.0000000000002
 43
0.0
 44
0.0
 45
-0.2806330037834101
 46
-0.280633003783412
 79
     0
 98
        1
 10
0.0
 20
0.0
  0
HATCH
  5
52E
330
1F
100
AcDbEntity
  8
LAYOUT
 62
   179
100
AcDbHatch
 10
0.0
 20
0.0
 30
0.0
210
0.0
220
0.0
230
1.0
  2
ANSI31
 70
     0
 71
     0
 91
        1
 92
        0
 93
       12
 72
     2
 10
56.27434598456791
 20
42.87011061745433
 40
2.999999999999996
 50
262.5785601639391
 51
457.4214398360625
 73
     0
 72
     1
 10
55.88684598456794
 20
39.89524192287301
 11
55.88684598456794
 21
34.75761061745433
 72
     1
 10
55.88684598456794
 20
34.75761061745433
 11
56.77434598456791
 21
34.75761061745433
 72
     2
 10
58.77434598456792
 20
34.75761061745433
 40
2.000000000000003
 50
180.0
 51
270.0000000000008
 73
     0
 72
     1
 10
58.77434598456792
 20
36.75761061745433
 11
59.57434598456791
 21
36.75761061745433
 72
     2
 10
59.57434598456791
 20
38.75761061745433
 40
2.0
 50
270.0000000000008
 51
360.0000000000008
 73
     1
 72
     1
 10
61.57434598456791
 20
38.75761061745433
 11
61.57434598456791
 21
51.98261061745434
 72
     2
 10
59.57434598456791
 20
51.98261061745434
 40
1.999999999999998
 50
0.0
 51
90.0
 73
     1
 72
     1
 10
59.57434598456791
 20
53.98261061745434
 11
58.7743459845679
 21
53.98261061745434
 72
     2
 10
58.7743459845679
 20
55.98261061745433
 40
1.999999999999998
 50
90.0
 51
180.0
 73
     0
 72
     1
 10
56.77434598456791
 20
55.98261061745433
 11
55.88684598456794
 21
55.98261061745433
 72
     1
 10
55.88684598456794
 20
55.98261061745433
 11
55.88684598456794
 21
45.84497931203566
 97
        0
 75
     0
 76
     1
 52
0.0
 41
0.125
 77
     0
 78
     1
 53
45.0
 43
0.0
 44
0.0
 45
-0.280633003783411
 46
0.2806330037834111
 79
     0
 98
        1
 10
0.0
 20
0.0
  0
HATCH
  5
52F
330
1F
100
AcDbEntity
  8
LAYOUT
 62
   179
100
AcDbHatch
 10
0.0
 20
0.0
 30
0.0
210
0.0
220
0.0
230
1.0
  2
ANSI31
 70
     0
 71
     0
 91
        1
 92
        0
 93
        4
 72
     2
 10
56.27434598456793
 20
42.87011061745433
 40
1.59999999999998
 50
255.9843155748442
 51
464.0156844251575
 73
     0
 72
     1
 10
55.88684598456794
 20
41.3177434733805
 11
55.88684598456794
 21
39.89524192287303
 72
     2
 10
56.27434598456793
 20
42.87011061745433
 40
2.999999999999977
 50
262.5785601639386
 51
457.421439836063
 73
     1
 72
     1
 10
55.88684598456794
 20
45.84497931203564
 11
55.88684598456794
 21
44.42247776152816
 97
        0
 75
     0
 76
     1
 52
0.0
 41
0.125
 77
     0
 78
     1
 53
45.0
 43
0.0
 44
0.0
 45
-0.280633003783411
 46
0.2806330037834111
 79
     0
 98
        1
 10
0.0
 20
0.0
  0
HATCH
  5
530
330
1F
100
AcDbEntity
  8
LAYOUT
 62
   179
100
AcDbHatch
 10
0.0
 20
0.0
 30
0.0
210
0.0
220
0.0
230
1.0
  2
ANSI31
 70
     0
 71
     0
 91
        1
 92
        0
 93
        2
 72
     1
 10
55.88684598456794
 20
44.42247776152816
 11
55.88684598456794
 21
41.3177434733805
 72
     2
 10
56.27434598456793
 20
42.87011061745433
 40
1.59999999999998
 50
255.9843155748442
 51
464.0156844251574
 73
     1
 97
        0
 75
     0
 76
     1
 52
0.0
 41
0.125
 77
     0
 78
     1
 53
45.0
 43
0.0
 44
0.0
 45
-0.280633003783411
 46
0.2806330037834111
 79
     0
 98
        1
 10
0.0
 20
0.0
  0
HATCH
  5
531
330
1F
100
AcDbEntity
  8
LAYOUT
 62
   179
100
AcDbHatch
 10
0.0
 20
0.0
 30
0.0
210
0.0
220
0.0
230
1.0
  2
ANSI31
 70
     0
 71
     0
 91
        1
 92
        0
 93
        4
 72
     2
 10
34.27434598456793
 20
47.87011061745433
 40
1.599999999999985
 50
75.98431557484295
 51
284.0156844251578
 73
     0
 72
     1
 10
34.66184598456793
 20
49.42247776152817
 11
34.66184598456793
 21
50.84497931203563
 72
     2
 10
34.27434598456793
 20
47.87011061745433
 40
2.999999999999976
 50
82.57856016393752
 51
277.4214398360633
 73
     1
 72
     1
 10
34.66184598456793
 20
44.89524192287303
 11
34.66184598456793
 21
46.3177434733805
 97
        0
 75
     0
 76
     1
 52
0.0
 41
0.125
 77
     0
 78
     1
 53
45.0
 43
0.0
 44
0.0
 45
-0.280633003783411
 46
0.2806330037834111
 79
     0
 98
        1
 10
0.0
 20
0.0
  0
HATCH
  5
532
330
1F
100
AcDbEntity
  8
LAYOUT
 62
   179
100
AcDbHatch
 10
0.0
 20
0.0
 30
0.0
210
0.0
220
0.0
230
1.0
  2
ANSI31
 70
     0
 71
     0
 91
        1
 92
        0
 93
       19
 72
     2
 10
56.27434598456793
 20
42.87011061745433
 40
2.999999999999977
 50
262.5785601639386
 51
457.421439836063
 73
     0
 72
     1
 10
55.88684598456794
 20
39.89524192287303
 11
55.88684598456794
 21
34.75761061745433
 72
     1
 10
55.88684598456794
 20
34.75761061745433
 11
55.88684598456794
 21
31.75761061745433
 72
     2
 10
51.88684598456793
 20
31.75761061745433
 40
4.000000000000004
 50
0.0
 51
38.68218745348923
 73
     0
 72
     2
 10
51.88684598456793
 20
31.75761061745433
 40
4.000000000000002
 50
38.68218745348923
 51
90.0
 73
     0
 72
     1
 10
51.88684598456793
 20
27.75761061745433
 11
56.77434598456794
 21
27.75761061745433
 72
     1
 10
56.77434598456794
 20
27.75761061745433
 11
56.77434598456792
 21
34.75761061745433
 72
     2
 10
58.77434598456793
 20
34.75761061745433
 40
2.000000000000003
 50
180.0
 51
270.0000000000008
 73
     0
 72
     1
 10
58.77434598456793
 20
36.75761061745433
 11
59.57434598456793
 21
36.75761061745433
 72
     2
 10
59.57434598456793
 20
38.75761061745433
 40
1.999999999999998
 50
270.0000000000008
 51
360.0000000000008
 73
     1
 72
     1
 10
61.57434598456793
 20
38.75761061745433
 11
61.57434598456793
 21
51.98261061745433
 72
     2
 10
59.57434598456793
 20
51.98261061745433
 40
2.000000000000003
 50
0.0
 51
90.0
 73
     1
 72
     1
 10
59.57434598456793
 20
53.98261061745434
 11
58.77434598456792
 21
53.98261061745434
 72
     2
 10
58.77434598456792
 20
55.98261061745433
 40
1.999999999999998
 50
90.0
 51
180.0
 73
     0
 72
     1
 10
56.77434598456792
 20
55.98261061745433
 11
56.77434598456792
 21
62.98261061745434
 72
     1
 10
56.77434598456792
 20
62.98261061745434
 11
55.35094759970571
 21
62.98261061745434
 72
     2
 10
51.88684598456794
 20
60.98261061745433
 40
4.000000000000005
 50
330.0000000000008
 51
360.0000000000007
 73
     0
 72
     1
 10
55.88684598456795
 20
60.98261061745434
 11
55.88684598456794
 21
55.98261061745433
 72
     1
 10
55.88684598456794
 20
55.98261061745433
 11
55.88684598456794
 21
45.84497931203564
 97
        0
 75
     0
 76
     1
 52
0.0
 41
0.125
 77
     0
 78
     1
 53
45.0
 43
0.0
 44
0.0
 45
-0.280633003783411
 46
0.2806330037834111
 79
     0
 98
        1
 10
0.0
 20
0.0
  0
HATCH
  5
533
330
1F
100
AcDbEntity
  8
LAYOUT
 62
   179
100
AcDbHatch
 10
0.0
 20
0.0
 30
0.0
210
0.0
220
0.0
230
1.0
  2
SOLID
 70
     1
 71
     0
 91
        1
 92
        0
 93
        1
 72
     2
 10
37.32288040028947
 20
54.26887112125659
 40
0.313188543993282
 50
0.0
 51
360.0
 73
     1
 97
        0
 75
     0
 76
     1
 98
        1
 10
0.0
 20
0.0
  0
INSERT
  5
555
330
1F
100
AcDbEntity
  8
DIMENSION
100
AcDbBlockReference
  2
SW_CENTERMARKSYMBOL_0
 10
35.9118459846
 20
54.7326106175
 30
0.0
  0
ENDSEC
  0
SECTION
  2
OBJECTS
  0
DICTIONARY
  5
C
330
0
100
AcDbDictionary
281
     1
  3
ACAD_GROUP
350
D
  3
ACAD_LAYOUT
350
1A
  3
ACAD_MLINESTYLE
350
17
  3
ACAD_PLOTSETTINGS
350
19
  3
ACAD_PLOTSTYLENAME
350
E
  3
ACAD_SCALELIST
350
47
  0
DICTIONARY
  5
D
102
{ACAD_REACTORS
330
C
102
}
330
C
100
AcDbDictionary
281
     1
  0
DICTIONARY
  5
1A
102
{ACAD_REACTORS
330
C
102
}
330
C
100
AcDbDictionary
281
     1
  3
Layout1
350
1E
  3
Layout2
350
26
  3
Model
350
22
  0
DICTIONARY
  5
17
102
{ACAD_REACTORS
330
C
102
}
330
C
100
AcDbDictionary
281
     1
  3
Standard
350
18
  0
DICTIONARY
  5
19
102
{ACAD_REACTORS
330
C
102
}
330
C
100
AcDbDictionary
281
     1
  0
ACDBDICTIONARYWDFLT
  5
E
102
{ACAD_REACTORS
330
C
102
}
330
C
100
AcDbDictionary
281
     1
  3
Normal
350
F
100
AcDbDictionaryWithDefault
340
F
  0
DICTIONARY
  5
47
102
{ACAD_REACTORS
330
C
102
}
330
C
100
AcDbDictionary
281
     1
  3
A0
350
48
  3
A1
350
49
  3
A2
350
4A
  3
A3
350
4B
  3
A4
350
4C
  3
A5
350
4D
  3
A6
350
4E
  3
A7
350
4F
  3
A8
350
50
  3
A9
350
51
  3
B0
350
52
  3
B1
350
53
  3
B2
350
54
  3
B3
350
55
  3
B4
350
56
  3
B5
350
57
  3
B6
350
58
  3
B7
350
59
  3
B8
350
5A
  3
B9
350
5B
  3
C0
350
5C
  3
C1
350
5D
  3
C2
350
5E
  3
C3
350
5F
  3
C4
350
60
  3
C5
350
61
  3
C6
350
62
  3
C7
350
63
  3
C8
350
64
  3
C9
350
65
  3
D0
350
66
  3
D1
350
67
  3
D2
350
68
  0
LAYOUT
  5
1E
102
{ACAD_REACTORS
330
1A
102
}
330
1A
100
AcDbPlotSettings
  1

  2
none_device
  4

  6

 40
0.0
 41
0.0
 42
0.0
 43
0.0
 44
0.0
 45
0.0
 46
0.0
 47
0.0
 48
0.0
 49
0.0
140
0.0
141
0.0
142
1.0
143
1.0
 70
   688
 72
     1
 73
     0
 74
     5
  7

 75
    16
147
1.0
148
0.0
149
0.0
100
AcDbLayout
  1
Layout1
 70
     1
 71
     1
 10
0.0
 20
0.0
 11
420.0
 21
297.0
 12
0.0
 22
0.0
 32
0.0
 14
1.0000000000E+20
 24
1.0000000000E+20
 34
1.0000000000E+20
 15
-1.0000000000E+20
 25
-1.0000000000E+20
 35
-1.0000000000E+20
146
0.0
 13
0.0
 23
0.0
 33
0.0
 16
1.0
 26
0.0
 36
0.0
 17
0.0
 27
1.0
 37
0.0
 76
     0
330
1B
  0
LAYOUT
  5
26
102
{ACAD_REACTORS
330
1A
102
}
330
1A
100
AcDbPlotSettings
  1

  2
none_device
  4

  6

 40
0.0
 41
0.0
 42
0.0
 43
0.0
 44
0.0
 45
0.0
 46
0.0
 47
0.0
 48
0.0
 49
0.0
140
0.0
141
0.0
142
1.0
143
1.0
 70
   688
 72
     1
 73
     0
 74
     5
  7

 75
    16
147
1.0
148
0.0
149
0.0
100
AcDbLayout
  1
Layout2
 70
     1
 71
     2
 10
0.0
 20
0.0
 11
0.0
 21
0.0
 12
0.0
 22
0.0
 32
0.0
 14
0.0
 24
0.0
 34
0.0
 15
0.0
 25
0.0
 35
0.0
146
0.0
 13
0.0
 23
0.0
 33
0.0
 16
1.0
 26
0.0
 36
0.0
 17
0.0
 27
1.0
 37
0.0
 76
     0
330
23
  0
LAYOUT
  5
22
102
{ACAD_REACTORS
330
1A
102
}
330
1A
100
AcDbPlotSettings
  1

  2
none_device
  4
Letter_(8.50_x_11.00_Inches)
  6

 40
6.35
 41
6.35
 42
6.35000508
 43
6.35000508
 44
215.9
 45
279.4
 46
0.0
 47
0.0
 48
0.0
 49
0.0
140
0.0
141
0.0
142
1.0
143
1.0
 70
  1712
 72
     1
 73
     0
 74
     0
  7

 75
     0
147
1.0
148
0.0
149
0.0
100
AcDbLayout
  1
Model
 70
     1
 71
     0
 10
0.0
 20
0.0
 11
99.7857142857
 21
77.1071428571
 12
0.0
 22
0.0
 32
0.0
 14
0.0
 24
0.0
 34
0.0
 15
99.7857142857
 25
77.1071428571
 35
0.0
146
0.0
 13
0.0
 23
0.0
 33
0.0
 16
1.0
 26
0.0
 36
0.0
 17
0.0
 27
1.0
 37
0.0
 76
     0
330
1F
331
29
  0
MLINESTYLE
  5
18
102
{ACAD_REACTORS
330
17
102
}
330
17
100
AcDbMlineStyle
  2
Standard
 70
     0
  3

 62
   256
 51
90.0
 52
90.0
 71
     2
 49
0.5
 62
   256
  6
BYLAYER
 49
-0.5
 62
   256
  6
BYLAYER
  0
ACDBPLACEHOLDER
  5
F
102
{ACAD_REACTORS
330
E
102
}
330
E
  0
SCALE
  5
48
102
{ACAD_REACTORS
330
47
102
}
330
47
100
AcDbScale
 70
     0
300
1:1
140
1.0
141
1.0
290
     1
  0
SCALE
  5
49
102
{ACAD_REACTORS
330
47
102
}
330
47
100
AcDbScale
 70
     0
300
1:2
140
1.0
141
2.0
290
     0
  0
SCALE
  5
4A
102
{ACAD_REACTORS
330
47
102
}
330
47
100
AcDbScale
 70
     0
300
1:4
140
1.0
141
4.0
290
     0
  0
SCALE
  5
4B
102
{ACAD_REACTORS
330
47
102
}
330
47
100
AcDbScale
 70
     0
300
1:5
140
1.0
141
5.0
290
     0
  0
SCALE
  5
4C
102
{ACAD_REACTORS
330
47
102
}
330
47
100
AcDbScale
 70
     0
300
1:8
140
1.0
141
8.0
290
     0
  0
SCALE
  5
4D
102
{ACAD_REACTORS
330
47
102
}
330
47
100
AcDbScale
 70
     0
300
1:10
140
1.0
141
10.0
290
     0
  0
SCALE
  5
4E
102
{ACAD_REACTORS
330
47
102
}
330
47
100
AcDbScale
 70
     0
300
1:16
140
1.0
141
16.0
290
     0
  0
SCALE
  5
4F
102
{ACAD_REACTORS
330
47
102
}
330
47
100
AcDbScale
 70
     0
300
1:20
140
1.0
141
20.0
290
     0
  0
SCALE
  5
50
102
{ACAD_REACTORS
330
47
102
}
330
47
100
AcDbScale
 70
     0
300
1:30
140
1.0
141
30.0
290
     0
  0
SCALE
  5
51
102
{ACAD_REACTORS
330
47
102
}
330
47
100
AcDbScale
 70
     0
300
1:40
140
1.0
141
40.0
290
     0
  0
SCALE
  5
52
102
{ACAD_REACTORS
330
47
102
}
330
47
100
AcDbScale
 70
     0
300
1:50
140
1.0
141
50.0
290
     0
  0
SCALE
  5
53
102
{ACAD_REACTORS
330
47
102
}
330
47
100
AcDbScale
 70
     0
300
1:100
140
1.0
141
100.0
290
     0
  0
SCALE
  5
54
102
{ACAD_REACTORS
330
47
102
}
330
47
100
AcDbScale
 70
     0
300
2:1
140
2.0
141
1.0
290
     0
  0
SCALE
  5
55
102
{ACAD_REACTORS
330
47
102
}
330
47
100
AcDbScale
 70
     0
300
4:1
140
4.0
141
1.0
290
     0
  0
SCALE
  5
56
102
{ACAD_REACTORS
330
47
102
}
330
47
100
AcDbScale
 70
     0
300
8:1
140
8.0
141
1.0
290
     0
  0
SCALE
  5
57
102
{ACAD_REACTORS
330
47
102
}
330
47
100
AcDbScale
 70
     0
300
10:1
140
10.0
141
1.0
290
     0
  0
SCALE
  5
58
102
{ACAD_REACTORS
330
47
102
}
330
47
100
AcDbScale
 70
     0
300
100:1
140
100.0
141
1.0
290
     0
  0
SCALE
  5
59
102
{ACAD_REACTORS
330
47
102
}
330
47
100
AcDbScale
 70
     0
300
1/128" = 1'-0"
140
0.0078125
141
12.0
290
     0
  0
SCALE
  5
5A
102
{ACAD_REACTORS
330
47
102
}
330
47
100
AcDbScale
 70
     0
300
1/64" = 1'-0"
140
0.015625
141
12.0
290
     0
  0
SCALE
  5
5B
102
{ACAD_REACTORS
330
47
102
}
330
47
100
AcDbScale
 70
     0
300
1/32" = 1'-0"
140
0.03125
141
12.0
290
     0
  0
SCALE
  5
5C
102
{ACAD_REACTORS
330
47
102
}
330
47
100
AcDbScale
 70
     0
300
1/16" = 1'-0"
140
0.0625
141
12.0
290
     0
  0
SCALE
  5
5D
102
{ACAD_REACTORS
330
47
102
}
330
47
100
AcDbScale
 70
     0
300
3/32" = 1'-0"
140
0.09375
141
12.0
290
     0
  0
SCALE
  5
5E
102
{ACAD_REACTORS
330
47
102
}
330
47
100
AcDbScale
 70
     0
300
1/8" = 1'-0"
140
0.125
141
12.0
290
     0
  0
SCALE
  5
5F
102
{ACAD_REACTORS
330
47
102
}
330
47
100
AcDbScale
 70
     0
300
3/16" = 1'-0"
140
0.1875
141
12.0
290
     0
  0
SCALE
  5
60
102
{ACAD_REACTORS
330
47
102
}
330
47
100
AcDbScale
 70
     0
300
1/4" = 1'-0"
140
0.25
141
12.0
290
     0
  0
SCALE
  5
61
102
{ACAD_REACTORS
330
47
102
}
330
47
100
AcDbScale
 70
     0
300
3/8" = 1'-0"
140
0.375
141
12.0
290
     0
  0
SCALE
  5
62
102
{ACAD_REACTORS
330
47
102
}
330
47
100
AcDbScale
 70
     0
300
1/2" = 1'-0"
140
0.5
141
12.0
290
     0
  0
SCALE
  5
63
102
{ACAD_REACTORS
330
47
102
}
330
47
100
AcDbScale
 70
     0
300
3/4" = 1'-0"
140
0.75
141
12.0
290
     0
  0
SCALE
  5
64
102
{ACAD_REACTORS
330
47
102
}
330
47
100
AcDbScale
 70
     0
300
1" = 1'-0"
140
1.0
141
12.0
290
     0
  0
SCALE
  5
65
102
{ACAD_REACTORS
330
47
102
}
330
47
100
AcDbScale
 70
     0
300
1-1/2" = 1'-0"
140
1.5
141
12.0
290
     0
  0
SCALE
  5
66
102
{ACAD_REACTORS
330
47
102
}
330
47
100
AcDbScale
 70
     0
300
3" = 1'-0"
140
3.0
141
12.0
290
     0
  0
SCALE
  5
67
102
{ACAD_REACTORS
330
47
102
}
330
47
100
AcDbScale
 70
     0
300
6" = 1'-0"
140
6.0
141
12.0
290
     0
  0
SCALE
  5
68
102
{ACAD_REACTORS
330
47
102
}
330
47
100
AcDbScale
 70
     0
300
1'-0" = 1'-0"
140
12.0
141
12.0
290
     0
  0
ENDSEC
  0
EOF
