  0
SECTION
  2
HEADER
  9
$ACADVER
  1
AC1015
  9
$ACADMAINTVER
 70
               6
  9
$DWGCODEPAGE
  3
ANSI_1252
  9
$INSBASE
 10
0.0
 20
0.0
 30
0.0
  9
$EXTMIN
 10
-6.1124999999999972
 20
-7.112497001321664
 30
-1.3546666666666665
  9
$EXTMAX
 10
7.112497001321664
 20
7.112497001321664
 30
1.3546666666666665
  9
$LIMMIN
 10
0.0
 20
0.0
  9
$LIMMAX
 10
0.0
 20
0.0
  9
$ORTHOMODE
 70
               0
  9
$REGENMODE
 70
               1
  9
$FILLMODE
 70
               1
  9
$QTEXTMODE
 70
               0
  9
$MIRRTEXT
 70
               1
  9
$LTSCALE
 40
5.0800000000000001
  9
$ATTMODE
 70
               1
  9
$TEXTSIZE
 40
0.2
  9
$TRACEWID
 40
1.0
  9
$TEXTSTYLE
  7
Standard
  9
$CLAYER
  8
None
  9
$CELTYPE
  6
Continuous
  9
$CECOLOR
 62
             256
  9
$CELTSCALE
 40
1.0
  9
$DISPSILH
 70
               0
  9
$DIMSCALE
 40
1.0
  9
$DIMASZ
 40
0.18
  9
$DIMEXO
 40
0.0625
  9
$DIMDLI
 40
0.38
  9
$DIMRND
 40
0.0
  9
$DIMDLE
 40
0.0
  9
$DIMEXE
 40
0.18
  9
$DIMTP
 40
0.0
  9
$DIMTM
 40
0.0
  9
$DIMTXT
 40
0.18
  9
$DIMCEN
 40
0.09
  9
$DIMTSZ
 40
0.0
  9
$DIMTOL
 70
               0
  9
$DIMLIM
 70
               0
  9
$DIMTIH
 70
               1
  9
$DIMTOH
 70
               1
  9
$DIMSE1
 70
               0
  9
$DIMSE2
 70
               0
  9
$DIMTAD
 70
               0
  9
$DIMZIN
 70
               0
  9
$DIMBLK
  1

  9
$DIMASO
 70
               1
  9
$DIMSHO
 70
               1
  9
$DIMPOST
  1

  9
$DIMAPOST
  1

  9
$DIMALT
 70
               0
  9
$DIMALTD
 70
               2
  9
$DIMALTF
 40
25.399999999999999
  9
$DIMLFAC
 40
1.0
  9
$DIMTOFL
 70
               0
  9
$DIMTVP
 40
0.0
  9
$DIMTIX
 70
               0
  9
$DIMSOXD
 70
               0
  9
$DIMSAH
 70
               0
  9
$DIMBLK1
  1

  9
$DIMBLK2
  1

  9
$DIMSTYLE
  2
Standard
  9
$DIMCLRD
 70
               0
  9
$DIMCLRE
 70
               0
  9
$DIMCLRT
 70
               0
  9
$DIMTFAC
 40
1.0
  9
$DIMGAP
 40
0.09
  9
$DIMJUST
 70
               0
  9
$DIMSD1
 70
               0
  9
$DIMSD2
 70
               0
  9
$DIMTOLJ
 70
               1
  9
$DIMTZIN
 70
               0
  9
$DIMALTZ
 70
               0
  9
$DIMALTTZ
 70
               0
  9
$DIMUPT
 70
               0
  9
$DIMDEC
 70
               4
  9
$DIMTDEC
 70
               4
  9
$DIMALTU
 70
               2
  9
$DIMALTTD
 70
               2
  9
$DIMTXSTY
  7
Standard
  9
$DIMAUNIT
 70
               0
  9
$DIMADEC
 70
               0
  9
$DIMALTRND
 40
0.0
  9
$DIMAZIN
 70
               0
  9
$DIMDSEP
 70
               0
  9
$DIMATFIT
 70
               3
  9
$DIMFRAC
 70
               0
  9
$DIMLDRBLK
  1

  9
$DIMLUNIT
 70
               2
  9
$DIMLWD
 70
               0
  9
$DIMLWE
 70
               0
  9
$DIMTMOVE
 70
               0
  9
$LUNITS
 70
               2
  9
$LUPREC
 70
               4
  9
$SKETCHINC
 40
0.1
  9
$FILLETRAD
 40
0.0
  9
$AUNITS
 70
               0
  9
$AUPREC
 70
               0
  9
$MENU
  1
acad
  9
$ELEVATION
 40
0.0
  9
$PELEVATION
 40
0.0
  9
$THICKNESS
 40
0.0
  9
$LIMCHECK
 70
               0
  9
$CHAMFERA
 40
0.0
  9
$CHAMFERB
 40
0.0
  9
$CHAMFERC
 40
0.0
  9
$CHAMFERD
 40
0.0
  9
$SKPOLY
 70
               0
  9
$TDCREATE
 40
2456380.429375000
  9
$TDUCREATE
 40
0.000000000
  9
$TDUPDATE
 40
2456380.429375000
  9
$TDUUPDATE
 40
0.000000000
  9
$TDINDWG
 40
0.0000000000
  9
$TDUSRTIMER
 40
0.0000000000
  9
$USRTIMER
 70
               1
  9
$ANGBASE
 50
0.0
  9
$ANGDIR
 70
               0
  9
$PDMODE
 70
               1
  9
$PDSIZE
 40
-2.0
  9
$PLINEWID
 40
0.0
  9
$SPLFRAME
 70
               0
  9
$SPLINETYPE
 70
               6
  9
$SPLINESEGS
 70
               8
  9
$HANDSEED
  5
FA
  9
$SURFTAB1
 70
               6
  9
$SURFTAB2
 70
               6
  9
$SURFTYPE
 70
               6
  9
$SURFU
 70
               6
  9
$SURFV
 70
               6
  9
$UCSBASE
  2

  9
$UCSNAME
  2

  9
$UCSORG
 10
0.0
 20
0.0
 30
0.0
  9
$UCSXDIR
 10
1.0
 20
0.0
 30
0.0
  9
$UCSYDIR
 10
0.0
 20
1.0
 30
0.0
  9
$UCSORTHOREF
  2

  9
$UCSORTHOVIEW
 70
               0
  9
$UCSORGTOP
 10
0.0
 20
0.0
 30
0.0
  9
$UCSORGBOTTOM
 10
0.0
 20
0.0
 30
0.0
  9
$UCSORGLEFT
 10
0.0
 20
0.0
 30
0.0
  9
$UCSORGRIGHT
 10
0.0
 20
0.0
 30
0.0
  9
$UCSORGFRONT
 10
0.0
 20
0.0
 30
0.0
  9
$UCSORGBACK
 10
0.0
 20
0.0
 30
0.0
  9
$PUCSBASE
  2

  9
$PUCSNAME
  2

  9
$PUCSORG
 10
0.0
 20
0.0
 30
0.0
  9
$PUCSXDIR
 10
1.0
 20
0.0
 30
0.0
  9
$PUCSYDIR
 10
0.0
 20
1.0
 30
0.0
  9
$PUCSORTHOREF
  2

  9
$PUCSORTHOVIEW
 70
               0
  9
$PUCSORGTOP
 10
0.0
 20
0.0
 30
0.0
  9
$PUCSORGBOTTOM
 10
0.0
 20
0.0
 30
0.0
  9
$PUCSORGLEFT
 10
0.0
 20
0.0
 30
0.0
  9
$PUCSORGRIGHT
 10
0.0
 20
0.0
 30
0.0
  9
$PUCSORGFRONT
 10
0.0
 20
0.0
 30
0.0
  9
$PUCSORGBACK
 10
0.0
 20
0.0
 30
0.0
  9
$USERI1
 70
               0
  9
$USERI2
 70
               0
  9
$USERI3
 70
               0
  9
$USERI4
 70
               0
  9
$USERI5
 70
               0
  9
$USERR1
 40
0.0
  9
$USERR2
 40
0.0
  9
$USERR3
 40
0.0
  9
$USERR4
 40
0.0
  9
$USERR5
 40
0.0
  9
$WORLDVIEW
 70
               1
  9
$SHADEDGE
 70
               3
  9
$SHADEDIF
 70
              70
  9
$TILEMODE
 70
               1
  9
$MAXACTVP
 70
              64
  9
$PINSBASE
 10
0.0
 20
0.0
 30
0.0
  9
$PLIMCHECK
 70
               0
  9
$PEXTMIN
 10
1.0000000000000000E+20
 20
1.0000000000000000E+20
 30
1.0000000000000000E+20
  9
$PEXTMAX
 10
-1.0000000000000000E+20
 20
-1.0000000000000000E+20
 30
-1.0000000000000000E+20
  9
$PLIMMIN
 10
0.0
 20
0.0
  9
$PLIMMAX
 10
12.0
 20
9.0
  9
$UNITMODE
 70
               0
  9
$VISRETAIN
 70
               0
  9
$PLINEGEN
 70
               1
  9
$PSLTSCALE
 70
               0
  9
$TREEDEPTH
 70
            3020
  9
$CMLSTYLE
  2
Standard
  9
$CMLJUST
 70
               0
  9
$CMLSCALE
 40
1.0
  9
$PROXYGRAPHICS
 70
               0
  9
$MEASUREMENT
 70
               1
  9
$CELWEIGHT
370
               0
  9
$ENDCAPS
280
               0
  9
$JOINSTYLE
280
               0
  9
$LWDISPLAY
290
               1
  9
$INSUNITS
 70
               4
  9
$HYPERLINKBASE
  1

  9
$STYLESHEET
  1

  9
$XEDIT
290
               1
  9
$CEPSNTYPE
380
               0
  9
$PSTYLEMODE
290
               1
  9
$FINGERPRINTGUID
  2

  9
$VERSIONGUID
  2

  9
$EXTNAMES
290
               1
  9
$PSVPSCALE
 40
0.0
  0
ENDSEC
  0
SECTION
  2
CLASSES
  0
CLASS
  1
LWPOLYLINE
  2
AcDbPolyline
  3
AutoCAD 2000
 90
        0
280
               0
281
               1
  0
CLASS
  1
IMAGE
  2
AcDbRasterImage
  3
ISM
 90
      127
280
               0
281
               1
  0
CLASS
  1
OLE2FRAME
  2
AcDbOle2Frame
  3
AutoCAD 2000
 90
        0
280
               0
281
               1
  0
CLASS
  1
HATCH
  2
AcDbHatch
  3
AutoCAD 2000
 90
        0
280
               0
281
               1
  0
CLASS
  1
DICTIONARYVAR
  2
AcDbDictionaryVar
  3
AutoCAD 2000
 90
        0
280
               0
281
               0
  0
CLASS
  1
RASTERVARIABLES
  2
AcDbRasterVariables
  3
ISM
 90
        0
280
               0
281
               0
  0
CLASS
  1
IMAGEDEF
  2
AcDbRasterImageDef
  3
ISM
 90
        0
280
               0
281
               0
  0
CLASS
  1
IMAGEDEF_REACTOR
  2
AcDbRasterImageDefReactor
  3
ISM
 90
        1
280
               0
281
               0
  0
CLASS
  1
IDBUFFER
  2
AcDbIdBuffer
  3
AutoCAD 2000
 90
        0
280
               0
281
               0
  0
CLASS
  1
SPATIAL_FILTER
  2
AcDbSpatialFilter
  3
AutoCAD 2000
 90
        0
280
               0
281
               0
  0
CLASS
  1
XRECORD
  2
AcDbXrecord
  3
AutoCAD 2000
 90
        0
280
               0
281
               0
  0
CLASS
  1
SORTENTSTABLE
  2
AcDbSortentsTable
  3
AutoCAD 2000
 90
        0
280
               0
281
               0
  0
CLASS
  1
LAYER_INDEX
  2
AcDbLayerIndex
  3
AutoCAD 2000
 90
        0
280
               0
281
               0
  0
CLASS
  1
SPATIAL_INDEX
  2
AcDbSpatialIndex
  3
AutoCAD 2000
 90
        0
280
               0
281
               0
  0
CLASS
  1
OBJECT_PTR
  2
CAseDLPNTableRecord
  3
"ASE-LPNTableRecord"
 90
        1
280
               0
281
               0
  0
CLASS
  1
LAYOUT
  2
AcDbLayout
  3
AutoCAD 2000
 90
        0
280
               0
281
               0
  0
CLASS
  1
PLOTSETTINGS
  2
AcDbPlotSettings
  3
AutoCAD 2000
 90
        0
280
               0
281
               0
  0
CLASS
  1
ACDBDICTIONARYWDFLT
  2
AcDbDictionaryWithDefault
  3
AutoCAD 2000
 90
        0
280
               0
281
               0
  0
CLASS
  1
ACDBPLACEHOLDER
  2
AcDbPlaceHolder
  3
AutoCAD 2000
 90
        0
280
               0
281
               0
  0
ENDSEC
  0
SECTION
  2
TABLES
  0
TABLE
  2
VPORT
  5
7
100
AcDbSymbolTable
 70
               1
  0
VPORT
  5
15
100
AcDbSymbolTableRecord
100
AcDbViewportTableRecord
  2
*ACTIVE
 70
               0
 10
0.0
 20
0.0
 11
1.0
 21
1.0
 12
0.4999985006608334
 22
0.0
 13
0.0
 23
0.0
 14
1.0
 24
1.0
 15
0.0
 25
0.0
 16
0.0
 26
0.0
 36
1.0
 17
0.0
 27
0.0
 37
0.0
 40
14.224994002643328
 41
0.688564
 42
50.0
 43
0.0
 44
0.0
 50
0.0
 51
0.0
 71
               0
 72
            2000
 73
               1
 74
               1
 75
               0
 76
               0
 77
               0
 78
               0
281
               0
 65
               0
110
0.0
120
0.0
130
0.0
111
1.0
121
0.0
131
0.0
112
0.0
122
1.0
132
0.0
345
0
346
0
 79
               0
146
0.0
  0
ENDTAB
  0
TABLE
  2
LTYPE
  5
4
100
AcDbSymbolTable
 70
              14
  0
LTYPE
  5
11
100
AcDbSymbolTableRecord
100
AcDbLinetypeTableRecord
  2
ByBlock
 70
              64
  3

 72
              65
 73
               0
 40
0.0
  0
LTYPE
  5
12
100
AcDbSymbolTableRecord
100
AcDbLinetypeTableRecord
  2
ByLayer
 70
              64
  3

 72
              65
 73
               0
 40
0.0
  0
LTYPE
  5
13
100
AcDbSymbolTableRecord
100
AcDbLinetypeTableRecord
  2
Continuous
 70
              64
  3
Solid line
 72
              65
 73
               0
 40
0.0
  0
LTYPE
  5
25
100
AcDbSymbolTableRecord
100
AcDbLinetypeTableRecord
  2
STYLE_01
 70
               0
  3

 72
              65
 73
               2
 40
0.41664
 49
0.20828
 74
               0
 49
-0.20836
 74
               0
  0
LTYPE
  5
26
100
AcDbSymbolTableRecord
100
AcDbLinetypeTableRecord
  2
STYLE_02
 70
               0
  3

 72
              65
 73
               2
 40
0.6944250000000001
 49
0.48607
 74
               0
 49
-0.2083550000000001
 74
               0
  0
LTYPE
  5
27
100
AcDbSymbolTableRecord
100
AcDbLinetypeTableRecord
  2
STYLE_03
 70
               0
  3

 72
              65
 73
               2
 40
1.25
 49
1.0416400000000001
 74
               0
 49
-0.2083599999999999
 74
               0
  0
LTYPE
  5
28
100
AcDbSymbolTableRecord
100
AcDbLinetypeTableRecord
  2
STYLE_04
 70
               0
  3

 72
              65
 73
               2
 40
1.5277099999999999
 49
1.3194249999999998
 74
               0
 49
-0.208285
 74
               0
  0
LTYPE
  5
29
100
AcDbSymbolTableRecord
100
AcDbLinetypeTableRecord
  2
STYLE_05
 70
               0
  3

 72
              65
 73
               2
 40
0.20828
 49
0.069425
 74
               0
 49
-0.138855
 74
               0
  0
LTYPE
  5
2A
100
AcDbSymbolTableRecord
100
AcDbLinetypeTableRecord
  2
STYLE_06
 70
               0
  3

 72
              65
 73
               4
 40
1.0416400000000001
 49
0.625
 74
               0
 49
-0.20828
 74
               0
 49
0.06943
 74
               0
 49
-0.13893
 74
               0
  0
LTYPE
  5
2B
100
AcDbSymbolTableRecord
100
AcDbLinetypeTableRecord
  2
STYLE_07
 70
               0
  3

 72
              65
 73
               6
 40
1.875
 49
0.625
 74
               0
 49
-0.20828
 74
               0
 49
0.6250000000000001
 74
               0
 49
-0.2083599999999999
 74
               0
 49
0.06943
 74
               0
 49
-0.1389299999999999
 74
               0
  0
LTYPE
  5
2C
100
AcDbSymbolTableRecord
100
AcDbLinetypeTableRecord
  2
STYLE_08
 70
               0
  3

 72
              65
 73
               6
 40
1.25
 49
0.625
 74
               0
 49
-0.20828
 74
               0
 49
0.06943
 74
               0
 49
-0.13893
 74
               0
 49
0.0694299999999999
 74
               0
 49
-0.13893
 74
               0
  0
LTYPE
  5
2D
100
AcDbSymbolTableRecord
100
AcDbLinetypeTableRecord
  2
STYLE_09
 70
               0
  3

 72
              65
 73
               4
 40
5.0
 49
3.75
 74
               0
 49
-0.2777849999999998
 74
               0
 49
0.6944300000000003
 74
               0
 49
-0.2777849999999998
 74
               0
  0
LTYPE
  5
2E
100
AcDbSymbolTableRecord
100
AcDbLinetypeTableRecord
  2
STYLE_10
 70
               0
  3

 72
              65
 73
               6
 40
5.9375
 49
3.75
 74
               0
 49
-0.2777849999999998
 74
               0
 49
0.6944300000000003
 74
               0
 49
-0.2777849999999998
 74
               0
 49
0.625
 74
               0
 49
-0.3125
 74
               0
  0
LTYPE
  5
2F
100
AcDbSymbolTableRecord
100
AcDbLinetypeTableRecord
  2
STYLE_11
 70
               0
  3

 72
              65
 73
               2
 40
0.4166412353515625
 49
0.2777862548828125
 74
               0
 49
-0.13885498046875
 74
               0
  0
ENDTAB
  0
TABLE
  2
LAYER
  5
2
100
AcDbSymbolTable
 70
               3
  0
LAYER
  5
14
100
AcDbSymbolTableRecord
100
AcDbLayerTableRecord
  2
0
 70
               0
 62
               7
  6
Continuous
290
               1
370
              -3
390
1D
  0
LAYER
  5
30
100
AcDbSymbolTableRecord
100
AcDbLayerTableRecord
  2
None
 70
               0
 62
               7
  6
Continuous
290
               1
370
               5
390
1D
  0
LAYER
  5
31
100
AcDbSymbolTableRecord
100
AcDbLayerTableRecord
  2
Dimension
 70
               0
 62
               7
  6
Continuous
290
               1
370
               5
390
1D
  0
ENDTAB
  0
TABLE
  2
STYLE
  5
3
100
AcDbSymbolTable
 70
               1
  0
STYLE
  5
17
100
AcDbSymbolTableRecord
100
AcDbTextStyleTableRecord
  2
Standard
 70
               0
 40
0.0
 41
1.0
 50
0.0
 71
               0
 42
0.0
  3
txt
  4

  0
ENDTAB
  0
TABLE
  2
VIEW
  5
5
100
AcDbSymbolTable
 70
               0
  0
ENDTAB
  0
TABLE
  2
UCS
  5
6
100
AcDbSymbolTable
 70
               0
  0
ENDTAB
  0
TABLE
  2
APPID
  5
8
100
AcDbSymbolTable
 70
               1
  0
APPID
  5
16
100
AcDbSymbolTableRecord
100
AcDbRegAppTableRecord
  2
ACAD
 70
               0
  0
ENDTAB
  0
TABLE
  2
DIMSTYLE
  5
9
100
AcDbSymbolTable
 70
               1
100
AcDbDimStyleTable
 71
               0
  0
DIMSTYLE
105
18
100
AcDbSymbolTableRecord
100
AcDbDimStyleTableRecord
  2
Standard
 70
               0
  3

  4

 40
1.0
 41
0.18
 42
0.0625
 43
0.38
 44
0.18
 45
0.0
 46
0.0
 47
0.0
 48
0.0
 71
               0
 72
               0
 73
               1
 74
               1
 75
               0
 76
               0
 77
               0
 78
               0
 79
               0
140
0.18
141
0.09
142
0.0
143
25.399999999999999
144
1.0
145
0.0
146
1.0
147
0.09
148
0.0
170
               0
171
               2
172
               0
173
               0
174
               0
175
               0
176
               0
177
               0
178
               0
179
               0
271
               4
272
               4
273
               2
274
               2
275
               0
276
               0
277
               2
278
              46
279
               0
280
               0
281
               0
282
               0
283
               1
284
               0
285
               0
286
               0
288
               0
289
               3
340
17
341
0
342
0
343
0
344
0
371
              -2
372
              -2
  0
ENDTAB
  0
TABLE
  2
BLOCK_RECORD
  5
1
100
AcDbSymbolTable
 70
               2
  0
BLOCK_RECORD
  5
A
100
AcDbSymbolTableRecord
100
AcDbBlockTableRecord
  2
*MODEL_SPACE
340
20
  0
BLOCK_RECORD
  5
B
100
AcDbSymbolTableRecord
100
AcDbBlockTableRecord
  2
*PAPER_SPACE
340
21
  0
BLOCK_RECORD
  5
23
100
AcDbSymbolTableRecord
100
AcDbBlockTableRecord
  2
Group
340
0
102
{BLKREFS
331
DF
102
}
  0
BLOCK_RECORD
  5
24
100
AcDbSymbolTableRecord
100
AcDbBlockTableRecord
  2
Group-1
340
0
102
{BLKREFS
331
F4
102
}
  0
ENDTAB
  0
ENDSEC
  0
SECTION
  2
BLOCKS
  0
BLOCK
  5
D
100
AcDbEntity
  8
0
390
0
100
AcDbBlockBegin
  2
*MODEL_SPACE
 70
               0
 10
0.0
 20
0.0
 30
0.0
  3
*MODEL_SPACE
  1

  0
ENDBLK
  5
E
100
AcDbEntity
  8
0
390
0
100
AcDbBlockEnd
  0
BLOCK
  5
F
100
AcDbEntity
 67
               1
  8
0
390
0
100
AcDbBlockBegin
  2
*PAPER_SPACE
 70
               0
 10
0.0
 20
0.0
 30
0.0
  3
*PAPER_SPACE
  1

  0
ENDBLK
  5
10
100
AcDbEntity
 67
               1
  8
0
390
0
100
AcDbBlockEnd
  0
BLOCK
  5
32
100
AcDbEntity
  8
Dimension
390
0
100
AcDbBlockBegin
  2
Group
 70
               0
 10
0.0
 20
0.0
 30
0.0
  3
Group
  1

  0
LINE
  5
33
100
AcDbEntity
  8
None
370
               5
390
0
  6
Continuous
 62
               1
100
AcDbLine
 10
-17.670830833120526
 20
8.8625029986783375
 30
0.0
 11
-16.004169166879478
 21
8.8625029986783375
 31
0.0
  0
LINE
  5
34
100
AcDbEntity
  8
None
370
               5
390
0
  6
Continuous
 62
               1
100
AcDbLine
 10
-16.837500000000002
 20
8.0291721655578172
 30
0.0
 11
-16.837500000000002
 21
9.6958338317988577
 31
0.0
  0
ENDBLK
  5
35
100
AcDbEntity
  8
Dimension
390
0
100
AcDbBlockEnd
  0
BLOCK
  5
36
100
AcDbEntity
  8
None
390
0
100
AcDbBlockBegin
  2
Group-1
 70
               0
 10
0.0
 20
0.0
 30
0.0
  3
Group-1
  1

  0
POLYLINE
  5
37
100
AcDbEntity
  8
None
370
               5
390
0
  6
Continuous
 62
               7
100
AcDb2dPolyline
 66
               1
 10
0.0
 20
0.0
 30
0.0
 70
               1
 75
               5
  0
VERTEX
  5
38
100
AcDbEntity
  8
None
370
               5
390
0
  6
Continuous
 62
               7
100
AcDbVertex
100
AcDb2dVertex
 10
-16.9375
 20
9.137502998678336
 30
0.0
  0
VERTEX
  5
39
100
AcDbEntity
  8
None
370
               5
390
0
  6
Continuous
 62
               7
100
AcDbVertex
100
AcDb2dVertex
 10
-16.737500000000004
 20
9.137502998678336
 30
0.0
  0
VERTEX
  5
3A
100
AcDbEntity
  8
None
370
               5
390
0
  6
Continuous
 62
               7
100
AcDbVertex
100
AcDb2dVertex
 10
-16.737500000000004
 20
8.5875029986783389
 30
0.0
  0
VERTEX
  5
3B
100
AcDbEntity
  8
None
370
               5
390
0
  6
Continuous
 62
               7
100
AcDbVertex
100
AcDb2dVertex
 10
-16.9375
 20
8.5875029986783389
 30
0.0
  0
SEQEND
  5
3C
100
AcDbEntity
  8
None
370
               5
390
0
  6
Continuous
 62
               7
  0
POLYLINE
  5
3D
100
AcDbEntity
  8
None
370
               5
390
0
  6
Continuous
 62
               7
100
AcDb2dPolyline
 66
               1
 10
0.0
 20
0.0
 30
0.0
 70
               1
 75
               5
  0
VERTEX
  5
3E
100
AcDbEntity
  8
None
370
               5
390
0
  6
Continuous
 62
               7
100
AcDbVertex
100
AcDb2dVertex
 10
-16.537500000000001
 20
9.137502998678336
 30
0.0
  0
VERTEX
  5
3F
100
AcDbEntity
  8
None
370
               5
390
0
  6
Continuous
 62
               7
100
AcDbVertex
100
AcDb2dVertex
 10
-16.337500000000002
 20
9.137502998678336
 30
0.0
  0
VERTEX
  5
40
100
AcDbEntity
  8
None
370
               5
390
0
  6
Continuous
 62
               7
100
AcDbVertex
100
AcDb2dVertex
 10
-16.337500000000002
 20
8.5875029986783389
 30
0.0
  0
VERTEX
  5
41
100
AcDbEntity
  8
None
370
               5
390
0
  6
Continuous
 62
               7
100
AcDbVertex
100
AcDb2dVertex
 10
-16.537500000000001
 20
8.5875029986783389
 30
0.0
  0
SEQEND
  5
42
100
AcDbEntity
  8
None
370
               5
390
0
  6
Continuous
 62
               7
  0
POLYLINE
  5
43
100
AcDbEntity
  8
None
370
               5
390
0
  6
Continuous
 62
               7
100
AcDb2dPolyline
 66
               1
 10
0.0
 20
0.0
 30
0.0
 70
               1
 75
               5
  0
VERTEX
  5
44
100
AcDbEntity
  8
None
370
               5
390
0
  6
Continuous
 62
               7
100
AcDbVertex
100
AcDb2dVertex
 10
-16.137500000000003
 20
9.137502998678336
 30
0.0
  0
VERTEX
  5
45
100
AcDbEntity
  8
None
370
               5
390
0
  6
Continuous
 62
               7
100
AcDbVertex
100
AcDb2dVertex
 10
-15.937500000000002
 20
9.137502998678336
 30
0.0
  0
VERTEX
  5
46
100
AcDbEntity
  8
None
370
               5
390
0
  6
Continuous
 62
               7
100
AcDbVertex
100
AcDb2dVertex
 10
-15.937500000000002
 20
8.5875029986783389
 30
0.0
  0
VERTEX
  5
47
100
AcDbEntity
  8
None
370
               5
390
0
  6
Continuous
 62
               7
100
AcDbVertex
100
AcDb2dVertex
 10
-16.137500000000003
 20
8.5875029986783389
 30
0.0
  0
SEQEND
  5
48
100
AcDbEntity
  8
None
370
               5
390
0
  6
Continuous
 62
               7
  0
POLYLINE
  5
49
100
AcDbEntity
  8
None
370
               5
390
0
  6
Continuous
 62
               7
100
AcDb2dPolyline
 66
               1
 10
0.0
 20
0.0
 30
0.0
 70
               1
 75
               5
  0
VERTEX
  5
4A
100
AcDbEntity
  8
None
370
               5
390
0
  6
Continuous
 62
               7
100
AcDbVertex
100
AcDb2dVertex
 10
-15.737500000000001
 20
9.137502998678336
 30
0.0
  0
VERTEX
  5
4B
100
AcDbEntity
  8
None
370
               5
390
0
  6
Continuous
 62
               7
100
AcDbVertex
100
AcDb2dVertex
 10
-15.537500000000001
 20
9.137502998678336
 30
0.0
  0
VERTEX
  5
4C
100
AcDbEntity
  8
None
370
               5
390
0
  6
Continuous
 62
               7
100
AcDbVertex
100
AcDb2dVertex
 10
-15.537500000000001
 20
8.5875029986783389
 30
0.0
  0
VERTEX
  5
4D
100
AcDbEntity
  8
None
370
               5
390
0
  6
Continuous
 62
               7
100
AcDbVertex
100
AcDb2dVertex
 10
-15.737500000000001
 20
8.5875029986783389
 30
0.0
  0
SEQEND
  5
4E
100
AcDbEntity
  8
None
370
               5
390
0
  6
Continuous
 62
               7
  0
POLYLINE
  5
4F
100
AcDbEntity
  8
None
370
               5
390
0
  6
Continuous
 62
               7
100
AcDb2dPolyline
 66
               1
 10
0.0
 20
0.0
 30
0.0
 70
               1
 75
               5
  0
VERTEX
  5
50
100
AcDbEntity
  8
None
370
               5
390
0
  6
Continuous
 62
               7
100
AcDbVertex
100
AcDb2dVertex
 10
-15.337500000000002
 20
9.137502998678336
 30
0.0
  0
VERTEX
  5
51
100
AcDbEntity
  8
None
370
               5
390
0
  6
Continuous
 62
               7
100
AcDbVertex
100
AcDb2dVertex
 10
-15.137500000000003
 20
9.137502998678336
 30
0.0
  0
VERTEX
  5
52
100
AcDbEntity
  8
None
370
               5
390
0
  6
Continuous
 62
               7
100
AcDbVertex
100
AcDb2dVertex
 10
-15.137500000000003
 20
8.5875029986783389
 30
0.0
  0
VERTEX
  5
53
100
AcDbEntity
  8
None
370
               5
390
0
  6
Continuous
 62
               7
100
AcDbVertex
100
AcDb2dVertex
 10
-15.337500000000002
 20
8.5875029986783389
 30
0.0
  0
SEQEND
  5
54
100
AcDbEntity
  8
None
370
               5
390
0
  6
Continuous
 62
               7
  0
POLYLINE
  5
55
100
AcDbEntity
  8
None
370
               5
390
0
  6
Continuous
 62
               7
100
AcDb2dPolyline
 66
               1
 10
0.0
 20
0.0
 30
0.0
 70
               1
 75
               5
  0
VERTEX
  5
56
100
AcDbEntity
  8
None
370
               5
390
0
  6
Continuous
 62
               7
100
AcDbVertex
100
AcDb2dVertex
 10
-14.937500000000002
 20
9.137502998678336
 30
0.0
  0
VERTEX
  5
57
100
AcDbEntity
  8
None
370
               5
390
0
  6
Continuous
 62
               7
100
AcDbVertex
100
AcDb2dVertex
 10
-14.737500000000002
 20
9.137502998678336
 30
0.0
  0
VERTEX
  5
58
100
AcDbEntity
  8
None
370
               5
390
0
  6
Continuous
 62
               7
100
AcDbVertex
100
AcDb2dVertex
 10
-14.737500000000002
 20
8.5875029986783389
 30
0.0
  0
VERTEX
  5
59
100
AcDbEntity
  8
None
370
               5
390
0
  6
Continuous
 62
               7
100
AcDbVertex
100
AcDb2dVertex
 10
-14.937500000000002
 20
8.5875029986783389
 30
0.0
  0
SEQEND
  5
5A
100
AcDbEntity
  8
None
370
               5
390
0
  6
Continuous
 62
               7
  0
POLYLINE
  5
5B
100
AcDbEntity
  8
None
370
               5
390
0
  6
Continuous
 62
               7
100
AcDb2dPolyline
 66
               1
 10
0.0
 20
0.0
 30
0.0
 70
               1
 75
               5
  0
VERTEX
  5
5C
100
AcDbEntity
  8
None
370
               5
390
0
  6
Continuous
 62
               7
100
AcDbVertex
100
AcDb2dVertex
 10
-14.537500000000001
 20
9.137502998678336
 30
0.0
  0
VERTEX
  5
5D
100
AcDbEntity
  8
None
370
               5
390
0
  6
Continuous
 62
               7
100
AcDbVertex
100
AcDb2dVertex
 10
-14.337500000000002
 20
9.137502998678336
 30
0.0
  0
VERTEX
  5
5E
100
AcDbEntity
  8
None
370
               5
390
0
  6
Continuous
 62
               7
100
AcDbVertex
100
AcDb2dVertex
 10
-14.337500000000002
 20
8.5875029986783389
 30
0.0
  0
VERTEX
  5
5F
100
AcDbEntity
  8
None
370
               5
390
0
  6
Continuous
 62
               7
100
AcDbVertex
100
AcDb2dVertex
 10
-14.537500000000001
 20
8.5875029986783389
 30
0.0
  0
SEQEND
  5
60
100
AcDbEntity
  8
None
370
               5
390
0
  6
Continuous
 62
               7
  0
POLYLINE
  5
61
100
AcDbEntity
  8
None
370
               5
390
0
  6
Continuous
 62
               7
100
AcDb2dPolyline
 66
               1
 10
0.0
 20
0.0
 30
0.0
 70
               1
 75
               5
  0
VERTEX
  5
62
100
AcDbEntity
  8
None
370
               5
390
0
  6
Continuous
 62
               7
100
AcDbVertex
100
AcDb2dVertex
 10
-16.9375
 20
5.1875029986783332
 30
0.0
  0
VERTEX
  5
63
100
AcDbEntity
  8
None
370
               5
390
0
  6
Continuous
 62
               7
100
AcDbVertex
100
AcDb2dVertex
 10
-16.737500000000004
 20
5.1875029986783332
 30
0.0
  0
VERTEX
  5
64
100
AcDbEntity
  8
None
370
               5
390
0
  6
Continuous
 62
               7
100
AcDbVertex
100
AcDb2dVertex
 10
-16.737500000000004
 20
4.637502998678336
 30
0.0
  0
VERTEX
  5
65
100
AcDbEntity
  8
None
370
               5
390
0
  6
Continuous
 62
               7
100
AcDbVertex
100
AcDb2dVertex
 10
-16.9375
 20
4.637502998678336
 30
0.0
  0
SEQEND
  5
66
100
AcDbEntity
  8
None
370
               5
390
0
  6
Continuous
 62
               7
  0
POLYLINE
  5
67
100
AcDbEntity
  8
None
370
               5
390
0
  6
Continuous
 62
               7
100
AcDb2dPolyline
 66
               1
 10
0.0
 20
0.0
 30
0.0
 70
               1
 75
               5
  0
VERTEX
  5
68
100
AcDbEntity
  8
None
370
               5
390
0
  6
Continuous
 62
               7
100
AcDbVertex
100
AcDb2dVertex
 10
-16.537500000000001
 20
5.1875029986783332
 30
0.0
  0
VERTEX
  5
69
100
AcDbEntity
  8
None
370
               5
390
0
  6
Continuous
 62
               7
100
AcDbVertex
100
AcDb2dVertex
 10
-16.337500000000002
 20
5.1875029986783332
 30
0.0
  0
VERTEX
  5
6A
100
AcDbEntity
  8
None
370
               5
390
0
  6
Continuous
 62
               7
100
AcDbVertex
100
AcDb2dVertex
 10
-16.337500000000002
 20
4.637502998678336
 30
0.0
  0
VERTEX
  5
6B
100
AcDbEntity
  8
None
370
               5
390
0
  6
Continuous
 62
               7
100
AcDbVertex
100
AcDb2dVertex
 10
-16.537500000000001
 20
4.637502998678336
 30
0.0
  0
SEQEND
  5
6C
100
AcDbEntity
  8
None
370
               5
390
0
  6
Continuous
 62
               7
  0
POLYLINE
  5
6D
100
AcDbEntity
  8
None
370
               5
390
0
  6
Continuous
 62
               7
100
AcDb2dPolyline
 66
               1
 10
0.0
 20
0.0
 30
0.0
 70
               1
 75
               5
  0
VERTEX
  5
6E
100
AcDbEntity
  8
None
370
               5
390
0
  6
Continuous
 62
               7
100
AcDbVertex
100
AcDb2dVertex
 10
-16.137500000000003
 20
5.1875029986783332
 30
0.0
  0
VERTEX
  5
6F
100
AcDbEntity
  8
None
370
               5
390
0
  6
Continuous
 62
               7
100
AcDbVertex
100
AcDb2dVertex
 10
-15.937500000000002
 20
5.1875029986783332
 30
0.0
  0
VERTEX
  5
70
100
AcDbEntity
  8
None
370
               5
390
0
  6
Continuous
 62
               7
100
AcDbVertex
100
AcDb2dVertex
 10
-15.937500000000002
 20
4.637502998678336
 30
0.0
  0
VERTEX
  5
71
100
AcDbEntity
  8
None
370
               5
390
0
  6
Continuous
 62
               7
100
AcDbVertex
100
AcDb2dVertex
 10
-16.137500000000003
 20
4.637502998678336
 30
0.0
  0
SEQEND
  5
72
100
AcDbEntity
  8
None
370
               5
390
0
  6
Continuous
 62
               7
  0
POLYLINE
  5
73
100
AcDbEntity
  8
None
370
               5
390
0
  6
Continuous
 62
               7
100
AcDb2dPolyline
 66
               1
 10
0.0
 20
0.0
 30
0.0
 70
               1
 75
               5
  0
VERTEX
  5
74
100
AcDbEntity
  8
None
370
               5
390
0
  6
Continuous
 62
               7
100
AcDbVertex
100
AcDb2dVertex
 10
-15.737500000000001
 20
5.1875029986783332
 30
0.0
  0
VERTEX
  5
75
100
AcDbEntity
  8
None
370
               5
390
0
  6
Continuous
 62
               7
100
AcDbVertex
100
AcDb2dVertex
 10
-15.537500000000001
 20
5.1875029986783332
 30
0.0
  0
VERTEX
  5
76
100
AcDbEntity
  8
None
370
               5
390
0
  6
Continuous
 62
               7
100
AcDbVertex
100
AcDb2dVertex
 10
-15.537500000000001
 20
4.637502998678336
 30
0.0
  0
VERTEX
  5
77
100
AcDbEntity
  8
None
370
               5
390
0
  6
Continuous
 62
               7
100
AcDbVertex
100
AcDb2dVertex
 10
-15.737500000000001
 20
4.637502998678336
 30
0.0
  0
SEQEND
  5
78
100
AcDbEntity
  8
None
370
               5
390
0
  6
Continuous
 62
               7
  0
POLYLINE
  5
79
100
AcDbEntity
  8
None
370
               5
390
0
  6
Continuous
 62
               7
100
AcDb2dPolyline
 66
               1
 10
0.0
 20
0.0
 30
0.0
 70
               1
 75
               5
  0
VERTEX
  5
7A
100
AcDbEntity
  8
None
370
               5
390
0
  6
Continuous
 62
               7
100
AcDbVertex
100
AcDb2dVertex
 10
-15.337500000000002
 20
5.1875029986783332
 30
0.0
  0
VERTEX
  5
7B
100
AcDbEntity
  8
None
370
               5
390
0
  6
Continuous
 62
               7
100
AcDbVertex
100
AcDb2dVertex
 10
-15.137500000000003
 20
5.1875029986783332
 30
0.0
  0
VERTEX
  5
7C
100
AcDbEntity
  8
None
370
               5
390
0
  6
Continuous
 62
               7
100
AcDbVertex
100
AcDb2dVertex
 10
-15.137500000000003
 20
4.637502998678336
 30
0.0
  0
VERTEX
  5
7D
100
AcDbEntity
  8
None
370
               5
390
0
  6
Continuous
 62
               7
100
AcDbVertex
100
AcDb2dVertex
 10
-15.337500000000002
 20
4.637502998678336
 30
0.0
  0
SEQEND
  5
7E
100
AcDbEntity
  8
None
370
               5
390
0
  6
Continuous
 62
               7
  0
POLYLINE
  5
7F
100
AcDbEntity
  8
None
370
               5
390
0
  6
Continuous
 62
               7
100
AcDb2dPolyline
 66
               1
 10
0.0
 20
0.0
 30
0.0
 70
               1
 75
               5
  0
VERTEX
  5
80
100
AcDbEntity
  8
None
370
               5
390
0
  6
Continuous
 62
               7
100
AcDbVertex
100
AcDb2dVertex
 10
-14.937500000000002
 20
5.1875029986783332
 30
0.0
  0
VERTEX
  5
81
100
AcDbEntity
  8
None
370
               5
390
0
  6
Continuous
 62
               7
100
AcDbVertex
100
AcDb2dVertex
 10
-14.737500000000002
 20
5.1875029986783332
 30
0.0
  0
VERTEX
  5
82
100
AcDbEntity
  8
None
370
               5
390
0
  6
Continuous
 62
               7
100
AcDbVertex
100
AcDb2dVertex
 10
-14.737500000000002
 20
4.637502998678336
 30
0.0
  0
VERTEX
  5
83
100
AcDbEntity
  8
None
370
               5
390
0
  6
Continuous
 62
               7
100
AcDbVertex
100
AcDb2dVertex
 10
-14.937500000000002
 20
4.637502998678336
 30
0.0
  0
SEQEND
  5
84
100
AcDbEntity
  8
None
370
               5
390
0
  6
Continuous
 62
               7
  0
POLYLINE
  5
85
100
AcDbEntity
  8
None
370
               5
390
0
  6
Continuous
 62
               7
100
AcDb2dPolyline
 66
               1
 10
0.0
 20
0.0
 30
0.0
 70
               1
 75
               5
  0
VERTEX
  5
86
100
AcDbEntity
  8
None
370
               5
390
0
  6
Continuous
 62
               7
100
AcDbVertex
100
AcDb2dVertex
 10
-14.537500000000001
 20
5.1875029986783332
 30
0.0
  0
VERTEX
  5
87
100
AcDbEntity
  8
None
370
               5
390
0
  6
Continuous
 62
               7
100
AcDbVertex
100
AcDb2dVertex
 10
-14.337500000000002
 20
5.1875029986783332
 30
0.0
  0
VERTEX
  5
88
100
AcDbEntity
  8
None
370
               5
390
0
  6
Continuous
 62
               7
100
AcDbVertex
100
AcDb2dVertex
 10
-14.337500000000002
 20
4.637502998678336
 30
0.0
  0
VERTEX
  5
89
100
AcDbEntity
  8
None
370
               5
390
0
  6
Continuous
 62
               7
100
AcDbVertex
100
AcDb2dVertex
 10
-14.537500000000001
 20
4.637502998678336
 30
0.0
  0
SEQEND
  5
8A
100
AcDbEntity
  8
None
370
               5
390
0
  6
Continuous
 62
               7
  0
POLYLINE
  5
8B
100
AcDbEntity
  8
None
370
               5
390
0
  6
Continuous
 62
               7
100
AcDb2dPolyline
 66
               1
 10
0.0
 20
0.0
 30
0.0
 70
               1
 75
               5
  0
VERTEX
  5
8C
100
AcDbEntity
  8
None
370
               5
390
0
  6
Continuous
 62
               7
100
AcDbVertex
100
AcDb2dVertex
 10
-17.887500000000003
 20
5.7875029986783417
 30
0.0
  0
VERTEX
  5
8D
100
AcDbEntity
  8
None
370
               5
390
0
  6
Continuous
 62
               7
100
AcDbVertex
100
AcDb2dVertex
 10
-17.337500000000006
 20
5.7875029986783417
 30
0.0
  0
VERTEX
  5
8E
100
AcDbEntity
  8
None
370
               5
390
0
  6
Continuous
 62
               7
100
AcDbVertex
100
AcDb2dVertex
 10
-17.337500000000006
 20
5.5875029986783389
 30
0.0
  0
VERTEX
  5
8F
100
AcDbEntity
  8
None
370
               5
390
0
  6
Continuous
 62
               7
100
AcDbVertex
100
AcDb2dVertex
 10
-17.887500000000003
 20
5.5875029986783389
 30
0.0
  0
SEQEND
  5
90
100
AcDbEntity
  8
None
370
               5
390
0
  6
Continuous
 62
               7
  0
POLYLINE
  5
91
100
AcDbEntity
  8
None
370
               5
390
0
  6
Continuous
 62
               7
100
AcDb2dPolyline
 66
               1
 10
0.0
 20
0.0
 30
0.0
 70
               1
 75
               5
  0
VERTEX
  5
92
100
AcDbEntity
  8
None
370
               5
390
0
  6
Continuous
 62
               7
100
AcDbVertex
100
AcDb2dVertex
 10
-17.887500000000003
 20
6.1875029986783403
 30
0.0
  0
VERTEX
  5
93
100
AcDbEntity
  8
None
370
               5
390
0
  6
Continuous
 62
               7
100
AcDbVertex
100
AcDb2dVertex
 10
-17.337500000000006
 20
6.1875029986783403
 30
0.0
  0
VERTEX
  5
94
100
AcDbEntity
  8
None
370
               5
390
0
  6
Continuous
 62
               7
100
AcDbVertex
100
AcDb2dVertex
 10
-17.337500000000006
 20
5.9875029986783375
 30
0.0
  0
VERTEX
  5
95
100
AcDbEntity
  8
None
370
               5
390
0
  6
Continuous
 62
               7
100
AcDbVertex
100
AcDb2dVertex
 10
-17.887500000000003
 20
5.9875029986783375
 30
0.0
  0
SEQEND
  5
96
100
AcDbEntity
  8
None
370
               5
390
0
  6
Continuous
 62
               7
  0
POLYLINE
  5
97
100
AcDbEntity
  8
None
370
               5
390
0
  6
Continuous
 62
               7
100
AcDb2dPolyline
 66
               1
 10
0.0
 20
0.0
 30
0.0
 70
               1
 75
               5
  0
VERTEX
  5
98
100
AcDbEntity
  8
None
370
               5
390
0
  6
Continuous
 62
               7
100
AcDbVertex
100
AcDb2dVertex
 10
-17.887500000000003
 20
6.5875029986783389
 30
0.0
  0
VERTEX
  5
99
100
AcDbEntity
  8
None
370
               5
390
0
  6
Continuous
 62
               7
100
AcDbVertex
100
AcDb2dVertex
 10
-17.337500000000006
 20
6.5875029986783389
 30
0.0
  0
VERTEX
  5
9A
100
AcDbEntity
  8
None
370
               5
390
0
  6
Continuous
 62
               7
100
AcDbVertex
100
AcDb2dVertex
 10
-17.337500000000006
 20
6.3875029986783431
 30
0.0
  0
VERTEX
  5
9B
100
AcDbEntity
  8
None
370
               5
390
0
  6
Continuous
 62
               7
100
AcDbVertex
100
AcDb2dVertex
 10
-17.887500000000003
 20
6.3875029986783431
 30
0.0
  0
SEQEND
  5
9C
100
AcDbEntity
  8
None
370
               5
390
0
  6
Continuous
 62
               7
  0
POLYLINE
  5
9D
100
AcDbEntity
  8
None
370
               5
390
0
  6
Continuous
 62
               7
100
AcDb2dPolyline
 66
               1
 10
0.0
 20
0.0
 30
0.0
 70
               1
 75
               5
  0
VERTEX
  5
9E
100
AcDbEntity
  8
None
370
               5
390
0
  6
Continuous
 62
               7
100
AcDbVertex
100
AcDb2dVertex
 10
-17.887500000000003
 20
6.9875029986783375
 30
0.0
  0
VERTEX
  5
9F
100
AcDbEntity
  8
None
370
               5
390
0
  6
Continuous
 62
               7
100
AcDbVertex
100
AcDb2dVertex
 10
-17.337500000000006
 20
6.9875029986783375
 30
0.0
  0
VERTEX
  5
A0
100
AcDbEntity
  8
None
370
               5
390
0
  6
Continuous
 62
               7
100
AcDbVertex
100
AcDb2dVertex
 10
-17.337500000000006
 20
6.7875029986783417
 30
0.0
  0
VERTEX
  5
A1
100
AcDbEntity
  8
None
370
               5
390
0
  6
Continuous
 62
               7
100
AcDbVertex
100
AcDb2dVertex
 10
-17.887500000000003
 20
6.7875029986783417
 30
0.0
  0
SEQEND
  5
A2
100
AcDbEntity
  8
None
370
               5
390
0
  6
Continuous
 62
               7
  0
POLYLINE
  5
A3
100
AcDbEntity
  8
None
370
               5
390
0
  6
Continuous
 62
               7
100
AcDb2dPolyline
 66
               1
 10
0.0
 20
0.0
 30
0.0
 70
               1
 75
               5
  0
VERTEX
  5
A4
100
AcDbEntity
  8
None
370
               5
390
0
  6
Continuous
 62
               7
100
AcDbVertex
100
AcDb2dVertex
 10
-17.887500000000003
 20
7.387502998678336
 30
0.0
  0
VERTEX
  5
A5
100
AcDbEntity
  8
None
370
               5
390
0
  6
Continuous
 62
               7
100
AcDbVertex
100
AcDb2dVertex
 10
-17.337500000000006
 20
7.387502998678336
 30
0.0
  0
VERTEX
  5
A6
100
AcDbEntity
  8
None
370
               5
390
0
  6
Continuous
 62
               7
100
AcDbVertex
100
AcDb2dVertex
 10
-17.337500000000006
 20
7.1875029986783403
 30
0.0
  0
VERTEX
  5
A7
100
AcDbEntity
  8
None
370
               5
390
0
  6
Continuous
 62
               7
100
AcDbVertex
100
AcDb2dVertex
 10
-17.887500000000003
 20
7.1875029986783403
 30
0.0
  0
SEQEND
  5
A8
100
AcDbEntity
  8
None
370
               5
390
0
  6
Continuous
 62
               7
  0
POLYLINE
  5
A9
100
AcDbEntity
  8
None
370
               5
390
0
  6
Continuous
 62
               7
100
AcDb2dPolyline
 66
               1
 10
0.0
 20
0.0
 30
0.0
 70
               1
 75
               5
  0
VERTEX
  5
AA
100
AcDbEntity
  8
None
370
               5
390
0
  6
Continuous
 62
               7
100
AcDbVertex
100
AcDb2dVertex
 10
-17.887500000000003
 20
7.7875029986783346
 30
0.0
  0
VERTEX
  5
AB
100
AcDbEntity
  8
None
370
               5
390
0
  6
Continuous
 62
               7
100
AcDbVertex
100
AcDb2dVertex
 10
-17.337500000000006
 20
7.7875029986783346
 30
0.0
  0
VERTEX
  5
AC
100
AcDbEntity
  8
None
370
               5
390
0
  6
Continuous
 62
               7
100
AcDbVertex
100
AcDb2dVertex
 10
-17.337500000000006
 20
7.5875029986783389
 30
0.0
  0
VERTEX
  5
AD
100
AcDbEntity
  8
None
370
               5
390
0
  6
Continuous
 62
               7
100
AcDbVertex
100
AcDb2dVertex
 10
-17.887500000000003
 20
7.5875029986783389
 30
0.0
  0
SEQEND
  5
AE
100
AcDbEntity
  8
None
370
               5
390
0
  6
Continuous
 62
               7
  0
POLYLINE
  5
AF
100
AcDbEntity
  8
None
370
               5
390
0
  6
Continuous
 62
               7
100
AcDb2dPolyline
 66
               1
 10
0.0
 20
0.0
 30
0.0
 70
               1
 75
               5
  0
VERTEX
  5
B0
100
AcDbEntity
  8
None
370
               5
390
0
  6
Continuous
 62
               7
100
AcDbVertex
100
AcDb2dVertex
 10
-17.887500000000003
 20
8.1875029986783403
 30
0.0
  0
VERTEX
  5
B1
100
AcDbEntity
  8
None
370
               5
390
0
  6
Continuous
 62
               7
100
AcDbVertex
100
AcDb2dVertex
 10
-17.337500000000006
 20
8.1875029986783403
 30
0.0
  0
VERTEX
  5
B2
100
AcDbEntity
  8
None
370
               5
390
0
  6
Continuous
 62
               7
100
AcDbVertex
100
AcDb2dVertex
 10
-17.337500000000006
 20
7.9875029986783375
 30
0.0
  0
VERTEX
  5
B3
100
AcDbEntity
  8
None
370
               5
390
0
  6
Continuous
 62
               7
100
AcDbVertex
100
AcDb2dVertex
 10
-17.887500000000003
 20
7.9875029986783375
 30
0.0
  0
SEQEND
  5
B4
100
AcDbEntity
  8
None
370
               5
390
0
  6
Continuous
 62
               7
  0
POLYLINE
  5
B5
100
AcDbEntity
  8
None
370
               5
390
0
  6
Continuous
 62
               7
100
AcDb2dPolyline
 66
               1
 10
0.0
 20
0.0
 30
0.0
 70
               1
 75
               5
  0
VERTEX
  5
B6
100
AcDbEntity
  8
None
370
               5
390
0
  6
Continuous
 62
               7
100
AcDbVertex
100
AcDb2dVertex
 10
-13.937500000000002
 20
5.7875029986783417
 30
0.0
  0
VERTEX
  5
B7
100
AcDbEntity
  8
None
370
               5
390
0
  6
Continuous
 62
               7
100
AcDbVertex
100
AcDb2dVertex
 10
-13.387500000000001
 20
5.7875029986783417
 30
0.0
  0
VERTEX
  5
B8
100
AcDbEntity
  8
None
370
               5
390
0
  6
Continuous
 62
               7
100
AcDbVertex
100
AcDb2dVertex
 10
-13.387500000000001
 20
5.5875029986783389
 30
0.0
  0
VERTEX
  5
B9
100
AcDbEntity
  8
None
370
               5
390
0
  6
Continuous
 62
               7
100
AcDbVertex
100
AcDb2dVertex
 10
-13.937500000000002
 20
5.5875029986783389
 30
0.0
  0
SEQEND
  5
BA
100
AcDbEntity
  8
None
370
               5
390
0
  6
Continuous
 62
               7
  0
POLYLINE
  5
BB
100
AcDbEntity
  8
None
370
               5
390
0
  6
Continuous
 62
               7
100
AcDb2dPolyline
 66
               1
 10
0.0
 20
0.0
 30
0.0
 70
               1
 75
               5
  0
VERTEX
  5
BC
100
AcDbEntity
  8
None
370
               5
390
0
  6
Continuous
 62
               7
100
AcDbVertex
100
AcDb2dVertex
 10
-13.937500000000002
 20
6.1875029986783403
 30
0.0
  0
VERTEX
  5
BD
100
AcDbEntity
  8
None
370
               5
390
0
  6
Continuous
 62
               7
100
AcDbVertex
100
AcDb2dVertex
 10
-13.387500000000001
 20
6.1875029986783403
 30
0.0
  0
VERTEX
  5
BE
100
AcDbEntity
  8
None
370
               5
390
0
  6
Continuous
 62
               7
100
AcDbVertex
100
AcDb2dVertex
 10
-13.387500000000001
 20
5.9875029986783375
 30
0.0
  0
VERTEX
  5
BF
100
AcDbEntity
  8
None
370
               5
390
0
  6
Continuous
 62
               7
100
AcDbVertex
100
AcDb2dVertex
 10
-13.937500000000002
 20
5.9875029986783375
 30
0.0
  0
SEQEND
  5
C0
100
AcDbEntity
  8
None
370
               5
390
0
  6
Continuous
 62
               7
  0
POLYLINE
  5
C1
100
AcDbEntity
  8
None
370
               5
390
0
  6
Continuous
 62
               7
100
AcDb2dPolyline
 66
               1
 10
0.0
 20
0.0
 30
0.0
 70
               1
 75
               5
  0
VERTEX
  5
C2
100
AcDbEntity
  8
None
370
               5
390
0
  6
Continuous
 62
               7
100
AcDbVertex
100
AcDb2dVertex
 10
-13.937500000000002
 20
6.5875029986783389
 30
0.0
  0
VERTEX
  5
C3
100
AcDbEntity
  8
None
370
               5
390
0
  6
Continuous
 62
               7
100
AcDbVertex
100
AcDb2dVertex
 10
-13.387500000000001
 20
6.5875029986783389
 30
0.0
  0
VERTEX
  5
C4
100
AcDbEntity
  8
None
370
               5
390
0
  6
Continuous
 62
               7
100
AcDbVertex
100
AcDb2dVertex
 10
-13.387500000000001
 20
6.3875029986783431
 30
0.0
  0
VERTEX
  5
C5
100
AcDbEntity
  8
None
370
               5
390
0
  6
Continuous
 62
               7
100
AcDbVertex
100
AcDb2dVertex
 10
-13.937500000000002
 20
6.3875029986783431
 30
0.0
  0
SEQEND
  5
C6
100
AcDbEntity
  8
None
370
               5
390
0
  6
Continuous
 62
               7
  0
POLYLINE
  5
C7
100
AcDbEntity
  8
None
370
               5
390
0
  6
Continuous
 62
               7
100
AcDb2dPolyline
 66
               1
 10
0.0
 20
0.0
 30
0.0
 70
               1
 75
               5
  0
VERTEX
  5
C8
100
AcDbEntity
  8
None
370
               5
390
0
  6
Continuous
 62
               7
100
AcDbVertex
100
AcDb2dVertex
 10
-13.937500000000002
 20
6.9875029986783375
 30
0.0
  0
VERTEX
  5
C9
100
AcDbEntity
  8
None
370
               5
390
0
  6
Continuous
 62
               7
100
AcDbVertex
100
AcDb2dVertex
 10
-13.387500000000001
 20
6.9875029986783375
 30
0.0
  0
VERTEX
  5
CA
100
AcDbEntity
  8
None
370
               5
390
0
  6
Continuous
 62
               7
100
AcDbVertex
100
AcDb2dVertex
 10
-13.387500000000001
 20
6.7875029986783417
 30
0.0
  0
VERTEX
  5
CB
100
AcDbEntity
  8
None
370
               5
390
0
  6
Continuous
 62
               7
100
AcDbVertex
100
AcDb2dVertex
 10
-13.937500000000002
 20
6.7875029986783417
 30
0.0
  0
SEQEND
  5
CC
100
AcDbEntity
  8
None
370
               5
390
0
  6
Continuous
 62
               7
  0
POLYLINE
  5
CD
100
AcDbEntity
  8
None
370
               5
390
0
  6
Continuous
 62
               7
100
AcDb2dPolyline
 66
               1
 10
0.0
 20
0.0
 30
0.0
 70
               1
 75
               5
  0
VERTEX
  5
CE
100
AcDbEntity
  8
None
370
               5
390
0
  6
Continuous
 62
               7
100
AcDbVertex
100
AcDb2dVertex
 10
-13.937500000000002
 20
7.387502998678336
 30
0.0
  0
VERTEX
  5
CF
100
AcDbEntity
  8
None
370
               5
390
0
  6
Continuous
 62
               7
100
AcDbVertex
100
AcDb2dVertex
 10
-13.387500000000001
 20
7.387502998678336
 30
0.0
  0
VERTEX
  5
D0
100
AcDbEntity
  8
None
370
               5
390
0
  6
Continuous
 62
               7
100
AcDbVertex
100
AcDb2dVertex
 10
-13.387500000000001
 20
7.1875029986783403
 30
0.0
  0
VERTEX
  5
D1
100
AcDbEntity
  8
None
370
               5
390
0
  6
Continuous
 62
               7
100
AcDbVertex
100
AcDb2dVertex
 10
-13.937500000000002
 20
7.1875029986783403
 30
0.0
  0
SEQEND
  5
D2
100
AcDbEntity
  8
None
370
               5
390
0
  6
Continuous
 62
               7
  0
POLYLINE
  5
D3
100
AcDbEntity
  8
None
370
               5
390
0
  6
Continuous
 62
               7
100
AcDb2dPolyline
 66
               1
 10
0.0
 20
0.0
 30
0.0
 70
               1
 75
               5
  0
VERTEX
  5
D4
100
AcDbEntity
  8
None
370
               5
390
0
  6
Continuous
 62
               7
100
AcDbVertex
100
AcDb2dVertex
 10
-13.937500000000002
 20
7.7875029986783346
 30
0.0
  0
VERTEX
  5
D5
100
AcDbEntity
  8
None
370
               5
390
0
  6
Continuous
 62
               7
100
AcDbVertex
100
AcDb2dVertex
 10
-13.387500000000001
 20
7.7875029986783346
 30
0.0
  0
VERTEX
  5
D6
100
AcDbEntity
  8
None
370
               5
390
0
  6
Continuous
 62
               7
100
AcDbVertex
100
AcDb2dVertex
 10
-13.387500000000001
 20
7.5875029986783389
 30
0.0
  0
VERTEX
  5
D7
100
AcDbEntity
  8
None
370
               5
390
0
  6
Continuous
 62
               7
100
AcDbVertex
100
AcDb2dVertex
 10
-13.937500000000002
 20
7.5875029986783389
 30
0.0
  0
SEQEND
  5
D8
100
AcDbEntity
  8
None
370
               5
390
0
  6
Continuous
 62
               7
  0
POLYLINE
  5
D9
100
AcDbEntity
  8
None
370
               5
390
0
  6
Continuous
 62
               7
100
AcDb2dPolyline
 66
               1
 10
0.0
 20
0.0
 30
0.0
 70
               1
 75
               5
  0
VERTEX
  5
DA
100
AcDbEntity
  8
None
370
               5
390
0
  6
Continuous
 62
               7
100
AcDbVertex
100
AcDb2dVertex
 10
-13.937500000000002
 20
8.1875029986783403
 30
0.0
  0
VERTEX
  5
DB
100
AcDbEntity
  8
None
370
               5
390
0
  6
Continuous
 62
               7
100
AcDbVertex
100
AcDb2dVertex
 10
-13.387500000000001
 20
8.1875029986783403
 30
0.0
  0
VERTEX
  5
DC
100
AcDbEntity
  8
None
370
               5
390
0
  6
Continuous
 62
               7
100
AcDbVertex
100
AcDb2dVertex
 10
-13.387500000000001
 20
7.9875029986783375
 30
0.0
  0
VERTEX
  5
DD
100
AcDbEntity
  8
None
370
               5
390
0
  6
Continuous
 62
               7
100
AcDbVertex
100
AcDb2dVertex
 10
-13.937500000000002
 20
7.9875029986783375
 30
0.0
  0
SEQEND
  5
DE
100
AcDbEntity
  8
None
370
               5
390
0
  6
Continuous
 62
               7
  0
INSERT
  5
DF
100
AcDbEntity
  8
Dimension
390
0
 62
               1
100
AcDbBlockReference
  2
Group
 10
0.0
 20
0.0
 30
0.0
  0
ENDBLK
  5
E0
100
AcDbEntity
  8
None
390
0
100
AcDbBlockEnd
  0
ENDSEC
  0
SECTION
  2
ENTITIES
  0
POLYLINE
  5
E1
100
AcDbEntity
  8
None
370
               9
390
0
  6
STYLE_11
 62
               7
100
AcDb2dPolyline
 66
               1
 10
0.0
 20
0.0
 30
0.0
 70
               1
 75
               5
  0
VERTEX
  5
E2
100
AcDbEntity
  8
None
370
               9
390
0
  6
STYLE_11
 62
               7
100
AcDbVertex
100
AcDb2dVertex
 10
-6.1124999999999972
 20
6.1124999999999972
 30
0.0
  0
VERTEX
  5
E3
100
AcDbEntity
  8
None
370
               9
390
0
  6
STYLE_11
 62
               7
100
AcDbVertex
100
AcDb2dVertex
 10
6.1125000000000007
 20
6.1124999999999972
 30
0.0
  0
VERTEX
  5
E4
100
AcDbEntity
  8
None
370
               9
390
0
  6
STYLE_11
 62
               7
100
AcDbVertex
100
AcDb2dVertex
 10
6.1125000000000007
 20
-6.1124999999999972
 30
0.0
  0
VERTEX
  5
E5
100
AcDbEntity
  8
None
370
               9
390
0
  6
STYLE_11
 62
               7
100
AcDbVertex
100
AcDb2dVertex
 10
-6.1124999999999972
 20
-6.1124999999999972
 30
0.0
  0
SEQEND
  5
E6
100
AcDbEntity
  8
None
370
               9
390
0
  6
STYLE_11
 62
               7
  0
CIRCLE
  5
E7
100
AcDbEntity
  8
None
370
               9
390
0
  6
Continuous
 62
             180
100
AcDbCircle
 10
-3.0953399999999931
 20
5.0947599999999937
 30
0.0
 40
0.2500014851955927
  0
CIRCLE
  5
E8
100
AcDbEntity
  8
None
370
               9
390
0
  6
Continuous
 62
               7
100
AcDbCircle
 10
-4.8624999999999972
 20
4.8624999999999972
 30
0.0
 40
0.875
  0
CIRCLE
  5
E9
100
AcDbEntity
  8
None
370
               9
390
0
  6
Continuous
 62
               7
100
AcDbCircle
 10
4.8625000000000114
 20
-4.8624999999999972
 30
0.0
 40
0.875
  0
CIRCLE
  5
EA
100
AcDbEntity
  8
None
370
               9
390
0
  6
Continuous
 62
               7
100
AcDbCircle
 10
-4.8624999999999972
 20
-4.8624999999999972
 30
0.0
 40
0.875
  0
CIRCLE
  5
EB
100
AcDbEntity
  8
None
370
               9
390
0
  6
Continuous
 62
               7
100
AcDbCircle
 10
4.8625000000000114
 20
4.8624999999999972
 30
0.0
 40
0.875
  0
CIRCLE
  5
EC
100
AcDbEntity
  8
None
370
               9
390
0
  6
Continuous
 62
               7
100
AcDbCircle
 10
4.8625000000000114
 20
2.8624999999999972
 30
0.0
 40
0.4249999999999972
  0
CIRCLE
  5
ED
100
AcDbEntity
  8
None
370
               9
390
0
  6
Continuous
 62
               7
100
AcDbCircle
 10
-4.8624999999999972
 20
-1.8624999999999972
 30
0.0
 40
0.4249999999999972
  0
POLYLINE
  5
EE
100
AcDbEntity
  8
None
370
               5
390
0
  6
Continuous
 62
               7
100
AcDb2dPolyline
 66
               1
 10
0.0
 20
0.0
 30
0.0
 70
               1
 75
               5
  0
VERTEX
  5
EF
100
AcDbEntity
  8
None
370
               5
390
0
  6
Continuous
 62
               7
100
AcDbVertex
100
AcDb2dVertex
 10
-1.0500000000000007
 20
1.3000000000000043
 30
0.0
  0
VERTEX
  5
F0
100
AcDbEntity
  8
None
370
               5
390
0
  6
Continuous
 62
               7
100
AcDbVertex
100
AcDb2dVertex
 10
1.5499999999999989
 20
1.3000000000000043
 30
0.0
  0
VERTEX
  5
F1
100
AcDbEntity
  8
None
370
               5
390
0
  6
Continuous
 62
               7
100
AcDbVertex
100
AcDb2dVertex
 10
1.5499999999999989
 20
-1.2999999999999972
 30
0.0
  0
VERTEX
  5
F2
100
AcDbEntity
  8
None
370
               5
390
0
  6
Continuous
 62
               7
100
AcDbVertex
100
AcDb2dVertex
 10
-1.0500000000000007
 20
-1.2999999999999972
 30
0.0
  0
SEQEND
  5
F3
100
AcDbEntity
  8
None
370
               5
390
0
  6
Continuous
 62
               7
  0
INSERT
  5
F4
100
AcDbEntity
  8
None
390
0
 62
               7
100
AcDbBlockReference
  2
Group-1
 10
15.887500000000003
 20
-6.887502998678336
 30
0.0
  0
LINE
  5
F5
100
AcDbEntity
  8
None
370
               5
390
0
  6
Continuous
 62
               1
100
AcDbLine
 10
-0.8333308331205203
 20
0.0
 30
0.0
 11
0.8333308331205238
 21
0.0
 31
0.0
  0
LINE
  5
F6
100
AcDbEntity
  8
None
370
               5
390
0
  6
Continuous
 62
               1
100
AcDbLine
 10
0.0
 20
-0.8333308331205203
 30
0.0
 11
0.0
 21
0.8333308331205203
 31
0.0
  0
LINE
  5
F7
100
AcDbEntity
  8
None
370
               5
390
0
  6
Continuous
 62
               1
100
AcDbLine
 10
1.4999954980399046
 20
0.0
 30
0.0
 11
7.112497001321664
 21
0.0
 31
0.0
  0
LINE
  5
F8
100
AcDbEntity
  8
None
370
               5
390
0
  6
Continuous
 62
               1
100
AcDbLine
 10
0.0
 20
7.112497001321664
 30
0.0
 11
0.0
 21
1.4999954980399011
 31
0.0
  0
LINE
  5
F9
100
AcDbEntity
  8
None
370
               5
390
0
  6
Continuous
 62
               1
100
AcDbLine
 10
0.0
 20
-1.4999954980399011
 30
0.0
 11
0.0
 21
-7.112497001321664
 31
0.0
  0
ENDSEC
  0
SECTION
  2
OBJECTS
  0
DICTIONARY
  5
19
100
AcDbDictionary
280
               0
281
               1
  3
ACAD_GROUP
350
1A
  3
ACAD_MLINESTYLE
350
1B
  3
ACAD_LAYOUT
350
1E
  3
ACAD_PLOTSETTINGS
350
22
  3
ACAD_PLOTSTYLENAME
350
1F
  0
DICTIONARY
  5
1A
102
{ACAD_REACTORS
330
19
102
}
100
AcDbDictionary
280
               0
281
               1
  0
DICTIONARY
  5
1B
102
{ACAD_REACTORS
330
19
102
}
100
AcDbDictionary
280
               0
281
               1
  3
Standard
350
1C
  0
MLINESTYLE
  5
1C
102
{ACAD_REACTORS
330
1B
102
}
100
AcDbMlineStyle
  2
Standard
 70
               0
  3

 62
               0
 51
90.0
 52
90.0
 71
               2
 49
0.5
 62
             256
  6
ByLayer
 49
-0.5
 62
             256
  6
ByLayer
  0
ACDBDICTIONARYWDFLT
  5
1F
102
{ACAD_REACTORS
330
19
102
}
100
AcDbDictionary
281
               1
  3
Normal
350
1D
100
AcDbDictionaryWithDefault
340
1D
  0
ACDBPLACEHOLDER
  5
1D
102
{ACAD_REACTORS
330
1F
102
}
  0
LAYOUT
  5
20
102
{ACAD_REACTORS
330
1E
102
}
100
AcDbPlotSettings
  1

  2

  4

  6

 40
0.0
 41
0.0
 42
0.0
 43
0.0
 44
0.0
 45
0.0
 46
0.0
 47
0.0
 48
0.0
 49
0.0
140
0.0
141
0.0
142
1.0
143
1.0
 70
            1024
 72
               0
 73
               0
 74
               0
  7

 75
               0
147
1.0
148
0.0
149
0.0
100
AcDbLayout
  1
Model
 70
               0
 71
               0
 10
0.0
 20
0.0
 11
0.0
 21
0.0
 12
0.0
 22
0.0
 32
0.0
 14
0.0
 24
0.0
 34
0.0
 15
0.0
 25
0.0
 35
0.0
146
0.0
 13
0.0
 23
0.0
 33
0.0
 16
0.0
 26
0.0
 36
0.0
 17
0.0
 27
0.0
 37
0.0
 76
               0
330
A
331
0
345
0
346
0
  0
LAYOUT
  5
21
102
{ACAD_REACTORS
330
1E
102
}
100
AcDbPlotSettings
  1

  2

  4

  6

 40
0.0
 41
0.0
 42
0.0
 43
0.0
 44
0.0
 45
0.0
 46
0.0
 47
0.0
 48
0.0
 49
0.0
140
0.0
141
0.0
142
1.0
143
1.0
 70
               0
 72
               0
 73
               0
 74
               0
  7

 75
               0
147
1.0
148
0.0
149
0.0
100
AcDbLayout
  1
Layout1
 70
               0
 71
               0
 10
0.0
 20
0.0
 11
0.0
 21
0.0
 12
0.0
 22
0.0
 32
0.0
 14
0.0
 24
0.0
 34
0.0
 15
0.0
 25
0.0
 35
0.0
146
0.0
 13
0.0
 23
0.0
 33
0.0
 16
0.0
 26
0.0
 36
0.0
 17
0.0
 27
0.0
 37
0.0
 76
               0
330
B
331
0
345
0
346
0
  0
DICTIONARY
  5
1E
102
{ACAD_REACTORS
330
19
102
}
100
AcDbDictionary
280
               0
281
               1
  3
Layout1
350
21
  3
Model
350
20
  0
DICTIONARY
  5
22
102
{ACAD_REACTORS
330
19
102
}
100
AcDbDictionary
280
               0
281
               1
  0
ENDSEC
  0
EOF
