  0
SECTION
  2
HEADER
  9
$ACADVER
  1
AC1015
  9
$ACADMAINTVER
 70
     6
  9
$DWGCODEPAGE
  3
ANSI_1252
  9
$INSBASE
 10
0.0
 20
0.0
 30
0.0
  9
$EXTMIN
 10
0.0
 20
0.0
 30
0.0
  9
$EXTMAX
 10
93.1333333333
 20
71.9666666667
 30
0.0
  9
$LIMMIN
 10
0.0
 20
0.0
  9
$LIMMAX
 10
93.1333333333
 20
71.9666666667
  9
$ORTHOMODE
 70
     0
  9
$REGENMODE
 70
     1
  9
$FILLMODE
 70
     1
  9
$QTEXTMODE
 70
     0
  9
$MIRRTEXT
 70
     1
  9
$LTSCALE
 40
0.3333333333
  9
$ATTMODE
 70
     1
  9
$TEXTSIZE
 40
1.0583333333
  9
$TRACEWID
 40
1.0
  9
$TEXTSTYLE
  7
Standard
  9
$CLAYER
  8
0
  9
$CELTYPE
  6
ByLayer
  9
$CECOLOR
 62
   256
  9
$CELTSCALE
 40
1.0
  9
$DISPSILH
 70
     0
  9
$DIMSCALE
 40
1.0
  9
$DIMASZ
 40
1.1006666667
  9
$DIMEXO
 40
0.4233333333
  9
$DIMDLI
 40
3.75
  9
$DIMRND
 40
0.0
  9
$DIMDLE
 40
0.0
  9
$DIMEXE
 40
1.0583333333
  9
$DIMTP
 40
0.0
  9
$DIMTM
 40
0.0
  9
$DIMTXT
 40
1.0583333333
  9
$DIMCEN
 40
2.5
  9
$DIMTSZ
 40
0.0
  9
$DIMTOL
 70
     0
  9
$DIMLIM
 70
     0
  9
$DIMTIH
 70
     1
  9
$DIMTOH
 70
     1
  9
$DIMSE1
 70
     0
  9
$DIMSE2
 70
     0
  9
$DIMTAD
 70
     0
  9
$DIMZIN
 70
     1
  9
$DIMBLK
  1

  9
$DIMASO
 70
     1
  9
$DIMSHO
 70
     1
  9
$DIMPOST
  1

  9
$DIMAPOST
  1

  9
$DIMALT
 70
     0
  9
$DIMALTD
 70
     3
  9
$DIMALTF
 40
0.0393700787
  9
$DIMLFAC
 40
1.0
  9
$DIMTOFL
 70
     1
  9
$DIMTVP
 40
0.0
  9
$DIMTIX
 70
     0
  9
$DIMSOXD
 70
     0
  9
$DIMSAH
 70
     0
  9
$DIMBLK1
  1

  9
$DIMBLK2
  1

  9
$DIMSTYLE
  2
ISO-25
  9
$DIMCLRD
 70
     0
  9
$DIMCLRE
 70
     0
  9
$DIMCLRT
 70
     0
  9
$DIMTFAC
 40
1.0
  9
$DIMGAP
 40
0.508
  9
$DIMJUST
 70
     0
  9
$DIMSD1
 70
     0
  9
$DIMSD2
 70
     0
  9
$DIMTOLJ
 70
     0
  9
$DIMTZIN
 70
     1
  9
$DIMALTZ
 70
     0
  9
$DIMALTTZ
 70
     0
  9
$DIMUPT
 70
     0
  9
$DIMDEC
 70
     2
  9
$DIMTDEC
 70
     2
  9
$DIMALTU
 70
     2
  9
$DIMALTTD
 70
     3
  9
$DIMTXSTY
  7
Standard
  9
$DIMAUNIT
 70
     0
  9
$DIMADEC
 70
     2
  9
$DIMALTRND
 40
0.0
  9
$DIMAZIN
 70
     0
  9
$DIMDSEP
 70
    44
  9
$DIMATFIT
 70
     3
  9
$DIMFRAC
 70
     0
  9
$DIMLDRBLK
  1

  9
$DIMLUNIT
 70
     2
  9
$DIMLWD
 70
    -2
  9
$DIMLWE
 70
    -2
  9
$DIMTMOVE
 70
     0
  9
$LUNITS
 70
     2
  9
$LUPREC
 70
     2
  9
$SKETCHINC
 40
1.0
  9
$FILLETRAD
 40
10.0
  9
$AUNITS
 70
     0
  9
$AUPREC
 70
     2
  9
$MENU
  1
.
  9
$ELEVATION
 40
0.0
  9
$PELEVATION
 40
0.0
  9
$THICKNESS
 40
0.0
  9
$LIMCHECK
 70
     0
  9
$CHAMFERA
 40
0.0
  9
$CHAMFERB
 40
0.0
  9
$CHAMFERC
 40
0.0
  9
$CHAMFERD
 40
0.0
  9
$SKPOLY
 70
     0
  9
$TDCREATE
 40
2457189.535496794
  9
$TDUCREATE
 40
2457189.743830127
  9
$TDUPDATE
 40
2457189.535497083
  9
$TDUUPDATE
 40
2457189.743830417
  9
$TDINDWG
 40
0.0000000116
  9
$TDUSRTIMER
 40
0.0000000116
  9
$USRTIMER
 70
     1
  9
$ANGBASE
 50
0.0
  9
$ANGDIR
 70
     0
  9
$PDMODE
 70
     0
  9
$PDSIZE
 40
-1.0
  9
$PLINEWID
 40
0.0
  9
$SPLFRAME
 70
     0
  9
$SPLINETYPE
 70
     6
  9
$SPLINESEGS
 70
     8
  9
$HANDSEED
  5
186
  9
$SURFTAB1
 70
     6
  9
$SURFTAB2
 70
     6
  9
$SURFTYPE
 70
     6
  9
$SURFU
 70
     6
  9
$SURFV
 70
     6
  9
$UCSBASE
  2

  9
$UCSNAME
  2

  9
$UCSORG
 10
0.0
 20
0.0
 30
0.0
  9
$UCSXDIR
 10
1.0
 20
0.0
 30
0.0
  9
$UCSYDIR
 10
0.0
 20
1.0
 30
0.0
  9
$UCSORTHOREF
  2

  9
$UCSORTHOVIEW
 70
     0
  9
$UCSORGTOP
 10
0.0
 20
0.0
 30
0.0
  9
$UCSORGBOTTOM
 10
0.0
 20
0.0
 30
0.0
  9
$UCSORGLEFT
 10
0.0
 20
0.0
 30
0.0
  9
$UCSORGRIGHT
 10
0.0
 20
0.0
 30
0.0
  9
$UCSORGFRONT
 10
0.0
 20
0.0
 30
0.0
  9
$UCSORGBACK
 10
0.0
 20
0.0
 30
0.0
  9
$PUCSBASE
  2

  9
$PUCSNAME
  2

  9
$PUCSORG
 10
0.0
 20
0.0
 30
0.0
  9
$PUCSXDIR
 10
1.0
 20
0.0
 30
0.0
  9
$PUCSYDIR
 10
0.0
 20
1.0
 30
0.0
  9
$PUCSORTHOREF
  2

  9
$PUCSORTHOVIEW
 70
     0
  9
$PUCSORGTOP
 10
0.0
 20
0.0
 30
0.0
  9
$PUCSORGBOTTOM
 10
0.0
 20
0.0
 30
0.0
  9
$PUCSORGLEFT
 10
0.0
 20
0.0
 30
0.0
  9
$PUCSORGRIGHT
 10
0.0
 20
0.0
 30
0.0
  9
$PUCSORGFRONT
 10
0.0
 20
0.0
 30
0.0
  9
$PUCSORGBACK
 10
0.0
 20
0.0
 30
0.0
  9
$USERI1
 70
     0
  9
$USERI2
 70
     0
  9
$USERI3
 70
     0
  9
$USERI4
 70
     0
  9
$USERI5
 70
     0
  9
$USERR1
 40
0.0
  9
$USERR2
 40
0.0
  9
$USERR3
 40
0.0
  9
$USERR4
 40
0.0
  9
$USERR5
 40
0.0
  9
$WORLDVIEW
 70
     1
  9
$SHADEDGE
 70
     3
  9
$SHADEDIF
 70
    70
  9
$TILEMODE
 70
     1
  9
$MAXACTVP
 70
    64
  9
$PINSBASE
 10
0.0
 20
0.0
 30
0.0
  9
$PLIMCHECK
 70
     0
  9
$PEXTMIN
 10
1.0000000000E+20
 20
1.0000000000E+20
 30
1.0000000000E+20
  9
$PEXTMAX
 10
-1.0000000000E+20
 20
-1.0000000000E+20
 30
-1.0000000000E+20
  9
$PLIMMIN
 10
0.0
 20
0.0
  9
$PLIMMAX
 10
420.0
 20
297.0
  9
$UNITMODE
 70
     0
  9
$VISRETAIN
 70
     1
  9
$PLINEGEN
 70
     0
  9
$PSLTSCALE
 70
     1
  9
$TREEDEPTH
 70
  3020
  9
$CMLSTYLE
  2
Standard
  9
$CMLJUST
 70
     0
  9
$CMLSCALE
 40
20.0
  9
$PROXYGRAPHICS
 70
     1
  9
$MEASUREMENT
 70
     1
  9
$CELWEIGHT
370
    -1
  9
$ENDCAPS
280
     0
  9
$JOINSTYLE
280
     0
  9
$LWDISPLAY
290
     1
  9
$INSUNITS
 70
     4
  9
$HYPERLINKBASE
  1

  9
$STYLESHEET
  1

  9
$XEDIT
290
     1
  9
$CEPSNTYPE
380
     0
  9
$PSTYLEMODE
290
     1
  9
$FINGERPRINTGUID
  2
{FE04D221-1539-46FF-87E7-1FCA0C99D93C}
  9
$VERSIONGUID
  2
{FAEB1C32-E019-11D5-929B-00C0DF256EC4}
  9
$EXTNAMES
290
     1
  9
$PSVPSCALE
 40
0.0
  9
$OLESTARTUP
290
     0
  0
ENDSEC
  0
SECTION
  2
CLASSES
  0
CLASS
  1
ACDBDICTIONARYWDFLT
  2
AcDbDictionaryWithDefault
  3
ObjectDBX Classes
 90
        0
280
     0
281
     0
  0
CLASS
  1
VISUALSTYLE
  2
AcDbVisualStyle
  3
ObjectDBX Classes
 90
     4095
280
     0
281
     0
  0
CLASS
  1
MATERIAL
  2
AcDbMaterial
  3
ObjectDBX Classes
 90
     1153
280
     0
281
     0
  0
CLASS
  1
SCALE
  2
AcDbScale
  3
ObjectDBX Classes
 90
     1153
280
     0
281
     0
  0
CLASS
  1
SUN
  2
AcDbSun
  3
SCENEOE
 90
     1153
280
     0
281
     0
  0
CLASS
  1
ACDBPLACEHOLDER
  2
AcDbPlaceHolder
  3
ObjectDBX Classes
 90
        0
280
     0
281
     0
  0
CLASS
  1
LAYOUT
  2
AcDbLayout
  3
ObjectDBX Classes
 90
        0
280
     0
281
     0
  0
ENDSEC
  0
SECTION
  2
TABLES
  0
TABLE
  2
VPORT
  5
8
330
0
100
AcDbSymbolTable
 70
     1
  0
VPORT
  5
29
330
8
100
AcDbSymbolTableRecord
100
AcDbViewportTableRecord
  2
*Active
 70
     0
 10
0.0
 20
0.0
 11
1.0
 21
1.0
 12
46.5666666667
 22
35.9833333333
 13
0.0
 23
0.0
 14
10.0
 24
10.0
 15
10.0
 25
10.0
 16
0.0
 26
0.0
 36
1.0
 17
0.0
 27
0.0
 37
0.0
 40
71.9666666667
 41
1.2941176471
 42
50.0
 43
0.0
 44
0.0
 50
0.0
 51
0.0
 71
     0
 72
  2000
 73
     1
 74
     3
 75
     0
 76
     0
 77
     0
 78
     0
281
     0
 65
     1
110
0.0
120
0.0
130
0.0
111
1.0
121
0.0
131
0.0
112
0.0
122
1.0
132
0.0
 79
     0
146
0.0
  0
ENDTAB
  0
TABLE
  2
LTYPE
  5
5
330
0
100
AcDbSymbolTable
 70
     6
  0
LTYPE
  5
14
330
5
100
AcDbSymbolTableRecord
100
AcDbLinetypeTableRecord
  2
ByBlock
 70
     0
  3

 72
    65
 73
     0
 40
0.0
  0
LTYPE
  5
15
330
5
100
AcDbSymbolTableRecord
100
AcDbLinetypeTableRecord
  2
ByLayer
 70
     0
  3

 72
    65
 73
     0
 40
0.0
  0
LTYPE
  5
16
330
5
100
AcDbSymbolTableRecord
100
AcDbLinetypeTableRecord
  2
Continuous
 70
     0
  3
Solid line
 72
    65
 73
     0
 40
0.0
  0
LTYPE
  5
6A
330
5
100
AcDbSymbolTableRecord
100
AcDbLinetypeTableRecord
  2
HIDDEN
 70
     0
  3
Hidden __ __ __ __ __ __ __ __ __ __ __ __ __ __
 72
    65
 73
     2
 40
1.905
 49
1.27
 74
     0
 49
-0.635
 74
     0
  0
LTYPE
  5
6B
330
5
100
AcDbSymbolTableRecord
100
AcDbLinetypeTableRecord
  2
PHANTOM
 70
     0
  3
Phantom ______  __  __  ______  __  __  ______
 72
    65
 73
     6
 40
12.7
 49
6.35
 74
     0
 49
-1.27
 74
     0
 49
1.27
 74
     0
 49
-1.27
 74
     0
 49
1.27
 74
     0
 49
-1.27
 74
     0
  0
LTYPE
  5
6C
330
5
100
AcDbSymbolTableRecord
100
AcDbLinetypeTableRecord
  2
CENTER
 70
     0
  3
Center ____ _ ____ _ ____ _ ____ _ ____ _ ____
 72
    65
 73
     4
 40
10.16
 49
6.35
 74
     0
 49
-1.27
 74
     0
 49
1.27
 74
     0
 49
-1.27
 74
     0
  0
LTYPE
  5
6D
330
5
100
AcDbSymbolTableRecord
100
AcDbLinetypeTableRecord
  2
CENTERX2
 70
     0
  3
Center (2x) ________  __  ________  __  _____
 72
    65
 73
     4
 40
20.32
 49
12.7
 74
     0
 49
-2.54
 74
     0
 49
2.54
 74
     0
 49
-2.54
 74
     0
  0
LTYPE
  5
6E
330
5
100
AcDbSymbolTableRecord
100
AcDbLinetypeTableRecord
  2
DOT2
 70
     0
  3
Dot (.5x) ........................................
 72
    65
 73
     2
 40
0.635
 49
0.0
 74
     0
 49
-0.635
 74
     0
  0
ENDTAB
  0
TABLE
  2
LAYER
  5
2
330
0
100
AcDbSymbolTable
 70
     9
  0
LAYER
  5
10
330
2
100
AcDbSymbolTableRecord
100
AcDbLayerTableRecord
  2
0
 70
     0
 62
     7
  6
Continuous
370
    -3
390
F
  0
LAYER
  5
6F
330
2
100
AcDbSymbolTableRecord
100
AcDbLayerTableRecord
  2
FORMAT
 70
     0
 62
     7
  6
Continuous
370
    -3
390
F
  0
LAYER
  5
70
330
2
100
AcDbSymbolTableRecord
100
AcDbLayerTableRecord
  2
SLD-0
 70
     0
 62
  -179
  6
Continuous
370
    -3
390
F
  0
LAYER
  5
71
330
2
100
AcDbSymbolTableRecord
100
AcDbLayerTableRecord
  2
SLD-DEFPOINTS
 70
     0
 62
  -179
  6
Continuous
370
    -3
390
F
  0
LAYER
  5
72
330
2
100
AcDbSymbolTableRecord
100
AcDbLayerTableRecord
  2
NONE
 70
     0
 62
   179
  6
Continuous
370
    -3
390
F
  0
LAYER
  5
73
330
2
100
AcDbSymbolTableRecord
100
AcDbLayerTableRecord
  2
DIMENSION
 70
     0
 62
   179
  6
Continuous
370
    -3
390
F
  0
LAYER
  5
74
330
2
100
AcDbSymbolTableRecord
100
AcDbLayerTableRecord
  2
SOLID_LINES
 70
     0
 62
  -179
  6
Continuous
370
    15
390
F
  0
LAYER
  5
75
330
2
100
AcDbSymbolTableRecord
100
AcDbLayerTableRecord
  2
PAGE_FRAME
 70
     0
 62
   179
  6
Continuous
370
    -3
390
F
  0
LAYER
  5
76
330
2
100
AcDbSymbolTableRecord
100
AcDbLayerTableRecord
  2
LAYOUT
 70
     0
 62
   179
  6
Continuous
370
    -3
390
F
  0
ENDTAB
  0
TABLE
  2
STYLE
  5
3
330
0
100
AcDbSymbolTable
 70
     1
  0
STYLE
  5
11
330
3
100
AcDbSymbolTableRecord
100
AcDbTextStyleTableRecord
  2
Standard
 70
     0
 40
0.0
 41
1.0
 50
0.0
 71
     0
 42
1.0583333333
  3
txt
  4

  0
ENDTAB
  0
TABLE
  2
VIEW
  5
6
330
0
100
AcDbSymbolTable
 70
     0
  0
ENDTAB
  0
TABLE
  2
UCS
  5
7
330
0
100
AcDbSymbolTable
 70
     0
  0
ENDTAB
  0
TABLE
  2
APPID
  5
9
330
0
100
AcDbSymbolTable
 70
     1
  0
APPID
  5
12
330
9
100
AcDbSymbolTableRecord
100
AcDbRegAppTableRecord
  2
ACAD
 70
     0
  0
ENDTAB
  0
TABLE
  2
DIMSTYLE
  5
A
330
0
100
AcDbSymbolTable
 70
     1
100
AcDbDimStyleTable
  0
DIMSTYLE
105
27
330
A
100
AcDbSymbolTableRecord
100
AcDbDimStyleTableRecord
  2
ISO-25
 70
     0
 41
2.5
 42
0.625
 43
3.75
 44
1.25
 73
     0
 74
     0
 77
     1
 78
     8
140
2.5
141
2.5
143
0.0393700787
147
0.625
171
     3
172
     1
178
     0
271
     2
272
     2
274
     3
278
    44
283
     0
284
     8
340
11
  0
ENDTAB
  0
TABLE
  2
BLOCK_RECORD
  5
1
330
0
100
AcDbSymbolTable
 70
     1
  0
BLOCK_RECORD
  5
1F
330
1
100
AcDbSymbolTableRecord
100
AcDbBlockTableRecord
  2
*Model_Space
340
22
  0
BLOCK_RECORD
  5
1B
330
1
100
AcDbSymbolTableRecord
100
AcDbBlockTableRecord
  2
*Paper_Space
340
1E
  0
BLOCK_RECORD
  5
23
330
1
100
AcDbSymbolTableRecord
100
AcDbBlockTableRecord
  2
*Paper_Space0
340
26
  0
ENDTAB
  0
ENDSEC
  0
SECTION
  2
BLOCKS
  0
BLOCK
  5
20
330
1F
100
AcDbEntity
  8
0
100
AcDbBlockBegin
  2
*Model_Space
 70
     0
 10
0.0
 20
0.0
 30
0.0
  3
*Model_Space
  1
*Model_Space
  0
ENDBLK
  5
21
330
1F
100
AcDbEntity
  8
0
100
AcDbBlockEnd
  0
BLOCK
  5
1C
330
1B
100
AcDbEntity
 67
     1
  8
0
100
AcDbBlockBegin
  2
*Paper_Space
 70
     0
 10
0.0
 20
0.0
 30
0.0
  3
*Paper_Space
  1
*Paper_Space
  0
ENDBLK
  5
1D
330
1B
100
AcDbEntity
 67
     1
  8
0
100
AcDbBlockEnd
  0
BLOCK
  5
24
330
23
100
AcDbEntity
  8
0
100
AcDbBlockBegin
  2
*Paper_Space0
 70
     0
 10
0.0
 20
0.0
 30
0.0
  3
*Paper_Space0
  1
*Paper_Space0
  0
ENDBLK
  5
25
330
23
100
AcDbEntity
  8
0
100
AcDbBlockEnd
  0
ENDSEC
  0
SECTION
  2
ENTITIES
  0
LINE
  5
77
330
1F
100
AcDbEntity
  8
0
  6
Continuous
 62
     7
370
     0
100
AcDbLine
 10
40.3884433063
 20
36.8811874259
 30
0.0
 11
41.0784433063
 21
36.8811874259
 31
0.0
  0
LINE
  5
78
330
1F
100
AcDbEntity
  8
0
  6
Continuous
 62
     7
370
     0
100
AcDbLine
 10
40.3884433063
 20
37.1611874259
 30
0.0
 11
40.3884433063
 21
36.8811874259
 31
0.0
  0
LINE
  5
79
330
1F
100
AcDbEntity
  8
0
  6
Continuous
 62
     7
370
     0
100
AcDbLine
 10
41.0784433063
 20
37.1611874259
 30
0.0
 11
40.3884433063
 21
37.1611874259
 31
0.0
  0
LINE
  5
7A
330
1F
100
AcDbEntity
  8
0
  6
Continuous
 62
     7
370
     0
100
AcDbLine
 10
41.0784433063
 20
36.8811874259
 30
0.0
 11
41.0784433063
 21
37.1611874259
 31
0.0
  0
LINE
  5
7B
330
1F
100
AcDbEntity
  8
0
  6
Continuous
 62
     7
370
     0
100
AcDbLine
 10
40.3884433063
 20
37.3811874259
 30
0.0
 11
41.0784433063
 21
37.3811874259
 31
0.0
  0
LINE
  5
7C
330
1F
100
AcDbEntity
  8
0
  6
Continuous
 62
     7
370
     0
100
AcDbLine
 10
40.3884433063
 20
37.6611874259
 30
0.0
 11
40.3884433063
 21
37.3811874259
 31
0.0
  0
LINE
  5
7D
330
1F
100
AcDbEntity
  8
0
  6
Continuous
 62
     7
370
     0
100
AcDbLine
 10
41.0784433063
 20
37.6611874259
 30
0.0
 11
40.3884433063
 21
37.6611874259
 31
0.0
  0
LINE
  5
7E
330
1F
100
AcDbEntity
  8
0
  6
Continuous
 62
     7
370
     0
100
AcDbLine
 10
41.0784433063
 20
37.3811874259
 30
0.0
 11
41.0784433063
 21
37.6611874259
 31
0.0
  0
LINE
  5
7F
330
1F
100
AcDbEntity
  8
0
  6
Continuous
 62
     7
370
     0
100
AcDbLine
 10
40.3884433063
 20
37.8811874259
 30
0.0
 11
41.0784433063
 21
37.8811874259
 31
0.0
  0
LINE
  5
80
330
1F
100
AcDbEntity
  8
0
  6
Continuous
 62
     7
370
     0
100
AcDbLine
 10
40.3884433063
 20
38.1611874259
 30
0.0
 11
40.3884433063
 21
37.8811874259
 31
0.0
  0
LINE
  5
81
330
1F
100
AcDbEntity
  8
0
  6
Continuous
 62
     7
370
     0
100
AcDbLine
 10
41.0784433063
 20
38.1611874259
 30
0.0
 11
40.3884433063
 21
38.1611874259
 31
0.0
  0
LINE
  5
82
330
1F
100
AcDbEntity
  8
0
  6
Continuous
 62
     7
370
     0
100
AcDbLine
 10
41.0784433063
 20
37.8811874259
 30
0.0
 11
41.0784433063
 21
38.1611874259
 31
0.0
  0
LINE
  5
83
330
1F
100
AcDbEntity
  8
0
  6
Continuous
 62
     7
370
     0
100
AcDbLine
 10
40.3884433063
 20
38.3811874259
 30
0.0
 11
41.0784433063
 21
38.3811874259
 31
0.0
  0
LINE
  5
84
330
1F
100
AcDbEntity
  8
0
  6
Continuous
 62
     7
370
     0
100
AcDbLine
 10
40.3884433063
 20
38.6611874259
 30
0.0
 11
40.3884433063
 21
38.3811874259
 31
0.0
  0
LINE
  5
85
330
1F
100
AcDbEntity
  8
0
  6
Continuous
 62
     7
370
     0
100
AcDbLine
 10
41.0784433063
 20
38.6611874259
 30
0.0
 11
40.3884433063
 21
38.6611874259
 31
0.0
  0
LINE
  5
86
330
1F
100
AcDbEntity
  8
0
  6
Continuous
 62
     7
370
     0
100
AcDbLine
 10
41.0784433063
 20
38.3811874259
 30
0.0
 11
41.0784433063
 21
38.6611874259
 31
0.0
  0
LINE
  5
87
330
1F
100
AcDbEntity
  8
0
  6
Continuous
 62
     7
370
     0
100
AcDbLine
 10
41.1784433063
 20
42.7611874259
 30
0.0
 11
41.4584433063
 21
42.7611874259
 31
0.0
  0
LINE
  5
88
330
1F
100
AcDbEntity
  8
0
  6
Continuous
 62
     7
370
     0
100
AcDbLine
 10
41.1784433063
 20
43.4511874259
 30
0.0
 11
41.1784433063
 21
42.7611874259
 31
0.0
  0
LINE
  5
89
330
1F
100
AcDbEntity
  8
0
  6
Continuous
 62
     7
370
     0
100
AcDbLine
 10
41.4584433063
 20
43.4511874259
 30
0.0
 11
41.1784433063
 21
43.4511874259
 31
0.0
  0
LINE
  5
8A
330
1F
100
AcDbEntity
  8
0
  6
Continuous
 62
     7
370
     0
100
AcDbLine
 10
41.4584433063
 20
42.7611874259
 30
0.0
 11
41.4584433063
 21
43.4511874259
 31
0.0
  0
LINE
  5
8B
330
1F
100
AcDbEntity
  8
0
  6
Continuous
 62
     7
370
     0
100
AcDbLine
 10
41.6784433063
 20
42.7611874259
 30
0.0
 11
41.9584433063
 21
42.7611874259
 31
0.0
  0
LINE
  5
8C
330
1F
100
AcDbEntity
  8
0
  6
Continuous
 62
     7
370
     0
100
AcDbLine
 10
41.6784433063
 20
43.4511874259
 30
0.0
 11
41.6784433063
 21
42.7611874259
 31
0.0
  0
LINE
  5
8D
330
1F
100
AcDbEntity
  8
0
  6
Continuous
 62
     7
370
     0
100
AcDbLine
 10
41.9584433063
 20
43.4511874259
 30
0.0
 11
41.6784433063
 21
43.4511874259
 31
0.0
  0
LINE
  5
8E
330
1F
100
AcDbEntity
  8
0
  6
Continuous
 62
     7
370
     0
100
AcDbLine
 10
41.9584433063
 20
42.7611874259
 30
0.0
 11
41.9584433063
 21
43.4511874259
 31
0.0
  0
LINE
  5
8F
330
1F
100
AcDbEntity
  8
0
  6
Continuous
 62
     7
370
     0
100
AcDbLine
 10
42.1784433063
 20
42.7611874259
 30
0.0
 11
42.4584433063
 21
42.7611874259
 31
0.0
  0
LINE
  5
90
330
1F
100
AcDbEntity
  8
0
  6
Continuous
 62
     7
370
     0
100
AcDbLine
 10
42.1784433063
 20
43.4511874259
 30
0.0
 11
42.1784433063
 21
42.7611874259
 31
0.0
  0
LINE
  5
91
330
1F
100
AcDbEntity
  8
0
  6
Continuous
 62
     7
370
     0
100
AcDbLine
 10
42.4584433063
 20
43.4511874259
 30
0.0
 11
42.1784433063
 21
43.4511874259
 31
0.0
  0
LINE
  5
92
330
1F
100
AcDbEntity
  8
0
  6
Continuous
 62
     7
370
     0
100
AcDbLine
 10
42.4584433063
 20
42.7611874259
 30
0.0
 11
42.4584433063
 21
43.4511874259
 31
0.0
  0
LINE
  5
93
330
1F
100
AcDbEntity
  8
0
  6
Continuous
 62
     7
370
     0
100
AcDbLine
 10
42.6784433063
 20
42.7611874259
 30
0.0
 11
42.9584433063
 21
42.7611874259
 31
0.0
  0
LINE
  5
94
330
1F
100
AcDbEntity
  8
0
  6
Continuous
 62
     7
370
     0
100
AcDbLine
 10
42.6784433063
 20
43.4511874259
 30
0.0
 11
42.6784433063
 21
42.7611874259
 31
0.0
  0
LINE
  5
95
330
1F
100
AcDbEntity
  8
0
  6
Continuous
 62
     7
370
     0
100
AcDbLine
 10
42.9584433063
 20
43.4511874259
 30
0.0
 11
42.6784433063
 21
43.4511874259
 31
0.0
  0
LINE
  5
96
330
1F
100
AcDbEntity
  8
0
  6
Continuous
 62
     7
370
     0
100
AcDbLine
 10
42.9584433063
 20
42.7611874259
 30
0.0
 11
42.9584433063
 21
43.4511874259
 31
0.0
  0
LINE
  5
97
330
1F
100
AcDbEntity
  8
0
  6
Continuous
 62
     7
370
     0
100
AcDbLine
 10
43.1784433063
 20
42.7611874259
 30
0.0
 11
43.4584433063
 21
42.7611874259
 31
0.0
  0
LINE
  5
98
330
1F
100
AcDbEntity
  8
0
  6
Continuous
 62
     7
370
     0
100
AcDbLine
 10
43.1784433063
 20
43.4511874259
 30
0.0
 11
43.1784433063
 21
42.7611874259
 31
0.0
  0
LINE
  5
99
330
1F
100
AcDbEntity
  8
0
  6
Continuous
 62
     7
370
     0
100
AcDbLine
 10
43.4584433063
 20
43.4511874259
 30
0.0
 11
43.1784433063
 21
43.4511874259
 31
0.0
  0
LINE
  5
9A
330
1F
100
AcDbEntity
  8
0
  6
Continuous
 62
     7
370
     0
100
AcDbLine
 10
43.4584433063
 20
42.7611874259
 30
0.0
 11
43.4584433063
 21
43.4511874259
 31
0.0
  0
LINE
  5
9B
330
1F
100
AcDbEntity
  8
0
  6
Continuous
 62
     7
370
     0
100
AcDbLine
 10
43.6784433063
 20
42.7611874259
 30
0.0
 11
43.9584433063
 21
42.7611874259
 31
0.0
  0
LINE
  5
9C
330
1F
100
AcDbEntity
  8
0
  6
Continuous
 62
     7
370
     0
100
AcDbLine
 10
43.6784433063
 20
43.4511874259
 30
0.0
 11
43.6784433063
 21
42.7611874259
 31
0.0
  0
LINE
  5
9D
330
1F
100
AcDbEntity
  8
0
  6
Continuous
 62
     7
370
     0
100
AcDbLine
 10
43.9584433063
 20
43.4511874259
 30
0.0
 11
43.6784433063
 21
43.4511874259
 31
0.0
  0
LINE
  5
9E
330
1F
100
AcDbEntity
  8
0
  6
Continuous
 62
     7
370
     0
100
AcDbLine
 10
43.9584433063
 20
42.7611874259
 30
0.0
 11
43.9584433063
 21
43.4511874259
 31
0.0
  0
LINE
  5
9F
330
1F
100
AcDbEntity
  8
0
  6
Continuous
 62
     7
370
     0
100
AcDbLine
 10
44.1784433063
 20
42.7611874259
 30
0.0
 11
44.4584433063
 21
42.7611874259
 31
0.0
  0
LINE
  5
A0
330
1F
100
AcDbEntity
  8
0
  6
Continuous
 62
     7
370
     0
100
AcDbLine
 10
44.1784433063
 20
43.4511874259
 30
0.0
 11
44.1784433063
 21
42.7611874259
 31
0.0
  0
LINE
  5
A1
330
1F
100
AcDbEntity
  8
0
  6
Continuous
 62
     7
370
     0
100
AcDbLine
 10
44.4584433063
 20
43.4511874259
 30
0.0
 11
44.1784433063
 21
43.4511874259
 31
0.0
  0
LINE
  5
A2
330
1F
100
AcDbEntity
  8
0
  6
Continuous
 62
     7
370
     0
100
AcDbLine
 10
44.4584433063
 20
42.7611874259
 30
0.0
 11
44.4584433063
 21
43.4511874259
 31
0.0
  0
LINE
  5
A3
330
1F
100
AcDbEntity
  8
0
  6
Continuous
 62
     7
370
     0
100
AcDbLine
 10
44.6784433063
 20
42.7611874259
 30
0.0
 11
44.9584433063
 21
42.7611874259
 31
0.0
  0
LINE
  5
A4
330
1F
100
AcDbEntity
  8
0
  6
Continuous
 62
     7
370
     0
100
AcDbLine
 10
44.6784433063
 20
43.4511874259
 30
0.0
 11
44.6784433063
 21
42.7611874259
 31
0.0
  0
LINE
  5
A5
330
1F
100
AcDbEntity
  8
0
  6
Continuous
 62
     7
370
     0
100
AcDbLine
 10
44.9584433063
 20
43.4511874259
 30
0.0
 11
44.6784433063
 21
43.4511874259
 31
0.0
  0
LINE
  5
A6
330
1F
100
AcDbEntity
  8
0
  6
Continuous
 62
     7
370
     0
100
AcDbLine
 10
44.9584433063
 20
42.7611874259
 30
0.0
 11
44.9584433063
 21
43.4511874259
 31
0.0
  0
LINE
  5
A7
330
1F
100
AcDbEntity
  8
0
  6
Continuous
 62
     7
370
     0
100
AcDbLine
 10
45.1784433063
 20
42.7611874259
 30
0.0
 11
45.4584433063
 21
42.7611874259
 31
0.0
  0
LINE
  5
A8
330
1F
100
AcDbEntity
  8
0
  6
Continuous
 62
     7
370
     0
100
AcDbLine
 10
45.1784433063
 20
43.4511874259
 30
0.0
 11
45.1784433063
 21
42.7611874259
 31
0.0
  0
LINE
  5
A9
330
1F
100
AcDbEntity
  8
0
  6
Continuous
 62
     7
370
     0
100
AcDbLine
 10
45.4584433063
 20
43.4511874259
 30
0.0
 11
45.1784433063
 21
43.4511874259
 31
0.0
  0
LINE
  5
AA
330
1F
100
AcDbEntity
  8
0
  6
Continuous
 62
     7
370
     0
100
AcDbLine
 10
45.4584433063
 20
42.7611874259
 30
0.0
 11
45.4584433063
 21
43.4511874259
 31
0.0
  0
LINE
  5
AB
330
1F
100
AcDbEntity
  8
0
  6
Continuous
 62
     7
370
     0
100
AcDbLine
 10
45.6784433063
 20
42.7611874259
 30
0.0
 11
45.9584433063
 21
42.7611874259
 31
0.0
  0
LINE
  5
AC
330
1F
100
AcDbEntity
  8
0
  6
Continuous
 62
     7
370
     0
100
AcDbLine
 10
45.6784433063
 20
43.4511874259
 30
0.0
 11
45.6784433063
 21
42.7611874259
 31
0.0
  0
LINE
  5
AD
330
1F
100
AcDbEntity
  8
0
  6
Continuous
 62
     7
370
     0
100
AcDbLine
 10
45.9584433063
 20
43.4511874259
 30
0.0
 11
45.6784433063
 21
43.4511874259
 31
0.0
  0
LINE
  5
AE
330
1F
100
AcDbEntity
  8
0
  6
Continuous
 62
     7
370
     0
100
AcDbLine
 10
45.9584433063
 20
42.7611874259
 30
0.0
 11
45.9584433063
 21
43.4511874259
 31
0.0
  0
LINE
  5
AF
330
1F
100
AcDbEntity
  8
0
  6
Continuous
 62
     7
370
     0
100
AcDbLine
 10
46.1784433063
 20
42.7611874259
 30
0.0
 11
46.4584433063
 21
42.7611874259
 31
0.0
  0
LINE
  5
B0
330
1F
100
AcDbEntity
  8
0
  6
Continuous
 62
     7
370
     0
100
AcDbLine
 10
46.1784433063
 20
43.4511874259
 30
0.0
 11
46.1784433063
 21
42.7611874259
 31
0.0
  0
LINE
  5
B1
330
1F
100
AcDbEntity
  8
0
  6
Continuous
 62
     7
370
     0
100
AcDbLine
 10
46.4584433063
 20
43.4511874259
 30
0.0
 11
46.1784433063
 21
43.4511874259
 31
0.0
  0
LINE
  5
B2
330
1F
100
AcDbEntity
  8
0
  6
Continuous
 62
     7
370
     0
100
AcDbLine
 10
46.4584433063
 20
42.7611874259
 30
0.0
 11
46.4584433063
 21
43.4511874259
 31
0.0
  0
LINE
  5
B3
330
1F
100
AcDbEntity
  8
0
  6
Continuous
 62
     7
370
     0
100
AcDbLine
 10
46.6784433063
 20
42.7611874259
 30
0.0
 11
46.9584433063
 21
42.7611874259
 31
0.0
  0
LINE
  5
B4
330
1F
100
AcDbEntity
  8
0
  6
Continuous
 62
     7
370
     0
100
AcDbLine
 10
46.6784433063
 20
43.4511874259
 30
0.0
 11
46.6784433063
 21
42.7611874259
 31
0.0
  0
LINE
  5
B5
330
1F
100
AcDbEntity
  8
0
  6
Continuous
 62
     7
370
     0
100
AcDbLine
 10
46.9584433063
 20
43.4511874259
 30
0.0
 11
46.6784433063
 21
43.4511874259
 31
0.0
  0
LINE
  5
B6
330
1F
100
AcDbEntity
  8
0
  6
Continuous
 62
     7
370
     0
100
AcDbLine
 10
46.9584433063
 20
42.7611874259
 30
0.0
 11
46.9584433063
 21
43.4511874259
 31
0.0
  0
LINE
  5
B7
330
1F
100
AcDbEntity
  8
0
  6
Continuous
 62
     7
370
     0
100
AcDbLine
 10
41.4584433063
 20
36.0911874259
 30
0.0
 11
41.1784433063
 21
36.0911874259
 31
0.0
  0
LINE
  5
B8
330
1F
100
AcDbEntity
  8
0
  6
Continuous
 62
     7
370
     0
100
AcDbLine
 10
41.1784433063
 20
36.0911874259
 30
0.0
 11
41.1784433063
 21
36.7811874259
 31
0.0
  0
LINE
  5
B9
330
1F
100
AcDbEntity
  8
0
  6
Continuous
 62
     7
370
     0
100
AcDbLine
 10
41.1784433063
 20
36.7811874259
 30
0.0
 11
41.4584433063
 21
36.7811874259
 31
0.0
  0
LINE
  5
BA
330
1F
100
AcDbEntity
  8
0
  6
Continuous
 62
     7
370
     0
100
AcDbLine
 10
41.4584433063
 20
36.7811874259
 30
0.0
 11
41.4584433063
 21
36.0911874259
 31
0.0
  0
LINE
  5
BB
330
1F
100
AcDbEntity
  8
0
  6
Continuous
 62
     7
370
     0
100
AcDbLine
 10
41.9584433063
 20
36.0911874259
 30
0.0
 11
41.6784433063
 21
36.0911874259
 31
0.0
  0
LINE
  5
BC
330
1F
100
AcDbEntity
  8
0
  6
Continuous
 62
     7
370
     0
100
AcDbLine
 10
41.6784433063
 20
36.0911874259
 30
0.0
 11
41.6784433063
 21
36.7811874259
 31
0.0
  0
LINE
  5
BD
330
1F
100
AcDbEntity
  8
0
  6
Continuous
 62
     7
370
     0
100
AcDbLine
 10
41.6784433063
 20
36.7811874259
 30
0.0
 11
41.9584433063
 21
36.7811874259
 31
0.0
  0
LINE
  5
BE
330
1F
100
AcDbEntity
  8
0
  6
Continuous
 62
     7
370
     0
100
AcDbLine
 10
41.9584433063
 20
36.7811874259
 30
0.0
 11
41.9584433063
 21
36.0911874259
 31
0.0
  0
LINE
  5
BF
330
1F
100
AcDbEntity
  8
0
  6
Continuous
 62
     7
370
     0
100
AcDbLine
 10
42.4584433063
 20
36.0911874259
 30
0.0
 11
42.1784433063
 21
36.0911874259
 31
0.0
  0
LINE
  5
C0
330
1F
100
AcDbEntity
  8
0
  6
Continuous
 62
     7
370
     0
100
AcDbLine
 10
42.1784433063
 20
36.0911874259
 30
0.0
 11
42.1784433063
 21
36.7811874259
 31
0.0
  0
LINE
  5
C1
330
1F
100
AcDbEntity
  8
0
  6
Continuous
 62
     7
370
     0
100
AcDbLine
 10
42.1784433063
 20
36.7811874259
 30
0.0
 11
42.4584433063
 21
36.7811874259
 31
0.0
  0
LINE
  5
C2
330
1F
100
AcDbEntity
  8
0
  6
Continuous
 62
     7
370
     0
100
AcDbLine
 10
42.4584433063
 20
36.7811874259
 30
0.0
 11
42.4584433063
 21
36.0911874259
 31
0.0
  0
LINE
  5
C3
330
1F
100
AcDbEntity
  8
0
  6
Continuous
 62
     7
370
     0
100
AcDbLine
 10
42.9584433063
 20
36.0911874259
 30
0.0
 11
42.6784433063
 21
36.0911874259
 31
0.0
  0
LINE
  5
C4
330
1F
100
AcDbEntity
  8
0
  6
Continuous
 62
     7
370
     0
100
AcDbLine
 10
42.6784433063
 20
36.0911874259
 30
0.0
 11
42.6784433063
 21
36.7811874259
 31
0.0
  0
LINE
  5
C5
330
1F
100
AcDbEntity
  8
0
  6
Continuous
 62
     7
370
     0
100
AcDbLine
 10
42.6784433063
 20
36.7811874259
 30
0.0
 11
42.9584433063
 21
36.7811874259
 31
0.0
  0
LINE
  5
C6
330
1F
100
AcDbEntity
  8
0
  6
Continuous
 62
     7
370
     0
100
AcDbLine
 10
42.9584433063
 20
36.7811874259
 30
0.0
 11
42.9584433063
 21
36.0911874259
 31
0.0
  0
LINE
  5
C7
330
1F
100
AcDbEntity
  8
0
  6
Continuous
 62
     7
370
     0
100
AcDbLine
 10
43.4584433063
 20
36.0911874259
 30
0.0
 11
43.1784433063
 21
36.0911874259
 31
0.0
  0
LINE
  5
C8
330
1F
100
AcDbEntity
  8
0
  6
Continuous
 62
     7
370
     0
100
AcDbLine
 10
43.1784433063
 20
36.0911874259
 30
0.0
 11
43.1784433063
 21
36.7811874259
 31
0.0
  0
LINE
  5
C9
330
1F
100
AcDbEntity
  8
0
  6
Continuous
 62
     7
370
     0
100
AcDbLine
 10
43.1784433063
 20
36.7811874259
 30
0.0
 11
43.4584433063
 21
36.7811874259
 31
0.0
  0
LINE
  5
CA
330
1F
100
AcDbEntity
  8
0
  6
Continuous
 62
     7
370
     0
100
AcDbLine
 10
43.4584433063
 20
36.7811874259
 30
0.0
 11
43.4584433063
 21
36.0911874259
 31
0.0
  0
LINE
  5
CB
330
1F
100
AcDbEntity
  8
0
  6
Continuous
 62
     7
370
     0
100
AcDbLine
 10
43.9584433063
 20
36.0911874259
 30
0.0
 11
43.6784433063
 21
36.0911874259
 31
0.0
  0
LINE
  5
CC
330
1F
100
AcDbEntity
  8
0
  6
Continuous
 62
     7
370
     0
100
AcDbLine
 10
43.6784433063
 20
36.0911874259
 30
0.0
 11
43.6784433063
 21
36.7811874259
 31
0.0
  0
LINE
  5
CD
330
1F
100
AcDbEntity
  8
0
  6
Continuous
 62
     7
370
     0
100
AcDbLine
 10
43.6784433063
 20
36.7811874259
 30
0.0
 11
43.9584433063
 21
36.7811874259
 31
0.0
  0
LINE
  5
CE
330
1F
100
AcDbEntity
  8
0
  6
Continuous
 62
     7
370
     0
100
AcDbLine
 10
43.9584433063
 20
36.7811874259
 30
0.0
 11
43.9584433063
 21
36.0911874259
 31
0.0
  0
LINE
  5
CF
330
1F
100
AcDbEntity
  8
0
  6
Continuous
 62
     7
370
     0
100
AcDbLine
 10
44.4584433063
 20
36.0911874259
 30
0.0
 11
44.1784433063
 21
36.0911874259
 31
0.0
  0
LINE
  5
D0
330
1F
100
AcDbEntity
  8
0
  6
Continuous
 62
     7
370
     0
100
AcDbLine
 10
44.1784433063
 20
36.0911874259
 30
0.0
 11
44.1784433063
 21
36.7811874259
 31
0.0
  0
LINE
  5
D1
330
1F
100
AcDbEntity
  8
0
  6
Continuous
 62
     7
370
     0
100
AcDbLine
 10
44.1784433063
 20
36.7811874259
 30
0.0
 11
44.4584433063
 21
36.7811874259
 31
0.0
  0
LINE
  5
D2
330
1F
100
AcDbEntity
  8
0
  6
Continuous
 62
     7
370
     0
100
AcDbLine
 10
44.4584433063
 20
36.7811874259
 30
0.0
 11
44.4584433063
 21
36.0911874259
 31
0.0
  0
LINE
  5
D3
330
1F
100
AcDbEntity
  8
0
  6
Continuous
 62
     7
370
     0
100
AcDbLine
 10
44.9584433063
 20
36.0911874259
 30
0.0
 11
44.6784433063
 21
36.0911874259
 31
0.0
  0
LINE
  5
D4
330
1F
100
AcDbEntity
  8
0
  6
Continuous
 62
     7
370
     0
100
AcDbLine
 10
44.6784433063
 20
36.0911874259
 30
0.0
 11
44.6784433063
 21
36.7811874259
 31
0.0
  0
LINE
  5
D5
330
1F
100
AcDbEntity
  8
0
  6
Continuous
 62
     7
370
     0
100
AcDbLine
 10
44.6784433063
 20
36.7811874259
 30
0.0
 11
44.9584433063
 21
36.7811874259
 31
0.0
  0
LINE
  5
D6
330
1F
100
AcDbEntity
  8
0
  6
Continuous
 62
     7
370
     0
100
AcDbLine
 10
44.9584433063
 20
36.7811874259
 30
0.0
 11
44.9584433063
 21
36.0911874259
 31
0.0
  0
LINE
  5
D7
330
1F
100
AcDbEntity
  8
0
  6
Continuous
 62
     7
370
     0
100
AcDbLine
 10
45.4584433063
 20
36.0911874259
 30
0.0
 11
45.1784433063
 21
36.0911874259
 31
0.0
  0
LINE
  5
D8
330
1F
100
AcDbEntity
  8
0
  6
Continuous
 62
     7
370
     0
100
AcDbLine
 10
45.1784433063
 20
36.0911874259
 30
0.0
 11
45.1784433063
 21
36.7811874259
 31
0.0
  0
LINE
  5
D9
330
1F
100
AcDbEntity
  8
0
  6
Continuous
 62
     7
370
     0
100
AcDbLine
 10
45.1784433063
 20
36.7811874259
 30
0.0
 11
45.4584433063
 21
36.7811874259
 31
0.0
  0
LINE
  5
DA
330
1F
100
AcDbEntity
  8
0
  6
Continuous
 62
     7
370
     0
100
AcDbLine
 10
45.4584433063
 20
36.7811874259
 30
0.0
 11
45.4584433063
 21
36.0911874259
 31
0.0
  0
LINE
  5
DB
330
1F
100
AcDbEntity
  8
0
  6
Continuous
 62
     7
370
     0
100
AcDbLine
 10
45.9584433063
 20
36.0911874259
 30
0.0
 11
45.6784433063
 21
36.0911874259
 31
0.0
  0
LINE
  5
DC
330
1F
100
AcDbEntity
  8
0
  6
Continuous
 62
     7
370
     0
100
AcDbLine
 10
45.6784433063
 20
36.0911874259
 30
0.0
 11
45.6784433063
 21
36.7811874259
 31
0.0
  0
LINE
  5
DD
330
1F
100
AcDbEntity
  8
0
  6
Continuous
 62
     7
370
     0
100
AcDbLine
 10
45.6784433063
 20
36.7811874259
 30
0.0
 11
45.9584433063
 21
36.7811874259
 31
0.0
  0
LINE
  5
DE
330
1F
100
AcDbEntity
  8
0
  6
Continuous
 62
     7
370
     0
100
AcDbLine
 10
45.9584433063
 20
36.7811874259
 30
0.0
 11
45.9584433063
 21
36.0911874259
 31
0.0
  0
LINE
  5
DF
330
1F
100
AcDbEntity
  8
0
  6
Continuous
 62
     7
370
     0
100
AcDbLine
 10
46.4584433063
 20
36.0911874259
 30
0.0
 11
46.1784433063
 21
36.0911874259
 31
0.0
  0
LINE
  5
E0
330
1F
100
AcDbEntity
  8
0
  6
Continuous
 62
     7
370
     0
100
AcDbLine
 10
46.1784433063
 20
36.0911874259
 30
0.0
 11
46.1784433063
 21
36.7811874259
 31
0.0
  0
LINE
  5
E1
330
1F
100
AcDbEntity
  8
0
  6
Continuous
 62
     7
370
     0
100
AcDbLine
 10
46.1784433063
 20
36.7811874259
 30
0.0
 11
46.4584433063
 21
36.7811874259
 31
0.0
  0
LINE
  5
E2
330
1F
100
AcDbEntity
  8
0
  6
Continuous
 62
     7
370
     0
100
AcDbLine
 10
46.4584433063
 20
36.7811874259
 30
0.0
 11
46.4584433063
 21
36.0911874259
 31
0.0
  0
LINE
  5
E3
330
1F
100
AcDbEntity
  8
0
  6
Continuous
 62
     7
370
     0
100
AcDbLine
 10
46.9584433063
 20
36.0911874259
 30
0.0
 11
46.6784433063
 21
36.0911874259
 31
0.0
  0
LINE
  5
E4
330
1F
100
AcDbEntity
  8
0
  6
Continuous
 62
     7
370
     0
100
AcDbLine
 10
46.6784433063
 20
36.0911874259
 30
0.0
 11
46.6784433063
 21
36.7811874259
 31
0.0
  0
LINE
  5
E5
330
1F
100
AcDbEntity
  8
0
  6
Continuous
 62
     7
370
     0
100
AcDbLine
 10
46.6784433063
 20
36.7811874259
 30
0.0
 11
46.9584433063
 21
36.7811874259
 31
0.0
  0
LINE
  5
E6
330
1F
100
AcDbEntity
  8
0
  6
Continuous
 62
     7
370
     0
100
AcDbLine
 10
46.9584433063
 20
36.7811874259
 30
0.0
 11
46.9584433063
 21
36.0911874259
 31
0.0
  0
LINE
  5
E7
330
1F
100
AcDbEntity
  8
0
  6
Continuous
 62
     7
370
     0
100
AcDbLine
 10
47.7484433063
 20
37.8811874259
 30
0.0
 11
47.0584433063
 21
37.8811874259
 31
0.0
  0
LINE
  5
E8
330
1F
100
AcDbEntity
  8
0
  6
Continuous
 62
     7
370
     0
100
AcDbLine
 10
47.0584433063
 20
37.8811874259
 30
0.0
 11
47.0584433063
 21
38.1611874259
 31
0.0
  0
LINE
  5
E9
330
1F
100
AcDbEntity
  8
0
  6
Continuous
 62
     7
370
     0
100
AcDbLine
 10
47.0584433063
 20
38.1611874259
 30
0.0
 11
47.7484433063
 21
38.1611874259
 31
0.0
  0
LINE
  5
EA
330
1F
100
AcDbEntity
  8
0
  6
Continuous
 62
     7
370
     0
100
AcDbLine
 10
47.7484433063
 20
38.1611874259
 30
0.0
 11
47.7484433063
 21
37.8811874259
 31
0.0
  0
LINE
  5
EB
330
1F
100
AcDbEntity
  8
0
  6
Continuous
 62
     7
370
     0
100
AcDbLine
 10
47.0584433063
 20
38.6611874259
 30
0.0
 11
47.7484433063
 21
38.6611874259
 31
0.0
  0
LINE
  5
EC
330
1F
100
AcDbEntity
  8
0
  6
Continuous
 62
     7
370
     0
100
AcDbLine
 10
47.7484433063
 20
38.6611874259
 30
0.0
 11
47.7484433063
 21
38.3811874259
 31
0.0
  0
LINE
  5
ED
330
1F
100
AcDbEntity
  8
0
  6
Continuous
 62
     7
370
     0
100
AcDbLine
 10
47.7484433063
 20
38.3811874259
 30
0.0
 11
47.0584433063
 21
38.3811874259
 31
0.0
  0
LINE
  5
EE
330
1F
100
AcDbEntity
  8
0
  6
Continuous
 62
     7
370
     0
100
AcDbLine
 10
47.0584433063
 20
38.3811874259
 30
0.0
 11
47.0584433063
 21
38.6611874259
 31
0.0
  0
LINE
  5
EF
330
1F
100
AcDbEntity
  8
0
  6
Continuous
 62
     7
370
     0
100
AcDbLine
 10
40.3884433063
 20
38.8811874259
 30
0.0
 11
41.0784433063
 21
38.8811874259
 31
0.0
  0
LINE
  5
F0
330
1F
100
AcDbEntity
  8
0
  6
Continuous
 62
     7
370
     0
100
AcDbLine
 10
40.3884433063
 20
39.1611874259
 30
0.0
 11
40.3884433063
 21
38.8811874259
 31
0.0
  0
LINE
  5
F1
330
1F
100
AcDbEntity
  8
0
  6
Continuous
 62
     7
370
     0
100
AcDbLine
 10
41.0784433063
 20
39.1611874259
 30
0.0
 11
40.3884433063
 21
39.1611874259
 31
0.0
  0
LINE
  5
F2
330
1F
100
AcDbEntity
  8
0
  6
Continuous
 62
     7
370
     0
100
AcDbLine
 10
41.0784433063
 20
38.8811874259
 30
0.0
 11
41.0784433063
 21
39.1611874259
 31
0.0
  0
LINE
  5
F3
330
1F
100
AcDbEntity
  8
0
  6
Continuous
 62
     7
370
     0
100
AcDbLine
 10
40.3884433063
 20
39.3811874259
 30
0.0
 11
41.0784433063
 21
39.3811874259
 31
0.0
  0
LINE
  5
F4
330
1F
100
AcDbEntity
  8
0
  6
Continuous
 62
     7
370
     0
100
AcDbLine
 10
40.3884433063
 20
39.6611874259
 30
0.0
 11
40.3884433063
 21
39.3811874259
 31
0.0
  0
LINE
  5
F5
330
1F
100
AcDbEntity
  8
0
  6
Continuous
 62
     7
370
     0
100
AcDbLine
 10
41.0784433063
 20
39.6611874259
 30
0.0
 11
40.3884433063
 21
39.6611874259
 31
0.0
  0
LINE
  5
F6
330
1F
100
AcDbEntity
  8
0
  6
Continuous
 62
     7
370
     0
100
AcDbLine
 10
41.0784433063
 20
39.3811874259
 30
0.0
 11
41.0784433063
 21
39.6611874259
 31
0.0
  0
LINE
  5
F7
330
1F
100
AcDbEntity
  8
0
  6
Continuous
 62
     7
370
     0
100
AcDbLine
 10
40.3884433063
 20
39.8811874259
 30
0.0
 11
41.0784433063
 21
39.8811874259
 31
0.0
  0
LINE
  5
F8
330
1F
100
AcDbEntity
  8
0
  6
Continuous
 62
     7
370
     0
100
AcDbLine
 10
40.3884433063
 20
40.1611874259
 30
0.0
 11
40.3884433063
 21
39.8811874259
 31
0.0
  0
LINE
  5
F9
330
1F
100
AcDbEntity
  8
0
  6
Continuous
 62
     7
370
     0
100
AcDbLine
 10
41.0784433063
 20
40.1611874259
 30
0.0
 11
40.3884433063
 21
40.1611874259
 31
0.0
  0
LINE
  5
FA
330
1F
100
AcDbEntity
  8
0
  6
Continuous
 62
     7
370
     0
100
AcDbLine
 10
41.0784433063
 20
39.8811874259
 30
0.0
 11
41.0784433063
 21
40.1611874259
 31
0.0
  0
LINE
  5
FB
330
1F
100
AcDbEntity
  8
0
  6
Continuous
 62
     7
370
     0
100
AcDbLine
 10
40.3884433063
 20
40.3811874259
 30
0.0
 11
41.0784433063
 21
40.3811874259
 31
0.0
  0
LINE
  5
FC
330
1F
100
AcDbEntity
  8
0
  6
Continuous
 62
     7
370
     0
100
AcDbLine
 10
40.3884433063
 20
40.6611874259
 30
0.0
 11
40.3884433063
 21
40.3811874259
 31
0.0
  0
LINE
  5
FD
330
1F
100
AcDbEntity
  8
0
  6
Continuous
 62
     7
370
     0
100
AcDbLine
 10
41.0784433063
 20
40.6611874259
 30
0.0
 11
40.3884433063
 21
40.6611874259
 31
0.0
  0
LINE
  5
FE
330
1F
100
AcDbEntity
  8
0
  6
Continuous
 62
     7
370
     0
100
AcDbLine
 10
41.0784433063
 20
40.3811874259
 30
0.0
 11
41.0784433063
 21
40.6611874259
 31
0.0
  0
LINE
  5
FF
330
1F
100
AcDbEntity
  8
0
  6
Continuous
 62
     7
370
     0
100
AcDbLine
 10
40.3884433063
 20
40.8811874259
 30
0.0
 11
41.0784433063
 21
40.8811874259
 31
0.0
  0
LINE
  5
100
330
1F
100
AcDbEntity
  8
0
  6
Continuous
 62
     7
370
     0
100
AcDbLine
 10
40.3884433063
 20
41.1611874259
 30
0.0
 11
40.3884433063
 21
40.8811874259
 31
0.0
  0
LINE
  5
101
330
1F
100
AcDbEntity
  8
0
  6
Continuous
 62
     7
370
     0
100
AcDbLine
 10
41.0784433063
 20
41.1611874259
 30
0.0
 11
40.3884433063
 21
41.1611874259
 31
0.0
  0
LINE
  5
102
330
1F
100
AcDbEntity
  8
0
  6
Continuous
 62
     7
370
     0
100
AcDbLine
 10
41.0784433063
 20
40.8811874259
 30
0.0
 11
41.0784433063
 21
41.1611874259
 31
0.0
  0
LINE
  5
103
330
1F
100
AcDbEntity
  8
0
  6
Continuous
 62
     7
370
     0
100
AcDbLine
 10
40.3884433063
 20
41.3811874259
 30
0.0
 11
41.0784433063
 21
41.3811874259
 31
0.0
  0
LINE
  5
104
330
1F
100
AcDbEntity
  8
0
  6
Continuous
 62
     7
370
     0
100
AcDbLine
 10
40.3884433063
 20
41.6611874259
 30
0.0
 11
40.3884433063
 21
41.3811874259
 31
0.0
  0
LINE
  5
105
330
1F
100
AcDbEntity
  8
0
  6
Continuous
 62
     7
370
     0
100
AcDbLine
 10
41.0784433063
 20
41.6611874259
 30
0.0
 11
40.3884433063
 21
41.6611874259
 31
0.0
  0
LINE
  5
106
330
1F
100
AcDbEntity
  8
0
  6
Continuous
 62
     7
370
     0
100
AcDbLine
 10
41.0784433063
 20
41.3811874259
 30
0.0
 11
41.0784433063
 21
41.6611874259
 31
0.0
  0
LINE
  5
107
330
1F
100
AcDbEntity
  8
0
  6
Continuous
 62
     7
370
     0
100
AcDbLine
 10
40.3884433063
 20
41.8811874259
 30
0.0
 11
41.0784433063
 21
41.8811874259
 31
0.0
  0
LINE
  5
108
330
1F
100
AcDbEntity
  8
0
  6
Continuous
 62
     7
370
     0
100
AcDbLine
 10
40.3884433063
 20
42.1611874259
 30
0.0
 11
40.3884433063
 21
41.8811874259
 31
0.0
  0
LINE
  5
109
330
1F
100
AcDbEntity
  8
0
  6
Continuous
 62
     7
370
     0
100
AcDbLine
 10
41.0784433063
 20
42.1611874259
 30
0.0
 11
40.3884433063
 21
42.1611874259
 31
0.0
  0
LINE
  5
10A
330
1F
100
AcDbEntity
  8
0
  6
Continuous
 62
     7
370
     0
100
AcDbLine
 10
41.0784433063
 20
41.8811874259
 30
0.0
 11
41.0784433063
 21
42.1611874259
 31
0.0
  0
LINE
  5
10B
330
1F
100
AcDbEntity
  8
0
  6
Continuous
 62
     7
370
     0
100
AcDbLine
 10
40.3884433063
 20
42.3811874259
 30
0.0
 11
41.0784433063
 21
42.3811874259
 31
0.0
  0
LINE
  5
10C
330
1F
100
AcDbEntity
  8
0
  6
Continuous
 62
     7
370
     0
100
AcDbLine
 10
40.3884433063
 20
42.6611874259
 30
0.0
 11
40.3884433063
 21
42.3811874259
 31
0.0
  0
LINE
  5
10D
330
1F
100
AcDbEntity
  8
0
  6
Continuous
 62
     7
370
     0
100
AcDbLine
 10
41.0784433063
 20
42.6611874259
 30
0.0
 11
40.3884433063
 21
42.6611874259
 31
0.0
  0
LINE
  5
10E
330
1F
100
AcDbEntity
  8
0
  6
Continuous
 62
     7
370
     0
100
AcDbLine
 10
41.0784433063
 20
42.3811874259
 30
0.0
 11
41.0784433063
 21
42.6611874259
 31
0.0
  0
LINE
  5
10F
330
1F
100
AcDbEntity
  8
0
  6
Continuous
 62
     7
370
     0
100
AcDbLine
 10
47.0584433063
 20
37.1611874259
 30
0.0
 11
47.7484433063
 21
37.1611874259
 31
0.0
  0
LINE
  5
110
330
1F
100
AcDbEntity
  8
0
  6
Continuous
 62
     7
370
     0
100
AcDbLine
 10
47.7484433063
 20
37.1611874259
 30
0.0
 11
47.7484433063
 21
36.8811874259
 31
0.0
  0
LINE
  5
111
330
1F
100
AcDbEntity
  8
0
  6
Continuous
 62
     7
370
     0
100
AcDbLine
 10
47.7484433063
 20
36.8811874259
 30
0.0
 11
47.0584433063
 21
36.8811874259
 31
0.0
  0
LINE
  5
112
330
1F
100
AcDbEntity
  8
0
  6
Continuous
 62
     7
370
     0
100
AcDbLine
 10
47.0584433063
 20
36.8811874259
 30
0.0
 11
47.0584433063
 21
37.1611874259
 31
0.0
  0
LINE
  5
113
330
1F
100
AcDbEntity
  8
0
  6
Continuous
 62
     7
370
     0
100
AcDbLine
 10
47.0584433063
 20
37.6611874259
 30
0.0
 11
47.7484433063
 21
37.6611874259
 31
0.0
  0
LINE
  5
114
330
1F
100
AcDbEntity
  8
0
  6
Continuous
 62
     7
370
     0
100
AcDbLine
 10
47.7484433063
 20
37.6611874259
 30
0.0
 11
47.7484433063
 21
37.3811874259
 31
0.0
  0
LINE
  5
115
330
1F
100
AcDbEntity
  8
0
  6
Continuous
 62
     7
370
     0
100
AcDbLine
 10
47.7484433063
 20
37.3811874259
 30
0.0
 11
47.0584433063
 21
37.3811874259
 31
0.0
  0
LINE
  5
116
330
1F
100
AcDbEntity
  8
0
  6
Continuous
 62
     7
370
     0
100
AcDbLine
 10
47.0584433063
 20
37.3811874259
 30
0.0
 11
47.0584433063
 21
37.6611874259
 31
0.0
  0
LINE
  5
117
330
1F
100
AcDbEntity
  8
0
  6
Continuous
 62
     7
370
     0
100
AcDbLine
 10
47.0584433063
 20
41.3811874259
 30
0.0
 11
47.0584433063
 21
41.6611874259
 31
0.0
  0
LINE
  5
118
330
1F
100
AcDbEntity
  8
0
  6
Continuous
 62
     7
370
     0
100
AcDbLine
 10
47.0584433063
 20
41.6611874259
 30
0.0
 11
47.7484433063
 21
41.6611874259
 31
0.0
  0
LINE
  5
119
330
1F
100
AcDbEntity
  8
0
  6
Continuous
 62
     7
370
     0
100
AcDbLine
 10
47.7484433063
 20
41.6611874259
 30
0.0
 11
47.7484433063
 21
41.3811874259
 31
0.0
  0
LINE
  5
11A
330
1F
100
AcDbEntity
  8
0
  6
Continuous
 62
     7
370
     0
100
AcDbLine
 10
47.7484433063
 20
41.3811874259
 30
0.0
 11
47.0584433063
 21
41.3811874259
 31
0.0
  0
LINE
  5
11B
330
1F
100
AcDbEntity
  8
0
  6
Continuous
 62
     7
370
     0
100
AcDbLine
 10
47.0584433063
 20
42.1611874259
 30
0.0
 11
47.7484433063
 21
42.1611874259
 31
0.0
  0
LINE
  5
11C
330
1F
100
AcDbEntity
  8
0
  6
Continuous
 62
     7
370
     0
100
AcDbLine
 10
47.7484433063
 20
42.1611874259
 30
0.0
 11
47.7484433063
 21
41.8811874259
 31
0.0
  0
LINE
  5
11D
330
1F
100
AcDbEntity
  8
0
  6
Continuous
 62
     7
370
     0
100
AcDbLine
 10
47.7484433063
 20
41.8811874259
 30
0.0
 11
47.0584433063
 21
41.8811874259
 31
0.0
  0
LINE
  5
11E
330
1F
100
AcDbEntity
  8
0
  6
Continuous
 62
     7
370
     0
100
AcDbLine
 10
47.0584433063
 20
41.8811874259
 30
0.0
 11
47.0584433063
 21
42.1611874259
 31
0.0
  0
LINE
  5
11F
330
1F
100
AcDbEntity
  8
0
  6
Continuous
 62
     7
370
     0
100
AcDbLine
 10
47.0584433063
 20
39.1611874259
 30
0.0
 11
47.7484433063
 21
39.1611874259
 31
0.0
  0
LINE
  5
120
330
1F
100
AcDbEntity
  8
0
  6
Continuous
 62
     7
370
     0
100
AcDbLine
 10
47.7484433063
 20
39.1611874259
 30
0.0
 11
47.7484433063
 21
38.8811874259
 31
0.0
  0
LINE
  5
121
330
1F
100
AcDbEntity
  8
0
  6
Continuous
 62
     7
370
     0
100
AcDbLine
 10
47.7484433063
 20
38.8811874259
 30
0.0
 11
47.0584433063
 21
38.8811874259
 31
0.0
  0
LINE
  5
122
330
1F
100
AcDbEntity
  8
0
  6
Continuous
 62
     7
370
     0
100
AcDbLine
 10
47.0584433063
 20
38.8811874259
 30
0.0
 11
47.0584433063
 21
39.1611874259
 31
0.0
  0
LINE
  5
123
330
1F
100
AcDbEntity
  8
0
  6
Continuous
 62
     7
370
     0
100
AcDbLine
 10
47.0584433063
 20
39.6611874259
 30
0.0
 11
47.7484433063
 21
39.6611874259
 31
0.0
  0
LINE
  5
124
330
1F
100
AcDbEntity
  8
0
  6
Continuous
 62
     7
370
     0
100
AcDbLine
 10
47.7484433063
 20
39.6611874259
 30
0.0
 11
47.7484433063
 21
39.3811874259
 31
0.0
  0
LINE
  5
125
330
1F
100
AcDbEntity
  8
0
  6
Continuous
 62
     7
370
     0
100
AcDbLine
 10
47.7484433063
 20
39.3811874259
 30
0.0
 11
47.0584433063
 21
39.3811874259
 31
0.0
  0
LINE
  5
126
330
1F
100
AcDbEntity
  8
0
  6
Continuous
 62
     7
370
     0
100
AcDbLine
 10
47.0584433063
 20
39.3811874259
 30
0.0
 11
47.0584433063
 21
39.6611874259
 31
0.0
  0
LINE
  5
127
330
1F
100
AcDbEntity
  8
0
  6
Continuous
 62
     7
370
     0
100
AcDbLine
 10
47.0584433063
 20
40.1611874259
 30
0.0
 11
47.7484433063
 21
40.1611874259
 31
0.0
  0
LINE
  5
128
330
1F
100
AcDbEntity
  8
0
  6
Continuous
 62
     7
370
     0
100
AcDbLine
 10
47.7484433063
 20
40.1611874259
 30
0.0
 11
47.7484433063
 21
39.8811874259
 31
0.0
  0
LINE
  5
129
330
1F
100
AcDbEntity
  8
0
  6
Continuous
 62
     7
370
     0
100
AcDbLine
 10
47.7484433063
 20
39.8811874259
 30
0.0
 11
47.0584433063
 21
39.8811874259
 31
0.0
  0
LINE
  5
12A
330
1F
100
AcDbEntity
  8
0
  6
Continuous
 62
     7
370
     0
100
AcDbLine
 10
47.0584433063
 20
39.8811874259
 30
0.0
 11
47.0584433063
 21
40.1611874259
 31
0.0
  0
LINE
  5
12B
330
1F
100
AcDbEntity
  8
0
  6
Continuous
 62
     7
370
     0
100
AcDbLine
 10
47.0584433063
 20
40.6611874259
 30
0.0
 11
47.7484433063
 21
40.6611874259
 31
0.0
  0
LINE
  5
12C
330
1F
100
AcDbEntity
  8
0
  6
Continuous
 62
     7
370
     0
100
AcDbLine
 10
47.7484433063
 20
40.6611874259
 30
0.0
 11
47.7484433063
 21
40.3811874259
 31
0.0
  0
LINE
  5
12D
330
1F
100
AcDbEntity
  8
0
  6
Continuous
 62
     7
370
     0
100
AcDbLine
 10
47.7484433063
 20
40.3811874259
 30
0.0
 11
47.0584433063
 21
40.3811874259
 31
0.0
  0
LINE
  5
12E
330
1F
100
AcDbEntity
  8
0
  6
Continuous
 62
     7
370
     0
100
AcDbLine
 10
47.0584433063
 20
40.3811874259
 30
0.0
 11
47.0584433063
 21
40.6611874259
 31
0.0
  0
LINE
  5
12F
330
1F
100
AcDbEntity
  8
0
  6
Continuous
 62
     7
370
     0
100
AcDbLine
 10
47.0584433063
 20
41.1611874259
 30
0.0
 11
47.7484433063
 21
41.1611874259
 31
0.0
  0
LINE
  5
130
330
1F
100
AcDbEntity
  8
0
  6
Continuous
 62
     7
370
     0
100
AcDbLine
 10
47.7484433063
 20
41.1611874259
 30
0.0
 11
47.7484433063
 21
40.8811874259
 31
0.0
  0
LINE
  5
131
330
1F
100
AcDbEntity
  8
0
  6
Continuous
 62
     7
370
     0
100
AcDbLine
 10
47.7484433063
 20
40.8811874259
 30
0.0
 11
47.0584433063
 21
40.8811874259
 31
0.0
  0
LINE
  5
132
330
1F
100
AcDbEntity
  8
0
  6
Continuous
 62
     7
370
     0
100
AcDbLine
 10
47.0584433063
 20
40.8811874259
 30
0.0
 11
47.0584433063
 21
41.1611874259
 31
0.0
  0
LINE
  5
133
330
1F
100
AcDbEntity
  8
0
  6
Continuous
 62
     7
370
     0
100
AcDbLine
 10
41.2784433063
 20
42.5611874259
 30
0.0
 11
41.2784433063
 21
36.9811874259
 31
0.0
  0
LINE
  5
134
330
1F
100
AcDbEntity
  8
0
  6
Continuous
 62
     7
370
     0
100
AcDbLine
 10
46.8584433063
 20
42.5611874259
 30
0.0
 11
41.2784433063
 21
42.5611874259
 31
0.0
  0
LINE
  5
135
330
1F
100
AcDbEntity
  8
0
  6
Continuous
 62
     7
370
     0
100
AcDbLine
 10
46.8584433063
 20
36.9811874259
 30
0.0
 11
46.8584433063
 21
42.5611874259
 31
0.0
  0
LINE
  5
136
330
1F
100
AcDbEntity
  8
0
  6
Continuous
 62
     7
370
     0
100
AcDbLine
 10
41.2784433063
 20
36.9811874259
 30
0.0
 11
46.8584433063
 21
36.9811874259
 31
0.0
  0
LINE
  5
137
330
1F
100
AcDbEntity
  8
0
  6
Continuous
 62
     7
370
     0
100
AcDbLine
 10
47.0584433063
 20
42.6611874259
 30
0.0
 11
47.7484433063
 21
42.6611874259
 31
0.0
  0
LINE
  5
138
330
1F
100
AcDbEntity
  8
0
  6
Continuous
 62
     7
370
     0
100
AcDbLine
 10
47.7484433063
 20
42.6611874259
 30
0.0
 11
47.7484433063
 21
42.3811874259
 31
0.0
  0
LINE
  5
139
330
1F
100
AcDbEntity
  8
0
  6
Continuous
 62
     7
370
     0
100
AcDbLine
 10
47.7484433063
 20
42.3811874259
 30
0.0
 11
47.0584433063
 21
42.3811874259
 31
0.0
  0
LINE
  5
13A
330
1F
100
AcDbEntity
  8
0
  6
Continuous
 62
     7
370
     0
100
AcDbLine
 10
47.0584433063
 20
42.3811874259
 30
0.0
 11
47.0584433063
 21
42.6611874259
 31
0.0
  0
LINE
  5
13B
330
1F
100
AcDbEntity
  8
0
  6
Continuous
 62
     7
370
     0
100
AcDbLine
 10
37.7059433063
 20
33.6586874259
 30
0.0
 11
49.9309433063
 21
33.6586874259
 31
0.0
  0
LINE
  5
13C
330
1F
100
AcDbEntity
  8
0
  6
Continuous
 62
     7
370
     0
100
AcDbLine
 10
37.7059433063
 20
45.8836874259
 30
0.0
 11
37.7059433063
 21
33.6586874259
 31
0.0
  0
LINE
  5
13D
330
1F
100
AcDbEntity
  8
0
  6
Continuous
 62
     7
370
     0
100
AcDbLine
 10
49.9309433063
 20
45.8836874259
 30
0.0
 11
37.7059433063
 21
45.8836874259
 31
0.0
  0
LINE
  5
13E
330
1F
100
AcDbEntity
  8
0
  6
Continuous
 62
     7
370
     0
100
AcDbLine
 10
49.9309433063
 20
33.6586874259
 30
0.0
 11
49.9309433063
 21
45.8836874259
 31
0.0
  0
CIRCLE
  5
13F
330
1F
100
AcDbEntity
  8
0
  6
Continuous
 62
     7
370
     0
100
AcDbCircle
 10
48.6809433063
 20
44.6336874259
 30
0.0
 40
0.8499999999999872
  0
CIRCLE
  5
140
330
1F
100
AcDbEntity
  8
0
  6
Continuous
 62
     7
370
     0
100
AcDbCircle
 10
48.6809433063
 20
34.9086874259
 30
0.0
 40
0.8499999999999872
  0
CIRCLE
  5
141
330
1F
100
AcDbEntity
  8
0
  6
Continuous
 62
     7
370
     0
100
AcDbCircle
 10
38.9559433063
 20
34.9086874259
 30
0.0
 40
0.8499999999999872
  0
CIRCLE
  5
142
330
1F
100
AcDbEntity
  8
0
  6
Continuous
 62
     7
370
     0
100
AcDbCircle
 10
38.9559433063
 20
44.6336874259
 30
0.0
 40
0.8499999999999872
  0
CIRCLE
  5
143
330
1F
100
AcDbEntity
  8
0
  6
Continuous
 62
     7
370
     0
100
AcDbCircle
 10
38.9559433063
 20
37.9086874259
 30
0.0
 40
0.4249999999999901
  0
CIRCLE
  5
144
330
1F
100
AcDbEntity
  8
0
  6
Continuous
 62
     7
370
     0
100
AcDbCircle
 10
48.6809433063
 20
42.6336874259
 30
0.0
 40
0.4249999999999901
  0
ARC
  5
145
330
1F
100
AcDbEntity
  8
0
  6
HIDDEN
 62
     7
370
     0
100
AcDbCircle
 10
48.6809433063
 20
34.9086874259
 30
0.0
 40
2.387599999999999
100
AcDbArc
 50
0.0
 51
58.4301069159
  0
ARC
  5
146
330
1F
100
AcDbEntity
  8
0
  6
HIDDEN
 62
     7
370
     0
100
AcDbCircle
 10
48.6809433063
 20
34.9086874259
 30
0.0
 40
2.387600000000002
100
AcDbArc
 50
211.5698930841
 51
0.0
  0
ARC
  5
147
330
1F
100
AcDbEntity
  8
0
  6
HIDDEN
 62
     7
370
     0
100
AcDbCircle
 10
38.9559433063
 20
34.9086874259
 30
0.0
 40
2.387600000000002
100
AcDbArc
 50
121.5698930841
 51
328.4301069159
  0
ARC
  5
148
330
1F
100
AcDbEntity
  8
0
  6
HIDDEN
 62
     7
370
     0
100
AcDbCircle
 10
38.9559433063
 20
44.6336874259
 30
0.0
 40
2.387600000000003
100
AcDbArc
 50
31.5698930841
 51
238.4301069159
  0
ARC
  5
149
330
1F
100
AcDbEntity
  8
0
  6
HIDDEN
 62
     7
370
     0
100
AcDbCircle
 10
48.6809433063
 20
44.6336874259
 30
0.0
 40
2.387600000000005
100
AcDbArc
 50
0.0
 51
148.4301069159
  0
ARC
  5
14A
330
1F
100
AcDbEntity
  8
0
  6
HIDDEN
 62
     7
370
     0
100
AcDbCircle
 10
48.6809433063
 20
44.6336874259
 30
0.0
 40
2.387600000000001
100
AcDbArc
 50
265.4278939605
 51
274.5721060395
  0
ARC
  5
14B
330
1F
100
AcDbEntity
  8
0
  6
HIDDEN
 62
     7
370
     0
100
AcDbCircle
 10
48.6809433063
 20
44.6336874259
 30
0.0
 40
2.387599999999999
100
AcDbArc
 50
301.5698930841
 51
0.0
  0
ARC
  5
14C
330
1F
100
AcDbEntity
  8
0
  6
HIDDEN
 62
     7
370
     0
100
AcDbCircle
 10
48.6809433063
 20
34.9086874259
 30
0.0
 40
2.387600000000002
100
AcDbArc
 50
58.4301069159
 51
211.5698930841
  0
CIRCLE
  5
14D
330
1F
100
AcDbEntity
  8
0
  6
HIDDEN
 62
     7
370
     0
100
AcDbCircle
 10
48.6809433063
 20
34.9086874259
 30
0.0
 40
0.8635999999999981
  0
ARC
  5
14E
330
1F
100
AcDbEntity
  8
0
  6
HIDDEN
 62
     7
370
     0
100
AcDbCircle
 10
38.9559433063
 20
34.9086874259
 30
0.0
 40
2.387600000000002
100
AcDbArc
 50
0.0
 51
121.5698930841
  0
ARC
  5
14F
330
1F
100
AcDbEntity
  8
0
  6
HIDDEN
 62
     7
370
     0
100
AcDbCircle
 10
38.9559433063
 20
34.9086874259
 30
0.0
 40
2.387600000000001
100
AcDbArc
 50
328.4301069159
 51
0.0
  0
CIRCLE
  5
150
330
1F
100
AcDbEntity
  8
0
  6
HIDDEN
 62
     7
370
     0
100
AcDbCircle
 10
38.9559433063
 20
34.9086874259
 30
0.0
 40
0.863599999999991
  0
CIRCLE
  5
151
330
1F
100
AcDbEntity
  8
0
  6
HIDDEN
 62
     7
370
     0
100
AcDbCircle
 10
38.9559433063
 20
44.6336874259
 30
0.0
 40
0.8635999999999981
  0
ARC
  5
152
330
1F
100
AcDbEntity
  8
0
  6
HIDDEN
 62
     7
370
     0
100
AcDbCircle
 10
38.9559433063
 20
44.6336874259
 30
0.0
 40
2.387600000000003
100
AcDbArc
 50
0.0
 51
31.5698930841
  0
ARC
  5
153
330
1F
100
AcDbEntity
  8
0
  6
HIDDEN
 62
     7
370
     0
100
AcDbCircle
 10
38.9559433063
 20
44.6336874259
 30
0.0
 40
2.387599999999999
100
AcDbArc
 50
238.4301069159
 51
0.0
  0
CIRCLE
  5
154
330
1F
100
AcDbEntity
  8
0
  6
HIDDEN
 62
     7
370
     0
100
AcDbCircle
 10
48.6809433063
 20
44.6336874259
 30
0.0
 40
0.8635999999999981
  0
ARC
  5
155
330
1F
100
AcDbEntity
  8
0
  6
HIDDEN
 62
     7
370
     0
100
AcDbCircle
 10
48.6809433063
 20
44.6336874259
 30
0.0
 40
2.387600000000005
100
AcDbArc
 50
148.4301069159
 51
265.4278939605
  0
ARC
  5
156
330
1F
100
AcDbEntity
  8
0
  6
HIDDEN
 62
     7
370
     0
100
AcDbCircle
 10
48.6809433063
 20
44.6336874259
 30
0.0
 40
2.387600000000001
100
AcDbArc
 50
274.5721060395
 51
301.5698930841
  0
LINE
  5
157
330
1F
100
AcDbEntity
  8
LAYOUT
  6
HIDDEN
100
AcDbLine
 10
27.7059433063
 20
48.7711874259
 30
0.0
 11
34.7059433063
 21
48.7711874259
 31
0.0
  0
LINE
  5
158
330
1F
100
AcDbEntity
  8
LAYOUT
  6
HIDDEN
100
AcDbLine
 10
36.3059433063
 20
50.3711874259
 30
0.0
 11
36.3059433063
 21
50.9086874259
 31
0.0
  0
LINE
  5
159
330
1F
100
AcDbEntity
  8
LAYOUT
  6
HIDDEN
100
AcDbLine
 10
37.9059433063
 20
52.5086874259
 30
0.0
 11
49.7309433063
 21
52.5086874259
 31
0.0
  0
LINE
  5
15A
330
1F
100
AcDbEntity
  8
LAYOUT
  6
HIDDEN
100
AcDbLine
 10
51.3309433063
 20
50.9086874259
 30
0.0
 11
51.3309433063
 21
50.3711874259
 31
0.0
  0
LINE
  5
15B
330
1F
100
AcDbEntity
  8
LAYOUT
  6
HIDDEN
100
AcDbLine
 10
52.9309433063
 20
48.7711874259
 30
0.0
 11
57.9309433063
 21
48.7711874259
 31
0.0
  0
LINE
  5
15C
330
1F
100
AcDbEntity
  8
LAYOUT
  6
HIDDEN
100
AcDbLine
 10
57.9309433063
 20
48.7711874259
 30
0.0
 11
57.9309433063
 21
30.7711874259
 31
0.0
  0
LINE
  5
15D
330
1F
100
AcDbEntity
  8
LAYOUT
  6
HIDDEN
100
AcDbLine
 10
57.9309433063
 20
30.7711874259
 30
0.0
 11
52.9309433063
 21
30.7711874259
 31
0.0
  0
LINE
  5
15E
330
1F
100
AcDbEntity
  8
LAYOUT
  6
HIDDEN
100
AcDbLine
 10
51.3309433063
 20
29.1711874259
 30
0.0
 11
51.3309433063
 21
28.6336874259
 31
0.0
  0
LINE
  5
15F
330
1F
100
AcDbEntity
  8
LAYOUT
  6
HIDDEN
100
AcDbLine
 10
49.7309433063
 20
27.0336874259
 30
0.0
 11
37.9059433063
 21
27.0336874259
 31
0.0
  0
LINE
  5
160
330
1F
100
AcDbEntity
  8
LAYOUT
  6
HIDDEN
100
AcDbLine
 10
36.3059433063
 20
28.6336874259
 30
0.0
 11
36.3059433063
 21
29.1711874259
 31
0.0
  0
LINE
  5
161
330
1F
100
AcDbEntity
  8
LAYOUT
  6
HIDDEN
100
AcDbLine
 10
34.7059433063
 20
30.7711874259
 30
0.0
 11
27.7059433063
 21
30.7711874259
 31
0.0
  0
LINE
  5
162
330
1F
100
AcDbEntity
  8
LAYOUT
  6
HIDDEN
100
AcDbLine
 10
27.7059433063
 20
30.7711874259
 30
0.0
 11
27.7059433063
 21
33.7711874259
 31
0.0
  0
LINE
  5
163
330
1F
100
AcDbEntity
  8
LAYOUT
  6
HIDDEN
100
AcDbLine
 10
27.7059433063
 20
33.7711874259
 30
0.0
 11
34.2059433063
 21
33.7711874259
 31
0.0
  0
LINE
  5
164
330
1F
100
AcDbEntity
  8
LAYOUT
  6
HIDDEN
100
AcDbLine
 10
34.2059433063
 20
33.7711874259
 30
0.0
 11
34.2059433063
 21
45.7711874259
 31
0.0
  0
LINE
  5
165
330
1F
100
AcDbEntity
  8
LAYOUT
  6
HIDDEN
100
AcDbLine
 10
34.2059433063
 20
45.7711874259
 30
0.0
 11
27.7059433063
 21
45.7711874259
 31
0.0
  0
LINE
  5
166
330
1F
100
AcDbEntity
  8
LAYOUT
  6
HIDDEN
100
AcDbLine
 10
27.7059433063
 20
45.7711874259
 30
0.0
 11
27.7059433063
 21
48.7711874259
 31
0.0
  0
LINE
  5
167
330
1F
100
AcDbEntity
  8
LAYOUT
100
AcDbLine
 10
31.7059433063
 20
48.6811874259
 30
0.0
 11
55.9309433063
 21
48.6811874259
 31
0.0
  0
LINE
  5
168
330
1F
100
AcDbEntity
  8
LAYOUT
100
AcDbLine
 10
27.7059433063
 20
45.6211874259
 30
0.0
 11
34.0559433063
 21
45.6211874259
 31
0.0
  0
LINE
  5
169
330
1F
100
AcDbEntity
  8
LAYOUT
100
AcDbLine
 10
27.7059433063
 20
45.6211874259
 30
0.0
 11
27.7059433063
 21
33.9211874259
 31
0.0
  0
LINE
  5
16A
330
1F
100
AcDbEntity
  8
LAYOUT
100
AcDbLine
 10
27.7059433063
 20
33.9211874259
 30
0.0
 11
34.0559433063
 21
33.9211874259
 31
0.0
  0
LINE
  5
16B
330
1F
100
AcDbEntity
  8
LAYOUT
100
AcDbLine
 10
34.0559433063
 20
45.6211874259
 30
0.0
 11
34.0559433063
 21
33.9211874259
 31
0.0
  0
LINE
  5
16C
330
1F
100
AcDbEntity
  8
LAYOUT
100
AcDbLine
 10
57.9309433063
 20
46.6811874259
 30
0.0
 11
57.9309433063
 21
32.8611874259
 31
0.0
  0
LINE
  5
16D
330
1F
100
AcDbEntity
  8
LAYOUT
100
AcDbLine
 10
55.9309433063
 20
30.8611874259
 30
0.0
 11
31.7059433063
 21
30.8611874259
 31
0.0
  0
LINE
  5
16E
330
1F
100
AcDbEntity
  8
LAYOUT
100
AcDbLine
 10
29.7059433063
 20
32.8611874259
 30
0.0
 11
29.7059433063
 21
46.6811874259
 31
0.0
  0
LINE
  5
16F
330
1F
100
AcDbEntity
  8
LAYOUT
100
AcDbLine
 10
30.0290712181
 20
47.7711874259
 30
0.0
 11
32.1209433063
 21
47.7711874259
 31
0.0
  0
LINE
  5
170
330
1F
100
AcDbEntity
  8
LAYOUT
100
AcDbLine
 10
33.7059433063
 20
46.1861874259
 30
0.0
 11
33.7059433063
 21
33.3561874259
 31
0.0
  0
LINE
  5
171
330
1F
100
AcDbEntity
  8
LAYOUT
100
AcDbLine
 10
32.1209433063
 20
31.7711874259
 30
0.0
 11
30.0290712181
 21
31.7711874259
 31
0.0
  0
LINE
  5
172
330
1F
100
AcDbEntity
  8
LAYOUT
100
AcDbLine
 10
37.7059433063
 20
45.8836874259
 30
0.0
 11
49.9309433063
 21
45.8836874259
 31
0.0
  0
LINE
  5
173
330
1F
100
AcDbEntity
  8
LAYOUT
100
AcDbLine
 10
37.7059433063
 20
45.8836874259
 30
0.0
 11
37.7059433063
 21
33.6586874259
 31
0.0
  0
LINE
  5
174
330
1F
100
AcDbEntity
  8
LAYOUT
100
AcDbLine
 10
37.7059433063
 20
33.6586874259
 30
0.0
 11
49.9309433063
 21
33.6586874259
 31
0.0
  0
LINE
  5
175
330
1F
100
AcDbEntity
  8
LAYOUT
100
AcDbLine
 10
49.9309433063
 20
45.8836874259
 30
0.0
 11
49.9309433063
 21
33.6586874259
 31
0.0
  0
ARC
  5
176
330
1F
100
AcDbEntity
  8
LAYOUT
100
AcDbCircle
 10
55.9309433063
 20
46.6811874259
 30
0.0
 40
1.999999999999957
100
AcDbArc
 50
0.0
 51
90.0
  0
ARC
  5
177
330
1F
100
AcDbEntity
  8
LAYOUT
  6
HIDDEN
100
AcDbCircle
 10
37.9059433063
 20
50.9086874259
 30
0.0
 40
1.600000000000001
100
AcDbArc
 50
90.0
 51
180.0
  0
ARC
  5
178
330
1F
100
AcDbEntity
  8
LAYOUT
  6
HIDDEN
100
AcDbCircle
 10
49.7309433063
 20
50.9086874259
 30
0.0
 40
1.599999999999781
100
AcDbArc
 50
360.0
 51
90.0
  0
ARC
  5
179
330
1F
100
AcDbEntity
  8
LAYOUT
  6
HIDDEN
100
AcDbCircle
 10
52.9309433063
 20
50.3711874259
 30
0.0
 40
1.600000000000001
100
AcDbArc
 50
180.0
 51
270.0
  0
ARC
  5
17A
330
1F
100
AcDbEntity
  8
LAYOUT
  6
HIDDEN
100
AcDbCircle
 10
52.9309433063
 20
29.1711874259
 30
0.0
 40
1.599999999999969
100
AcDbArc
 50
90.0
 51
180.0
  0
ARC
  5
17B
330
1F
100
AcDbEntity
  8
LAYOUT
  6
HIDDEN
100
AcDbCircle
 10
49.7309433063
 20
28.6336874259
 30
0.0
 40
1.599999999999575
100
AcDbArc
 50
270.0
 51
0.0
  0
ARC
  5
17C
330
1F
100
AcDbEntity
  8
LAYOUT
  6
HIDDEN
100
AcDbCircle
 10
37.9059433063
 20
28.6336874259
 30
0.0
 40
1.600000000000001
100
AcDbArc
 50
180.0
 51
270.0
  0
ARC
  5
17D
330
1F
100
AcDbEntity
  8
LAYOUT
  6
HIDDEN
100
AcDbCircle
 10
34.7059433063
 20
29.1711874259
 30
0.0
 40
1.599999999999532
100
AcDbArc
 50
360.0
 51
90.0
  0
ARC
  5
17E
330
1F
100
AcDbEntity
  8
LAYOUT
  6
HIDDEN
100
AcDbCircle
 10
34.7059433063
 20
50.3711874259
 30
0.0
 40
1.600000000000009
100
AcDbArc
 50
270.0
 51
0.0
  0
ARC
  5
17F
330
1F
100
AcDbEntity
  8
LAYOUT
100
AcDbCircle
 10
55.9309433063
 20
32.8611874259
 30
0.0
 40
1.999999999999751
100
AcDbArc
 50
270.0
 51
0.0
  0
ARC
  5
180
330
1F
100
AcDbEntity
  8
LAYOUT
100
AcDbCircle
 10
31.7059433063
 20
32.8611874259
 30
0.0
 40
1.999999999999549
100
AcDbArc
 50
180.0
 51
270.0
  0
ARC
  5
181
330
1F
100
AcDbEntity
  8
LAYOUT
100
AcDbCircle
 10
31.7059433063
 20
46.6811874259
 30
0.0
 40
2.000000000000025
100
AcDbArc
 50
90.0
 51
180.0
  0
ARC
  5
182
330
1F
100
AcDbEntity
  8
LAYOUT
100
AcDbCircle
 10
32.1209433063
 20
46.1861874259
 30
0.0
 40
1.585000000000008
100
AcDbArc
 50
0.0
 51
90.0
  0
ARC
  5
183
330
1F
100
AcDbEntity
  8
LAYOUT
100
AcDbCircle
 10
32.1209433063
 20
33.3561874259
 30
0.0
 40
1.584999999999766
100
AcDbArc
 50
270.0
 51
0.0
  0
HATCH
  5
184
330
1F
100
AcDbEntity
  8
LAYOUT
 62
   179
100
AcDbHatch
 10
0.0
 20
0.0
 30
0.0
210
0.0
220
0.0
230
1.0
  2
ANSI31
 70
     0
 71
     0
 91
        2
 92
        0
 93
        8
 72
     2
 10
31.70594330628923
 20
46.68118742585978
 40
2.000000000000014
 50
179.999999999999
 51
269.9999999999994
 73
     0
 72
     1
 10
31.70594330628918
 20
48.68118742585978
 11
55.93094330628919
 21
48.68118742586029
 72
     2
 10
55.93094330628927
 20
46.68118742586034
 40
1.999999999999959
 50
269.9999999999984
 51
360.0000000000008
 73
     0
 72
     1
 10
57.93094330628922
 20
46.68118742586034
 11
57.93094330628951
 21
32.86118742586034
 72
     2
 10
55.93094330628976
 20
32.86118742586005
 40
1.999999999999751
 50
359.9999999999923
 51
450.0000000000067
 73
     0
 72
     1
 10
55.93094330628956
 20
30.8611874258603
 11
31.70594330628956
 21
30.86118742585979
 72
     2
 10
31.70594330628905
 20
32.86118742585934
 40
1.999999999999547
 50
89.99999999998555
 51
180.0000000000132
 73
     0
 72
     1
 10
29.70594330628951
 20
32.86118742585978
 11
29.70594330628921
 21
46.68118742585975
 97
        0
 92
        0
 93
        4
 72
     1
 10
49.9309433062893
 20
45.88368742586004
 11
37.70594330628931
 21
45.88368742586004
 72
     1
 10
37.70594330628931
 20
45.88368742586004
 11
37.70594330628931
 21
33.65868742586003
 72
     1
 10
37.70594330628931
 20
33.65868742586003
 11
49.9309433062893
 21
33.65868742586003
 72
     1
 10
49.9309433062893
 20
33.65868742586003
 11
49.9309433062893
 21
45.88368742586004
 97
        0
 75
     0
 76
     1
 52
0.0
 41
1.0
 77
     0
 78
     1
 53
45.0
 43
0.0
 44
0.0
 45
-2.245064030267288
 46
2.245064030267288
 79
     0
 98
        1
 10
0.0
 20
0.0
  0
HATCH
  5
185
330
1F
100
AcDbEntity
  8
LAYOUT
 62
   179
100
AcDbHatch
 10
0.0
 20
0.0
 30
0.0
210
0.0
220
0.0
230
1.0
  2
ANSI31
 70
     0
 71
     0
 91
        1
 92
        0
 93
        4
 72
     1
 10
27.70594330628924
 20
45.6211874258597
 11
27.70594330628924
 21
33.92118742585983
 72
     1
 10
27.70594330628924
 20
33.92118742585983
 11
34.05594330628932
 21
33.92118742585983
 72
     1
 10
34.05594330628932
 20
33.92118742585983
 11
34.05594330628932
 21
45.6211874258597
 72
     1
 10
34.05594330628932
 20
45.6211874258597
 11
27.70594330628924
 21
45.6211874258597
 97
        0
 75
     0
 76
     1
 52
8.0
 41
0.2
 77
     0
 78
     1
 53
53.00000000000002
 43
0.0
 44
0.0
 45
-0.5071335488800311
 46
0.3821525397015505
 79
     0
 98
        1
 10
0.0
 20
0.0
  0
ENDSEC
  0
SECTION
  2
OBJECTS
  0
DICTIONARY
  5
C
330
0
100
AcDbDictionary
281
     1
  3
ACAD_GROUP
350
D
  3
ACAD_LAYOUT
350
1A
  3
ACAD_MLINESTYLE
350
17
  3
ACAD_PLOTSETTINGS
350
19
  3
ACAD_PLOTSTYLENAME
350
E
  3
ACAD_SCALELIST
350
47
  0
DICTIONARY
  5
D
102
{ACAD_REACTORS
330
C
102
}
330
C
100
AcDbDictionary
281
     1
  0
DICTIONARY
  5
1A
102
{ACAD_REACTORS
330
C
102
}
330
C
100
AcDbDictionary
281
     1
  3
Layout1
350
1E
  3
Layout2
350
26
  3
Model
350
22
  0
DICTIONARY
  5
17
102
{ACAD_REACTORS
330
C
102
}
330
C
100
AcDbDictionary
281
     1
  3
Standard
350
18
  0
DICTIONARY
  5
19
102
{ACAD_REACTORS
330
C
102
}
330
C
100
AcDbDictionary
281
     1
  0
ACDBDICTIONARYWDFLT
  5
E
102
{ACAD_REACTORS
330
C
102
}
330
C
100
AcDbDictionary
281
     1
  3
Normal
350
F
100
AcDbDictionaryWithDefault
340
F
  0
DICTIONARY
  5
47
102
{ACAD_REACTORS
330
C
102
}
330
C
100
AcDbDictionary
281
     1
  3
A0
350
48
  3
A1
350
49
  3
A2
350
4A
  3
A3
350
4B
  3
A4
350
4C
  3
A5
350
4D
  3
A6
350
4E
  3
A7
350
4F
  3
A8
350
50
  3
A9
350
51
  3
B0
350
52
  3
B1
350
53
  3
B2
350
54
  3
B3
350
55
  3
B4
350
56
  3
B5
350
57
  3
B6
350
58
  3
B7
350
59
  3
B8
350
5A
  3
B9
350
5B
  3
C0
350
5C
  3
C1
350
5D
  3
C2
350
5E
  3
C3
350
5F
  3
C4
350
60
  3
C5
350
61
  3
C6
350
62
  3
C7
350
63
  3
C8
350
64
  3
C9
350
65
  3
D0
350
66
  3
D1
350
67
  3
D2
350
68
  0
LAYOUT
  5
1E
102
{ACAD_REACTORS
330
1A
102
}
330
1A
100
AcDbPlotSettings
  1

  2
none_device
  4

  6

 40
0.0
 41
0.0
 42
0.0
 43
0.0
 44
0.0
 45
0.0
 46
0.0
 47
0.0
 48
0.0
 49
0.0
140
0.0
141
0.0
142
1.0
143
1.0
 70
   688
 72
     1
 73
     0
 74
     5
  7

 75
    16
147
1.0
148
0.0
149
0.0
100
AcDbLayout
  1
Layout1
 70
     1
 71
     1
 10
0.0
 20
0.0
 11
420.0
 21
297.0
 12
0.0
 22
0.0
 32
0.0
 14
1.0000000000E+20
 24
1.0000000000E+20
 34
1.0000000000E+20
 15
-1.0000000000E+20
 25
-1.0000000000E+20
 35
-1.0000000000E+20
146
0.0
 13
0.0
 23
0.0
 33
0.0
 16
1.0
 26
0.0
 36
0.0
 17
0.0
 27
1.0
 37
0.0
 76
     0
330
1B
  0
LAYOUT
  5
26
102
{ACAD_REACTORS
330
1A
102
}
330
1A
100
AcDbPlotSettings
  1

  2
none_device
  4

  6

 40
0.0
 41
0.0
 42
0.0
 43
0.0
 44
0.0
 45
0.0
 46
0.0
 47
0.0
 48
0.0
 49
0.0
140
0.0
141
0.0
142
1.0
143
1.0
 70
   688
 72
     1
 73
     0
 74
     5
  7

 75
    16
147
1.0
148
0.0
149
0.0
100
AcDbLayout
  1
Layout2
 70
     1
 71
     2
 10
0.0
 20
0.0
 11
0.0
 21
0.0
 12
0.0
 22
0.0
 32
0.0
 14
0.0
 24
0.0
 34
0.0
 15
0.0
 25
0.0
 35
0.0
146
0.0
 13
0.0
 23
0.0
 33
0.0
 16
1.0
 26
0.0
 36
0.0
 17
0.0
 27
1.0
 37
0.0
 76
     0
330
23
  0
LAYOUT
  5
22
102
{ACAD_REACTORS
330
1A
102
}
330
1A
100
AcDbPlotSettings
  1

  2
none_device
  4
Letter_(8.50_x_11.00_Inches)
  6

 40
6.35
 41
6.35
 42
6.35000508
 43
6.35000508
 44
215.9
 45
279.4
 46
0.0
 47
0.0
 48
0.0
 49
0.0
140
0.0
141
0.0
142
1.0
143
1.0
 70
  1712
 72
     1
 73
     0
 74
     0
  7

 75
     0
147
1.0
148
0.0
149
0.0
100
AcDbLayout
  1
Model
 70
     1
 71
     0
 10
0.0
 20
0.0
 11
93.1333333333
 21
71.9666666667
 12
0.0
 22
0.0
 32
0.0
 14
0.0
 24
0.0
 34
0.0
 15
93.1333333333
 25
71.9666666667
 35
0.0
146
0.0
 13
0.0
 23
0.0
 33
0.0
 16
1.0
 26
0.0
 36
0.0
 17
0.0
 27
1.0
 37
0.0
 76
     0
330
1F
331
29
  0
MLINESTYLE
  5
18
102
{ACAD_REACTORS
330
17
102
}
330
17
100
AcDbMlineStyle
  2
Standard
 70
     0
  3

 62
   256
 51
90.0
 52
90.0
 71
     2
 49
0.5
 62
   256
  6
BYLAYER
 49
-0.5
 62
   256
  6
BYLAYER
  0
ACDBPLACEHOLDER
  5
F
102
{ACAD_REACTORS
330
E
102
}
330
E
  0
SCALE
  5
48
102
{ACAD_REACTORS
330
47
102
}
330
47
100
AcDbScale
 70
     0
300
1:1
140
1.0
141
1.0
290
     1
  0
SCALE
  5
49
102
{ACAD_REACTORS
330
47
102
}
330
47
100
AcDbScale
 70
     0
300
1:2
140
1.0
141
2.0
290
     0
  0
SCALE
  5
4A
102
{ACAD_REACTORS
330
47
102
}
330
47
100
AcDbScale
 70
     0
300
1:4
140
1.0
141
4.0
290
     0
  0
SCALE
  5
4B
102
{ACAD_REACTORS
330
47
102
}
330
47
100
AcDbScale
 70
     0
300
1:5
140
1.0
141
5.0
290
     0
  0
SCALE
  5
4C
102
{ACAD_REACTORS
330
47
102
}
330
47
100
AcDbScale
 70
     0
300
1:8
140
1.0
141
8.0
290
     0
  0
SCALE
  5
4D
102
{ACAD_REACTORS
330
47
102
}
330
47
100
AcDbScale
 70
     0
300
1:10
140
1.0
141
10.0
290
     0
  0
SCALE
  5
4E
102
{ACAD_REACTORS
330
47
102
}
330
47
100
AcDbScale
 70
     0
300
1:16
140
1.0
141
16.0
290
     0
  0
SCALE
  5
4F
102
{ACAD_REACTORS
330
47
102
}
330
47
100
AcDbScale
 70
     0
300
1:20
140
1.0
141
20.0
290
     0
  0
SCALE
  5
50
102
{ACAD_REACTORS
330
47
102
}
330
47
100
AcDbScale
 70
     0
300
1:30
140
1.0
141
30.0
290
     0
  0
SCALE
  5
51
102
{ACAD_REACTORS
330
47
102
}
330
47
100
AcDbScale
 70
     0
300
1:40
140
1.0
141
40.0
290
     0
  0
SCALE
  5
52
102
{ACAD_REACTORS
330
47
102
}
330
47
100
AcDbScale
 70
     0
300
1:50
140
1.0
141
50.0
290
     0
  0
SCALE
  5
53
102
{ACAD_REACTORS
330
47
102
}
330
47
100
AcDbScale
 70
     0
300
1:100
140
1.0
141
100.0
290
     0
  0
SCALE
  5
54
102
{ACAD_REACTORS
330
47
102
}
330
47
100
AcDbScale
 70
     0
300
2:1
140
2.0
141
1.0
290
     0
  0
SCALE
  5
55
102
{ACAD_REACTORS
330
47
102
}
330
47
100
AcDbScale
 70
     0
300
4:1
140
4.0
141
1.0
290
     0
  0
SCALE
  5
56
102
{ACAD_REACTORS
330
47
102
}
330
47
100
AcDbScale
 70
     0
300
8:1
140
8.0
141
1.0
290
     0
  0
SCALE
  5
57
102
{ACAD_REACTORS
330
47
102
}
330
47
100
AcDbScale
 70
     0
300
10:1
140
10.0
141
1.0
290
     0
  0
SCALE
  5
58
102
{ACAD_REACTORS
330
47
102
}
330
47
100
AcDbScale
 70
     0
300
100:1
140
100.0
141
1.0
290
     0
  0
SCALE
  5
59
102
{ACAD_REACTORS
330
47
102
}
330
47
100
AcDbScale
 70
     0
300
1/128" = 1'-0"
140
0.0078125
141
12.0
290
     0
  0
SCALE
  5
5A
102
{ACAD_REACTORS
330
47
102
}
330
47
100
AcDbScale
 70
     0
300
1/64" = 1'-0"
140
0.015625
141
12.0
290
     0
  0
SCALE
  5
5B
102
{ACAD_REACTORS
330
47
102
}
330
47
100
AcDbScale
 70
     0
300
1/32" = 1'-0"
140
0.03125
141
12.0
290
     0
  0
SCALE
  5
5C
102
{ACAD_REACTORS
330
47
102
}
330
47
100
AcDbScale
 70
     0
300
1/16" = 1'-0"
140
0.0625
141
12.0
290
     0
  0
SCALE
  5
5D
102
{ACAD_REACTORS
330
47
102
}
330
47
100
AcDbScale
 70
     0
300
3/32" = 1'-0"
140
0.09375
141
12.0
290
     0
  0
SCALE
  5
5E
102
{ACAD_REACTORS
330
47
102
}
330
47
100
AcDbScale
 70
     0
300
1/8" = 1'-0"
140
0.125
141
12.0
290
     0
  0
SCALE
  5
5F
102
{ACAD_REACTORS
330
47
102
}
330
47
100
AcDbScale
 70
     0
300
3/16" = 1'-0"
140
0.1875
141
12.0
290
     0
  0
SCALE
  5
60
102
{ACAD_REACTORS
330
47
102
}
330
47
100
AcDbScale
 70
     0
300
1/4" = 1'-0"
140
0.25
141
12.0
290
     0
  0
SCALE
  5
61
102
{ACAD_REACTORS
330
47
102
}
330
47
100
AcDbScale
 70
     0
300
3/8" = 1'-0"
140
0.375
141
12.0
290
     0
  0
SCALE
  5
62
102
{ACAD_REACTORS
330
47
102
}
330
47
100
AcDbScale
 70
     0
300
1/2" = 1'-0"
140
0.5
141
12.0
290
     0
  0
SCALE
  5
63
102
{ACAD_REACTORS
330
47
102
}
330
47
100
AcDbScale
 70
     0
300
3/4" = 1'-0"
140
0.75
141
12.0
290
     0
  0
SCALE
  5
64
102
{ACAD_REACTORS
330
47
102
}
330
47
100
AcDbScale
 70
     0
300
1" = 1'-0"
140
1.0
141
12.0
290
     0
  0
SCALE
  5
65
102
{ACAD_REACTORS
330
47
102
}
330
47
100
AcDbScale
 70
     0
300
1-1/2" = 1'-0"
140
1.5
141
12.0
290
     0
  0
SCALE
  5
66
102
{ACAD_REACTORS
330
47
102
}
330
47
100
AcDbScale
 70
     0
300
3" = 1'-0"
140
3.0
141
12.0
290
     0
  0
SCALE
  5
67
102
{ACAD_REACTORS
330
47
102
}
330
47
100
AcDbScale
 70
     0
300
6" = 1'-0"
140
6.0
141
12.0
290
     0
  0
SCALE
  5
68
102
{ACAD_REACTORS
330
47
102
}
330
47
100
AcDbScale
 70
     0
300
1'-0" = 1'-0"
140
12.0
141
12.0
290
     0
  0
ENDSEC
  0
EOF
