  0
SECTION
  2
HEADER
  9
$ACADVER
  1
AC1015
  9
$ACADMAINTVER
 70
     6
  9
$DWGCODEPAGE
  3
ANSI_1252
  9
$INSBASE
 10
0.0
 20
0.0
 30
0.0
  9
$EXTMIN
 10
0.0
 20
0.0
 30
0.0
  9
$EXTMAX
 10
39.9142857143
 20
30.8428571429
 30
0.0
  9
$LIMMIN
 10
0.0
 20
0.0
  9
$LIMMAX
 10
39.9142857143
 20
30.8428571429
  9
$ORTHOMODE
 70
     0
  9
$REGENMODE
 70
     1
  9
$FILLMODE
 70
     1
  9
$QTEXTMODE
 70
     0
  9
$MIRRTEXT
 70
     1
  9
$LTSCALE
 40
0.1428571429
  9
$ATTMODE
 70
     1
  9
$TEXTSIZE
 40
0.503968254
  9
$TRACEWID
 40
1.0
  9
$TEXTSTYLE
  7
Standard
  9
$CLAYER
  8
0
  9
$CELTYPE
  6
ByLayer
  9
$CECOLOR
 62
   256
  9
$CELTSCALE
 40
1.0
  9
$DISPSILH
 70
     0
  9
$DIMSCALE
 40
1.0
  9
$DIMASZ
 40
0.4535714286
  9
$DIMEXO
 40
0.1814285714
  9
$DIMDLI
 40
3.75
  9
$DIMRND
 40
0.0
  9
$DIMDLE
 40
0.0
  9
$DIMEXE
 40
0.4535714286
  9
$DIMTP
 40
0.0
  9
$DIMTM
 40
0.0
  9
$DIMTXT
 40
0.503968254
  9
$DIMCEN
 40
2.5
  9
$DIMTSZ
 40
0.0
  9
$DIMTOL
 70
     0
  9
$DIMLIM
 70
     0
  9
$DIMTIH
 70
     1
  9
$DIMTOH
 70
     1
  9
$DIMSE1
 70
     0
  9
$DIMSE2
 70
     0
  9
$DIMTAD
 70
     0
  9
$DIMZIN
 70
     1
  9
$DIMBLK
  1

  9
$DIMASO
 70
     1
  9
$DIMSHO
 70
     1
  9
$DIMPOST
  1

  9
$DIMAPOST
  1

  9
$DIMALT
 70
     0
  9
$DIMALTD
 70
     3
  9
$DIMALTF
 40
0.0393700787
  9
$DIMLFAC
 40
1.0
  9
$DIMTOFL
 70
     1
  9
$DIMTVP
 40
0.0
  9
$DIMTIX
 70
     0
  9
$DIMSOXD
 70
     0
  9
$DIMSAH
 70
     0
  9
$DIMBLK1
  1

  9
$DIMBLK2
  1

  9
$DIMSTYLE
  2
ISO-25
  9
$DIMCLRD
 70
     0
  9
$DIMCLRE
 70
     0
  9
$DIMCLRT
 70
     0
  9
$DIMTFAC
 40
1.0
  9
$DIMGAP
 40
0.2177142857
  9
$DIMJUST
 70
     0
  9
$DIMSD1
 70
     0
  9
$DIMSD2
 70
     0
  9
$DIMTOLJ
 70
     0
  9
$DIMTZIN
 70
     1
  9
$DIMALTZ
 70
     0
  9
$DIMALTTZ
 70
     0
  9
$DIMUPT
 70
     0
  9
$DIMDEC
 70
     3
  9
$DIMTDEC
 70
     3
  9
$DIMALTU
 70
     2
  9
$DIMALTTD
 70
     3
  9
$DIMTXSTY
  7
Standard
  9
$DIMAUNIT
 70
     0
  9
$DIMADEC
 70
     0
  9
$DIMALTRND
 40
0.0
  9
$DIMAZIN
 70
     0
  9
$DIMDSEP
 70
    44
  9
$DIMATFIT
 70
     3
  9
$DIMFRAC
 70
     0
  9
$DIMLDRBLK
  1

  9
$DIMLUNIT
 70
     2
  9
$DIMLWD
 70
    -2
  9
$DIMLWE
 70
    -2
  9
$DIMTMOVE
 70
     0
  9
$LUNITS
 70
     2
  9
$LUPREC
 70
     2
  9
$SKETCHINC
 40
1.0
  9
$FILLETRAD
 40
10.0
  9
$AUNITS
 70
     0
  9
$AUPREC
 70
     2
  9
$MENU
  1
.
  9
$ELEVATION
 40
0.0
  9
$PELEVATION
 40
0.0
  9
$THICKNESS
 40
0.0
  9
$LIMCHECK
 70
     0
  9
$CHAMFERA
 40
0.0
  9
$CHAMFERB
 40
0.0
  9
$CHAMFERC
 40
0.0
  9
$CHAMFERD
 40
0.0
  9
$SKPOLY
 70
     0
  9
$TDCREATE
 40
2457121.551176262
  9
$TDUCREATE
 40
2457121.759509595
  9
$TDUPDATE
 40
2457121.551179387
  9
$TDUUPDATE
 40
2457121.75951272
  9
$TDINDWG
 40
0.0000000116
  9
$TDUSRTIMER
 40
0.0000000116
  9
$USRTIMER
 70
     1
  9
$ANGBASE
 50
0.0
  9
$ANGDIR
 70
     0
  9
$PDMODE
 70
     0
  9
$PDSIZE
 40
-1.0
  9
$PLINEWID
 40
0.0
  9
$SPLFRAME
 70
     0
  9
$SPLINETYPE
 70
     6
  9
$SPLINESEGS
 70
     8
  9
$HANDSEED
  5
3C5
  9
$SURFTAB1
 70
     6
  9
$SURFTAB2
 70
     6
  9
$SURFTYPE
 70
     6
  9
$SURFU
 70
     6
  9
$SURFV
 70
     6
  9
$UCSBASE
  2

  9
$UCSNAME
  2

  9
$UCSORG
 10
0.0
 20
0.0
 30
0.0
  9
$UCSXDIR
 10
1.0
 20
0.0
 30
0.0
  9
$UCSYDIR
 10
0.0
 20
1.0
 30
0.0
  9
$UCSORTHOREF
  2

  9
$UCSORTHOVIEW
 70
     0
  9
$UCSORGTOP
 10
0.0
 20
0.0
 30
0.0
  9
$UCSORGBOTTOM
 10
0.0
 20
0.0
 30
0.0
  9
$UCSORGLEFT
 10
0.0
 20
0.0
 30
0.0
  9
$UCSORGRIGHT
 10
0.0
 20
0.0
 30
0.0
  9
$UCSORGFRONT
 10
0.0
 20
0.0
 30
0.0
  9
$UCSORGBACK
 10
0.0
 20
0.0
 30
0.0
  9
$PUCSBASE
  2

  9
$PUCSNAME
  2

  9
$PUCSORG
 10
0.0
 20
0.0
 30
0.0
  9
$PUCSXDIR
 10
1.0
 20
0.0
 30
0.0
  9
$PUCSYDIR
 10
0.0
 20
1.0
 30
0.0
  9
$PUCSORTHOREF
  2

  9
$PUCSORTHOVIEW
 70
     0
  9
$PUCSORGTOP
 10
0.0
 20
0.0
 30
0.0
  9
$PUCSORGBOTTOM
 10
0.0
 20
0.0
 30
0.0
  9
$PUCSORGLEFT
 10
0.0
 20
0.0
 30
0.0
  9
$PUCSORGRIGHT
 10
0.0
 20
0.0
 30
0.0
  9
$PUCSORGFRONT
 10
0.0
 20
0.0
 30
0.0
  9
$PUCSORGBACK
 10
0.0
 20
0.0
 30
0.0
  9
$USERI1
 70
     0
  9
$USERI2
 70
     0
  9
$USERI3
 70
     0
  9
$USERI4
 70
     0
  9
$USERI5
 70
     0
  9
$USERR1
 40
0.0
  9
$USERR2
 40
0.0
  9
$USERR3
 40
0.0
  9
$USERR4
 40
0.0
  9
$USERR5
 40
0.0
  9
$WORLDVIEW
 70
     1
  9
$SHADEDGE
 70
     3
  9
$SHADEDIF
 70
    70
  9
$TILEMODE
 70
     1
  9
$MAXACTVP
 70
    64
  9
$PINSBASE
 10
0.0
 20
0.0
 30
0.0
  9
$PLIMCHECK
 70
     0
  9
$PEXTMIN
 10
1.0000000000E+20
 20
1.0000000000E+20
 30
1.0000000000E+20
  9
$PEXTMAX
 10
-1.0000000000E+20
 20
-1.0000000000E+20
 30
-1.0000000000E+20
  9
$PLIMMIN
 10
0.0
 20
0.0
  9
$PLIMMAX
 10
420.0
 20
297.0
  9
$UNITMODE
 70
     0
  9
$VISRETAIN
 70
     1
  9
$PLINEGEN
 70
     0
  9
$PSLTSCALE
 70
     1
  9
$TREEDEPTH
 70
  3020
  9
$CMLSTYLE
  2
Standard
  9
$CMLJUST
 70
     0
  9
$CMLSCALE
 40
20.0
  9
$PROXYGRAPHICS
 70
     1
  9
$MEASUREMENT
 70
     1
  9
$CELWEIGHT
370
    -1
  9
$ENDCAPS
280
     0
  9
$JOINSTYLE
280
     0
  9
$LWDISPLAY
290
     1
  9
$INSUNITS
 70
     4
  9
$HYPERLINKBASE
  1

  9
$STYLESHEET
  1

  9
$XEDIT
290
     1
  9
$CEPSNTYPE
380
     0
  9
$PSTYLEMODE
290
     1
  9
$FINGERPRINTGUID
  2
{F64FC270-0BC3-4113-B748-DEB81A7FBD8F}
  9
$VERSIONGUID
  2
{FAEB1C32-E019-11D5-929B-00C0DF256EC4}
  9
$EXTNAMES
290
     1
  9
$PSVPSCALE
 40
0.0
  9
$OLESTARTUP
290
     0
  0
ENDSEC
  0
SECTION
  2
CLASSES
  0
CLASS
  1
ACDBDICTIONARYWDFLT
  2
AcDbDictionaryWithDefault
  3
ObjectDBX Classes
 90
        0
280
     0
281
     0
  0
CLASS
  1
VISUALSTYLE
  2
AcDbVisualStyle
  3
ObjectDBX Classes
 90
     4095
280
     0
281
     0
  0
CLASS
  1
MATERIAL
  2
AcDbMaterial
  3
ObjectDBX Classes
 90
     1153
280
     0
281
     0
  0
CLASS
  1
SCALE
  2
AcDbScale
  3
ObjectDBX Classes
 90
     1153
280
     0
281
     0
  0
CLASS
  1
SUN
  2
AcDbSun
  3
SCENEOE
 90
     1153
280
     0
281
     0
  0
CLASS
  1
ACDBPLACEHOLDER
  2
AcDbPlaceHolder
  3
ObjectDBX Classes
 90
        0
280
     0
281
     0
  0
CLASS
  1
LAYOUT
  2
AcDbLayout
  3
ObjectDBX Classes
 90
        0
280
     0
281
     0
  0
ENDSEC
  0
SECTION
  2
TABLES
  0
TABLE
  2
VPORT
  5
8
330
0
100
AcDbSymbolTable
 70
     1
  0
VPORT
  5
29
330
8
100
AcDbSymbolTableRecord
100
AcDbViewportTableRecord
  2
*Active
 70
     0
 10
0.0
 20
0.0
 11
1.0
 21
1.0
 12
19.9571428571
 22
15.4214285714
 13
0.0
 23
0.0
 14
10.0
 24
10.0
 15
10.0
 25
10.0
 16
0.0
 26
0.0
 36
1.0
 17
0.0
 27
0.0
 37
0.0
 40
30.8428571429
 41
1.2941176471
 42
50.0
 43
0.0
 44
0.0
 50
0.0
 51
0.0
 71
     0
 72
  2000
 73
     1
 74
     3
 75
     0
 76
     0
 77
     0
 78
     0
281
     0
 65
     1
110
0.0
120
0.0
130
0.0
111
1.0
121
0.0
131
0.0
112
0.0
122
1.0
132
0.0
 79
     0
146
0.0
  0
ENDTAB
  0
TABLE
  2
LTYPE
  5
5
330
0
100
AcDbSymbolTable
 70
     6
  0
LTYPE
  5
14
330
5
100
AcDbSymbolTableRecord
100
AcDbLinetypeTableRecord
  2
ByBlock
 70
     0
  3

 72
    65
 73
     0
 40
0.0
  0
LTYPE
  5
15
330
5
100
AcDbSymbolTableRecord
100
AcDbLinetypeTableRecord
  2
ByLayer
 70
     0
  3

 72
    65
 73
     0
 40
0.0
  0
LTYPE
  5
16
330
5
100
AcDbSymbolTableRecord
100
AcDbLinetypeTableRecord
  2
Continuous
 70
     0
  3
Solid line
 72
    65
 73
     0
 40
0.0
  0
LTYPE
  5
6A
330
5
100
AcDbSymbolTableRecord
100
AcDbLinetypeTableRecord
  2
HIDDEN
 70
     0
  3
Hidden __ __ __ __ __ __ __ __ __ __ __ __ __ __
 72
    65
 73
     2
 40
1.905
 49
1.27
 74
     0
 49
-0.635
 74
     0
  0
LTYPE
  5
6B
330
5
100
AcDbSymbolTableRecord
100
AcDbLinetypeTableRecord
  2
PHANTOM
 70
     0
  3
Phantom ______  __  __  ______  __  __  ______
 72
    65
 73
     6
 40
12.7
 49
6.35
 74
     0
 49
-1.27
 74
     0
 49
1.27
 74
     0
 49
-1.27
 74
     0
 49
1.27
 74
     0
 49
-1.27
 74
     0
  0
LTYPE
  5
6C
330
5
100
AcDbSymbolTableRecord
100
AcDbLinetypeTableRecord
  2
CENTER
 70
     0
  3
Center ____ _ ____ _ ____ _ ____ _ ____ _ ____
 72
    65
 73
     4
 40
10.16
 49
6.35
 74
     0
 49
-1.27
 74
     0
 49
1.27
 74
     0
 49
-1.27
 74
     0
  0
LTYPE
  5
6D
330
5
100
AcDbSymbolTableRecord
100
AcDbLinetypeTableRecord
  2
CENTERX2
 70
     0
  3
Center (2x) ________  __  ________  __  _____
 72
    65
 73
     4
 40
20.32
 49
12.7
 74
     0
 49
-2.54
 74
     0
 49
2.54
 74
     0
 49
-2.54
 74
     0
  0
LTYPE
  5
6E
330
5
100
AcDbSymbolTableRecord
100
AcDbLinetypeTableRecord
  2
DOT2
 70
     0
  3
Dot (.5x) ........................................
 72
    65
 73
     2
 40
0.635
 49
0.0
 74
     0
 49
-0.635
 74
     0
  0
ENDTAB
  0
TABLE
  2
LAYER
  5
2
330
0
100
AcDbSymbolTable
 70
     9
  0
LAYER
  5
10
330
2
100
AcDbSymbolTableRecord
100
AcDbLayerTableRecord
  2
0
 70
     0
 62
     7
  6
Continuous
370
    -3
390
F
  0
LAYER
  5
6F
330
2
100
AcDbSymbolTableRecord
100
AcDbLayerTableRecord
  2
FORMAT
 70
     0
 62
     7
  6
Continuous
370
    -3
390
F
  0
LAYER
  5
70
330
2
100
AcDbSymbolTableRecord
100
AcDbLayerTableRecord
  2
SLD-0
 70
     0
 62
  -179
  6
Continuous
370
    -3
390
F
  0
LAYER
  5
71
330
2
100
AcDbSymbolTableRecord
100
AcDbLayerTableRecord
  2
SLD-DEFPOINTS
 70
     0
 62
  -179
  6
Continuous
370
    -3
390
F
  0
LAYER
  5
72
330
2
100
AcDbSymbolTableRecord
100
AcDbLayerTableRecord
  2
NONE
 70
     0
 62
   179
  6
Continuous
370
    -3
390
F
  0
LAYER
  5
73
330
2
100
AcDbSymbolTableRecord
100
AcDbLayerTableRecord
  2
DIMENSION
 70
     0
 62
   179
  6
Continuous
370
    -3
390
F
  0
LAYER
  5
74
330
2
100
AcDbSymbolTableRecord
100
AcDbLayerTableRecord
  2
SOLID_LINES
 70
     0
 62
  -179
  6
Continuous
370
    15
390
F
  0
LAYER
  5
75
330
2
100
AcDbSymbolTableRecord
100
AcDbLayerTableRecord
  2
PAGE_FRAME
 70
     0
 62
   179
  6
Continuous
370
    -3
390
F
  0
LAYER
  5
76
330
2
100
AcDbSymbolTableRecord
100
AcDbLayerTableRecord
  2
LAYOUT
 70
     0
 62
   179
  6
Continuous
370
    -3
390
F
  0
ENDTAB
  0
TABLE
  2
STYLE
  5
3
330
0
100
AcDbSymbolTable
 70
     2
  0
STYLE
  5
11
330
3
100
AcDbSymbolTableRecord
100
AcDbTextStyleTableRecord
  2
Standard
 70
     0
 40
0.0
 41
1.0
 50
0.0
 71
     0
 42
0.503968254
  3
txt
  4

  0
STYLE
  5
3B9
330
3
100
AcDbSymbolTableRecord
100
AcDbTextStyleTableRecord
  2
SLDTEXTSTYLE0
 70
     0
 40
0.0
 41
0.605
 50
0.0
 71
     0
 42
0.503968254
  3
TXT
  4

  0
ENDTAB
  0
TABLE
  2
VIEW
  5
6
330
0
100
AcDbSymbolTable
 70
     0
  0
ENDTAB
  0
TABLE
  2
UCS
  5
7
330
0
100
AcDbSymbolTable
 70
     0
  0
ENDTAB
  0
TABLE
  2
APPID
  5
9
330
0
100
AcDbSymbolTable
 70
     1
  0
APPID
  5
12
330
9
100
AcDbSymbolTableRecord
100
AcDbRegAppTableRecord
  2
ACAD
 70
     0
  0
ENDTAB
  0
TABLE
  2
DIMSTYLE
  5
A
330
0
100
AcDbSymbolTable
 70
     2
100
AcDbDimStyleTable
  0
DIMSTYLE
105
27
330
A
100
AcDbSymbolTableRecord
100
AcDbDimStyleTableRecord
  2
ISO-25
 70
     0
 41
2.5
 42
0.625
 43
3.75
 44
1.25
 73
     0
 74
     0
 77
     1
 78
     8
140
2.5
141
2.5
143
0.0393700787
147
0.625
171
     3
172
     1
178
     0
271
     2
272
     2
274
     3
278
    44
283
     0
284
     8
340
11
  0
DIMSTYLE
105
3BB
330
A
100
AcDbSymbolTableRecord
100
AcDbDimStyleTableRecord
  2
SLDDIMSTYLE0
 70
     0
 41
0.1395604396
 44
0.0
 45
0.000000001
146
0.1395604396
147
0.0
173
     1
178
     0
271
     0
272
     0
276
     2
340
11
341
3BC
343
3BC
344
3BC
  0
ENDTAB
  0
TABLE
  2
BLOCK_RECORD
  5
1
330
0
100
AcDbSymbolTable
 70
     2
  0
BLOCK_RECORD
  5
1F
330
1
100
AcDbSymbolTableRecord
100
AcDbBlockTableRecord
  2
*Model_Space
340
22
  0
BLOCK_RECORD
  5
1B
330
1
100
AcDbSymbolTableRecord
100
AcDbBlockTableRecord
  2
*Paper_Space
340
1E
  0
BLOCK_RECORD
  5
23
330
1
100
AcDbSymbolTableRecord
100
AcDbBlockTableRecord
  2
*Paper_Space0
340
26
  0
BLOCK_RECORD
  5
3BC
330
1
100
AcDbSymbolTableRecord
100
AcDbBlockTableRecord
  2
_DOT
340
0
  0
ENDTAB
  0
ENDSEC
  0
SECTION
  2
BLOCKS
  0
BLOCK
  5
20
330
1F
100
AcDbEntity
  8
0
100
AcDbBlockBegin
  2
*Model_Space
 70
     0
 10
0.0
 20
0.0
 30
0.0
  3
*Model_Space
  1
*Model_Space
  0
ENDBLK
  5
21
330
1F
100
AcDbEntity
  8
0
100
AcDbBlockEnd
  0
BLOCK
  5
1C
330
1B
100
AcDbEntity
 67
     1
  8
0
100
AcDbBlockBegin
  2
*Paper_Space
 70
     0
 10
0.0
 20
0.0
 30
0.0
  3
*Paper_Space
  1
*Paper_Space
  0
ENDBLK
  5
1D
330
1B
100
AcDbEntity
 67
     1
  8
0
100
AcDbBlockEnd
  0
BLOCK
  5
24
330
23
100
AcDbEntity
  8
0
100
AcDbBlockBegin
  2
*Paper_Space0
 70
     0
 10
0.0
 20
0.0
 30
0.0
  3
*Paper_Space0
  1
*Paper_Space0
  0
ENDBLK
  5
25
330
23
100
AcDbEntity
  8
0
100
AcDbBlockEnd
  0
BLOCK
  5
3BD
330
3BC
100
AcDbEntity
  8
0
100
AcDbBlockBegin
  2
_DOT
 70
     0
 10
0.0
 20
0.0
 30
0.0
  3
_DOT
  1
_DOT
  0
POLYLINE
  5
3BF
330
3BC
100
AcDbEntity
  8
0
  6
ByBlock
 62
     0
100
AcDb2dPolyline
 66
     1
 10
0.0
 20
0.0
 30
0.0
 70
     1
 40
0.5
 41
0.5
  0
VERTEX
  5
3C1
330
3BF
100
AcDbEntity
  8
0
  6
ByBlock
 62
     0
100
AcDbVertex
100
AcDb2dVertex
 10
-0.25
 20
0.0
 30
0.0
 42
1.0
  0
VERTEX
  5
3C2
330
3BF
100
AcDbEntity
  8
0
  6
ByBlock
 62
     0
100
AcDbVertex
100
AcDb2dVertex
 10
0.25
 20
0.0
 30
0.0
 42
1.0
  0
SEQEND
  5
3C3
330
3BF
100
AcDbEntity
  8
0
  6
ByBlock
 62
     0
  0
LINE
  5
3C0
330
3BC
100
AcDbEntity
  8
0
  6
ByBlock
 62
     0
370
    -2
100
AcDbLine
 10
-0.5
 20
0.0
 30
0.0
 11
-1.0
 21
0.0
 31
0.0
  0
ENDBLK
  5
3BE
330
3BC
100
AcDbEntity
  8
0
100
AcDbBlockEnd
  0
ENDSEC
  0
SECTION
  2
ENTITIES
  0
CIRCLE
  5
77
330
1F
100
AcDbEntity
  8
0
  6
Continuous
 62
     7
370
    15
100
AcDbCircle
 10
20.222892014
 20
15.1015110627
 30
0.0
 40
0.1749999999999901
  0
CIRCLE
  5
78
330
1F
100
AcDbEntity
  8
0
  6
Continuous
 62
     7
370
    15
100
AcDbCircle
 10
20.222892014
 20
15.9015110627
 30
0.0
 40
0.1749999999999901
  0
CIRCLE
  5
79
330
1F
100
AcDbEntity
  8
0
  6
Continuous
 62
     7
370
    15
100
AcDbCircle
 10
20.222892014
 20
16.7015110627
 30
0.0
 40
0.1749999999999901
  0
CIRCLE
  5
7A
330
1F
100
AcDbEntity
  8
0
  6
Continuous
 62
     7
370
    15
100
AcDbCircle
 10
20.222892014
 20
17.5015110627
 30
0.0
 40
0.1749999999999901
  0
CIRCLE
  5
7B
330
1F
100
AcDbEntity
  8
0
  6
Continuous
 62
     7
370
    15
100
AcDbCircle
 10
20.222892014
 20
18.3015110627
 30
0.0
 40
0.1749999999999901
  0
CIRCLE
  5
7C
330
1F
100
AcDbEntity
  8
0
  6
Continuous
 62
     7
370
    15
100
AcDbCircle
 10
20.222892014
 20
19.1015110627
 30
0.0
 40
0.1749999999999865
  0
CIRCLE
  5
7D
330
1F
100
AcDbEntity
  8
0
  6
Continuous
 62
     7
370
    15
100
AcDbCircle
 10
20.222892014
 20
19.9015110627
 30
0.0
 40
0.1749999999999901
  0
CIRCLE
  5
7E
330
1F
100
AcDbEntity
  8
0
  6
Continuous
 62
     7
370
    15
100
AcDbCircle
 10
20.222892014
 20
20.7015110627
 30
0.0
 40
0.1749999999999865
  0
CIRCLE
  5
7F
330
1F
100
AcDbEntity
  8
0
  6
Continuous
 62
     7
370
    15
100
AcDbCircle
 10
19.822892014
 20
15.1015110627
 30
0.0
 40
0.1749999999999901
  0
CIRCLE
  5
80
330
1F
100
AcDbEntity
  8
0
  6
Continuous
 62
     7
370
    15
100
AcDbCircle
 10
19.822892014
 20
15.9015110627
 30
0.0
 40
0.1749999999999901
  0
CIRCLE
  5
81
330
1F
100
AcDbEntity
  8
0
  6
Continuous
 62
     7
370
    15
100
AcDbCircle
 10
19.822892014
 20
16.7015110627
 30
0.0
 40
0.1749999999999901
  0
CIRCLE
  5
82
330
1F
100
AcDbEntity
  8
0
  6
Continuous
 62
     7
370
    15
100
AcDbCircle
 10
19.822892014
 20
17.5015110627
 30
0.0
 40
0.1749999999999901
  0
CIRCLE
  5
83
330
1F
100
AcDbEntity
  8
0
  6
Continuous
 62
     7
370
    15
100
AcDbCircle
 10
19.822892014
 20
18.3015110627
 30
0.0
 40
0.1749999999999901
  0
CIRCLE
  5
84
330
1F
100
AcDbEntity
  8
0
  6
Continuous
 62
     7
370
    15
100
AcDbCircle
 10
19.822892014
 20
19.1015110627
 30
0.0
 40
0.1749999999999865
  0
CIRCLE
  5
85
330
1F
100
AcDbEntity
  8
0
  6
Continuous
 62
     7
370
    15
100
AcDbCircle
 10
19.822892014
 20
19.9015110627
 30
0.0
 40
0.1749999999999901
  0
CIRCLE
  5
86
330
1F
100
AcDbEntity
  8
0
  6
Continuous
 62
     7
370
    15
100
AcDbCircle
 10
19.822892014
 20
20.7015110627
 30
0.0
 40
0.1749999999999865
  0
CIRCLE
  5
87
330
1F
100
AcDbEntity
  8
0
  6
Continuous
 62
     7
370
    15
100
AcDbCircle
 10
19.422892014
 20
15.1015110627
 30
0.0
 40
0.1749999999999901
  0
CIRCLE
  5
88
330
1F
100
AcDbEntity
  8
0
  6
Continuous
 62
     7
370
    15
100
AcDbCircle
 10
19.422892014
 20
15.9015110627
 30
0.0
 40
0.1749999999999901
  0
CIRCLE
  5
89
330
1F
100
AcDbEntity
  8
0
  6
Continuous
 62
     7
370
    15
100
AcDbCircle
 10
19.422892014
 20
16.7015110627
 30
0.0
 40
0.1749999999999901
  0
CIRCLE
  5
8A
330
1F
100
AcDbEntity
  8
0
  6
Continuous
 62
     7
370
    15
100
AcDbCircle
 10
19.422892014
 20
17.5015110627
 30
0.0
 40
0.1749999999999901
  0
CIRCLE
  5
8B
330
1F
100
AcDbEntity
  8
0
  6
Continuous
 62
     7
370
    15
100
AcDbCircle
 10
19.422892014
 20
18.3015110627
 30
0.0
 40
0.1749999999999901
  0
CIRCLE
  5
8C
330
1F
100
AcDbEntity
  8
0
  6
Continuous
 62
     7
370
    15
100
AcDbCircle
 10
19.422892014
 20
19.1015110627
 30
0.0
 40
0.1749999999999865
  0
CIRCLE
  5
8D
330
1F
100
AcDbEntity
  8
0
  6
Continuous
 62
     7
370
    15
100
AcDbCircle
 10
19.422892014
 20
19.9015110627
 30
0.0
 40
0.1749999999999901
  0
CIRCLE
  5
8E
330
1F
100
AcDbEntity
  8
0
  6
Continuous
 62
     7
370
    15
100
AcDbCircle
 10
19.422892014
 20
20.7015110627
 30
0.0
 40
0.1749999999999865
  0
CIRCLE
  5
8F
330
1F
100
AcDbEntity
  8
0
  6
Continuous
 62
     7
370
    15
100
AcDbCircle
 10
19.022892014
 20
15.1015110627
 30
0.0
 40
0.1749999999999901
  0
CIRCLE
  5
90
330
1F
100
AcDbEntity
  8
0
  6
Continuous
 62
     7
370
    15
100
AcDbCircle
 10
19.022892014
 20
15.9015110627
 30
0.0
 40
0.1749999999999901
  0
CIRCLE
  5
91
330
1F
100
AcDbEntity
  8
0
  6
Continuous
 62
     7
370
    15
100
AcDbCircle
 10
19.022892014
 20
16.7015110627
 30
0.0
 40
0.1749999999999901
  0
CIRCLE
  5
92
330
1F
100
AcDbEntity
  8
0
  6
Continuous
 62
     7
370
    15
100
AcDbCircle
 10
19.022892014
 20
17.5015110627
 30
0.0
 40
0.1749999999999901
  0
CIRCLE
  5
93
330
1F
100
AcDbEntity
  8
0
  6
Continuous
 62
     7
370
    15
100
AcDbCircle
 10
19.022892014
 20
18.3015110627
 30
0.0
 40
0.1749999999999901
  0
CIRCLE
  5
94
330
1F
100
AcDbEntity
  8
0
  6
Continuous
 62
     7
370
    15
100
AcDbCircle
 10
19.022892014
 20
19.1015110627
 30
0.0
 40
0.1749999999999865
  0
CIRCLE
  5
95
330
1F
100
AcDbEntity
  8
0
  6
Continuous
 62
     7
370
    15
100
AcDbCircle
 10
19.022892014
 20
19.9015110627
 30
0.0
 40
0.1749999999999901
  0
CIRCLE
  5
96
330
1F
100
AcDbEntity
  8
0
  6
Continuous
 62
     7
370
    15
100
AcDbCircle
 10
19.022892014
 20
20.7015110627
 30
0.0
 40
0.1749999999999865
  0
CIRCLE
  5
97
330
1F
100
AcDbEntity
  8
0
  6
Continuous
 62
     7
370
    15
100
AcDbCircle
 10
18.622892014
 20
15.1015110627
 30
0.0
 40
0.1749999999999901
  0
CIRCLE
  5
98
330
1F
100
AcDbEntity
  8
0
  6
Continuous
 62
     7
370
    15
100
AcDbCircle
 10
18.622892014
 20
15.9015110627
 30
0.0
 40
0.1749999999999901
  0
CIRCLE
  5
99
330
1F
100
AcDbEntity
  8
0
  6
Continuous
 62
     7
370
    15
100
AcDbCircle
 10
18.622892014
 20
16.7015110627
 30
0.0
 40
0.1749999999999901
  0
CIRCLE
  5
9A
330
1F
100
AcDbEntity
  8
0
  6
Continuous
 62
     7
370
    15
100
AcDbCircle
 10
18.622892014
 20
17.5015110627
 30
0.0
 40
0.1749999999999901
  0
CIRCLE
  5
9B
330
1F
100
AcDbEntity
  8
0
  6
Continuous
 62
     7
370
    15
100
AcDbCircle
 10
18.622892014
 20
18.3015110627
 30
0.0
 40
0.1749999999999901
  0
CIRCLE
  5
9C
330
1F
100
AcDbEntity
  8
0
  6
Continuous
 62
     7
370
    15
100
AcDbCircle
 10
18.622892014
 20
19.1015110627
 30
0.0
 40
0.1749999999999865
  0
CIRCLE
  5
9D
330
1F
100
AcDbEntity
  8
0
  6
Continuous
 62
     7
370
    15
100
AcDbCircle
 10
18.622892014
 20
19.9015110627
 30
0.0
 40
0.1749999999999901
  0
CIRCLE
  5
9E
330
1F
100
AcDbEntity
  8
0
  6
Continuous
 62
     7
370
    15
100
AcDbCircle
 10
18.622892014
 20
20.7015110627
 30
0.0
 40
0.1749999999999865
  0
CIRCLE
  5
9F
330
1F
100
AcDbEntity
  8
0
  6
Continuous
 62
     7
370
    15
100
AcDbCircle
 10
18.222892014
 20
15.1015110627
 30
0.0
 40
0.1749999999999901
  0
CIRCLE
  5
A0
330
1F
100
AcDbEntity
  8
0
  6
Continuous
 62
     7
370
    15
100
AcDbCircle
 10
18.222892014
 20
15.9015110627
 30
0.0
 40
0.1749999999999901
  0
CIRCLE
  5
A1
330
1F
100
AcDbEntity
  8
0
  6
Continuous
 62
     7
370
    15
100
AcDbCircle
 10
18.222892014
 20
16.7015110627
 30
0.0
 40
0.1749999999999901
  0
CIRCLE
  5
A2
330
1F
100
AcDbEntity
  8
0
  6
Continuous
 62
     7
370
    15
100
AcDbCircle
 10
18.222892014
 20
17.5015110627
 30
0.0
 40
0.1749999999999901
  0
CIRCLE
  5
A3
330
1F
100
AcDbEntity
  8
0
  6
Continuous
 62
     7
370
    15
100
AcDbCircle
 10
18.222892014
 20
18.3015110627
 30
0.0
 40
0.1749999999999901
  0
CIRCLE
  5
A4
330
1F
100
AcDbEntity
  8
0
  6
Continuous
 62
     7
370
    15
100
AcDbCircle
 10
18.222892014
 20
19.1015110627
 30
0.0
 40
0.1749999999999865
  0
CIRCLE
  5
A5
330
1F
100
AcDbEntity
  8
0
  6
Continuous
 62
     7
370
    15
100
AcDbCircle
 10
18.222892014
 20
19.9015110627
 30
0.0
 40
0.1749999999999901
  0
CIRCLE
  5
A6
330
1F
100
AcDbEntity
  8
0
  6
Continuous
 62
     7
370
    15
100
AcDbCircle
 10
18.222892014
 20
20.7015110627
 30
0.0
 40
0.1749999999999865
  0
CIRCLE
  5
A7
330
1F
100
AcDbEntity
  8
0
  6
Continuous
 62
     7
370
    15
100
AcDbCircle
 10
17.822892014
 20
15.1015110627
 30
0.0
 40
0.1749999999999901
  0
CIRCLE
  5
A8
330
1F
100
AcDbEntity
  8
0
  6
Continuous
 62
     7
370
    15
100
AcDbCircle
 10
17.822892014
 20
15.9015110627
 30
0.0
 40
0.1749999999999901
  0
CIRCLE
  5
A9
330
1F
100
AcDbEntity
  8
0
  6
Continuous
 62
     7
370
    15
100
AcDbCircle
 10
17.822892014
 20
16.7015110627
 30
0.0
 40
0.1749999999999901
  0
CIRCLE
  5
AA
330
1F
100
AcDbEntity
  8
0
  6
Continuous
 62
     7
370
    15
100
AcDbCircle
 10
17.822892014
 20
17.5015110627
 30
0.0
 40
0.1749999999999901
  0
CIRCLE
  5
AB
330
1F
100
AcDbEntity
  8
0
  6
Continuous
 62
     7
370
    15
100
AcDbCircle
 10
17.822892014
 20
18.3015110627
 30
0.0
 40
0.1749999999999901
  0
CIRCLE
  5
AC
330
1F
100
AcDbEntity
  8
0
  6
Continuous
 62
     7
370
    15
100
AcDbCircle
 10
17.822892014
 20
19.1015110627
 30
0.0
 40
0.1749999999999865
  0
CIRCLE
  5
AD
330
1F
100
AcDbEntity
  8
0
  6
Continuous
 62
     7
370
    15
100
AcDbCircle
 10
17.822892014
 20
19.9015110627
 30
0.0
 40
0.1749999999999901
  0
CIRCLE
  5
AE
330
1F
100
AcDbEntity
  8
0
  6
Continuous
 62
     7
370
    15
100
AcDbCircle
 10
17.822892014
 20
20.7015110627
 30
0.0
 40
0.1749999999999865
  0
CIRCLE
  5
AF
330
1F
100
AcDbEntity
  8
0
  6
Continuous
 62
     7
370
    15
100
AcDbCircle
 10
17.422892014
 20
15.1015110627
 30
0.0
 40
0.1749999999999901
  0
CIRCLE
  5
B0
330
1F
100
AcDbEntity
  8
0
  6
Continuous
 62
     7
370
    15
100
AcDbCircle
 10
17.422892014
 20
15.9015110627
 30
0.0
 40
0.1749999999999901
  0
CIRCLE
  5
B1
330
1F
100
AcDbEntity
  8
0
  6
Continuous
 62
     7
370
    15
100
AcDbCircle
 10
17.422892014
 20
16.7015110627
 30
0.0
 40
0.1749999999999901
  0
CIRCLE
  5
B2
330
1F
100
AcDbEntity
  8
0
  6
Continuous
 62
     7
370
    15
100
AcDbCircle
 10
17.422892014
 20
17.5015110627
 30
0.0
 40
0.1749999999999901
  0
CIRCLE
  5
B3
330
1F
100
AcDbEntity
  8
0
  6
Continuous
 62
     7
370
    15
100
AcDbCircle
 10
17.422892014
 20
18.3015110627
 30
0.0
 40
0.1749999999999901
  0
CIRCLE
  5
B4
330
1F
100
AcDbEntity
  8
0
  6
Continuous
 62
     7
370
    15
100
AcDbCircle
 10
17.422892014
 20
19.1015110627
 30
0.0
 40
0.1749999999999865
  0
CIRCLE
  5
B5
330
1F
100
AcDbEntity
  8
0
  6
Continuous
 62
     7
370
    15
100
AcDbCircle
 10
17.422892014
 20
19.9015110627
 30
0.0
 40
0.1749999999999901
  0
CIRCLE
  5
B6
330
1F
100
AcDbEntity
  8
0
  6
Continuous
 62
     7
370
    15
100
AcDbCircle
 10
17.422892014
 20
20.7015110627
 30
0.0
 40
0.1749999999999865
  0
CIRCLE
  5
B7
330
1F
100
AcDbEntity
  8
0
  6
Continuous
 62
     7
370
    15
100
AcDbCircle
 10
17.022892014
 20
15.1015110627
 30
0.0
 40
0.1749999999999901
  0
CIRCLE
  5
B8
330
1F
100
AcDbEntity
  8
0
  6
Continuous
 62
     7
370
    15
100
AcDbCircle
 10
17.022892014
 20
15.9015110627
 30
0.0
 40
0.1749999999999901
  0
CIRCLE
  5
B9
330
1F
100
AcDbEntity
  8
0
  6
Continuous
 62
     7
370
    15
100
AcDbCircle
 10
17.022892014
 20
16.7015110627
 30
0.0
 40
0.1749999999999901
  0
CIRCLE
  5
BA
330
1F
100
AcDbEntity
  8
0
  6
Continuous
 62
     7
370
    15
100
AcDbCircle
 10
17.022892014
 20
17.5015110627
 30
0.0
 40
0.1749999999999901
  0
CIRCLE
  5
BB
330
1F
100
AcDbEntity
  8
0
  6
Continuous
 62
     7
370
    15
100
AcDbCircle
 10
17.022892014
 20
18.3015110627
 30
0.0
 40
0.1749999999999901
  0
CIRCLE
  5
BC
330
1F
100
AcDbEntity
  8
0
  6
Continuous
 62
     7
370
    15
100
AcDbCircle
 10
17.022892014
 20
19.1015110627
 30
0.0
 40
0.1749999999999865
  0
CIRCLE
  5
BD
330
1F
100
AcDbEntity
  8
0
  6
Continuous
 62
     7
370
    15
100
AcDbCircle
 10
17.022892014
 20
19.9015110627
 30
0.0
 40
0.1749999999999901
  0
CIRCLE
  5
BE
330
1F
100
AcDbEntity
  8
0
  6
Continuous
 62
     7
370
    15
100
AcDbCircle
 10
17.022892014
 20
20.7015110627
 30
0.0
 40
0.1749999999999865
  0
CIRCLE
  5
BF
330
1F
100
AcDbEntity
  8
0
  6
Continuous
 62
     7
370
    15
100
AcDbCircle
 10
16.622892014
 20
15.1015110627
 30
0.0
 40
0.1749999999999901
  0
CIRCLE
  5
C0
330
1F
100
AcDbEntity
  8
0
  6
Continuous
 62
     7
370
    15
100
AcDbCircle
 10
16.622892014
 20
15.9015110627
 30
0.0
 40
0.1749999999999901
  0
CIRCLE
  5
C1
330
1F
100
AcDbEntity
  8
0
  6
Continuous
 62
     7
370
    15
100
AcDbCircle
 10
16.622892014
 20
16.7015110627
 30
0.0
 40
0.1749999999999901
  0
CIRCLE
  5
C2
330
1F
100
AcDbEntity
  8
0
  6
Continuous
 62
     7
370
    15
100
AcDbCircle
 10
16.622892014
 20
17.5015110627
 30
0.0
 40
0.1749999999999901
  0
CIRCLE
  5
C3
330
1F
100
AcDbEntity
  8
0
  6
Continuous
 62
     7
370
    15
100
AcDbCircle
 10
16.622892014
 20
18.3015110627
 30
0.0
 40
0.1749999999999901
  0
CIRCLE
  5
C4
330
1F
100
AcDbEntity
  8
0
  6
Continuous
 62
     7
370
    15
100
AcDbCircle
 10
16.622892014
 20
19.1015110627
 30
0.0
 40
0.1749999999999865
  0
CIRCLE
  5
C5
330
1F
100
AcDbEntity
  8
0
  6
Continuous
 62
     7
370
    15
100
AcDbCircle
 10
16.622892014
 20
19.9015110627
 30
0.0
 40
0.1749999999999901
  0
CIRCLE
  5
C6
330
1F
100
AcDbEntity
  8
0
  6
Continuous
 62
     7
370
    15
100
AcDbCircle
 10
16.622892014
 20
20.7015110627
 30
0.0
 40
0.1749999999999865
  0
CIRCLE
  5
C7
330
1F
100
AcDbEntity
  8
0
  6
Continuous
 62
     7
370
    15
100
AcDbCircle
 10
16.222892014
 20
15.1015110627
 30
0.0
 40
0.1749999999999901
  0
CIRCLE
  5
C8
330
1F
100
AcDbEntity
  8
0
  6
Continuous
 62
     7
370
    15
100
AcDbCircle
 10
16.222892014
 20
15.9015110627
 30
0.0
 40
0.1749999999999901
  0
CIRCLE
  5
C9
330
1F
100
AcDbEntity
  8
0
  6
Continuous
 62
     7
370
    15
100
AcDbCircle
 10
16.222892014
 20
16.7015110627
 30
0.0
 40
0.1749999999999901
  0
CIRCLE
  5
CA
330
1F
100
AcDbEntity
  8
0
  6
Continuous
 62
     7
370
    15
100
AcDbCircle
 10
16.222892014
 20
17.5015110627
 30
0.0
 40
0.1749999999999901
  0
CIRCLE
  5
CB
330
1F
100
AcDbEntity
  8
0
  6
Continuous
 62
     7
370
    15
100
AcDbCircle
 10
16.222892014
 20
18.3015110627
 30
0.0
 40
0.1749999999999901
  0
CIRCLE
  5
CC
330
1F
100
AcDbEntity
  8
0
  6
Continuous
 62
     7
370
    15
100
AcDbCircle
 10
16.222892014
 20
19.1015110627
 30
0.0
 40
0.1749999999999865
  0
CIRCLE
  5
CD
330
1F
100
AcDbEntity
  8
0
  6
Continuous
 62
     7
370
    15
100
AcDbCircle
 10
16.222892014
 20
19.9015110627
 30
0.0
 40
0.1749999999999901
  0
CIRCLE
  5
CE
330
1F
100
AcDbEntity
  8
0
  6
Continuous
 62
     7
370
    15
100
AcDbCircle
 10
16.222892014
 20
20.7015110627
 30
0.0
 40
0.1749999999999865
  0
CIRCLE
  5
CF
330
1F
100
AcDbEntity
  8
0
  6
Continuous
 62
     7
370
    15
100
AcDbCircle
 10
15.822892014
 20
15.1015110627
 30
0.0
 40
0.1749999999999901
  0
CIRCLE
  5
D0
330
1F
100
AcDbEntity
  8
0
  6
Continuous
 62
     7
370
    15
100
AcDbCircle
 10
15.822892014
 20
15.9015110627
 30
0.0
 40
0.1749999999999901
  0
CIRCLE
  5
D1
330
1F
100
AcDbEntity
  8
0
  6
Continuous
 62
     7
370
    15
100
AcDbCircle
 10
15.822892014
 20
16.7015110627
 30
0.0
 40
0.1749999999999901
  0
CIRCLE
  5
D2
330
1F
100
AcDbEntity
  8
0
  6
Continuous
 62
     7
370
    15
100
AcDbCircle
 10
15.822892014
 20
17.5015110627
 30
0.0
 40
0.1749999999999901
  0
CIRCLE
  5
D3
330
1F
100
AcDbEntity
  8
0
  6
Continuous
 62
     7
370
    15
100
AcDbCircle
 10
15.822892014
 20
18.3015110627
 30
0.0
 40
0.1749999999999901
  0
CIRCLE
  5
D4
330
1F
100
AcDbEntity
  8
0
  6
Continuous
 62
     7
370
    15
100
AcDbCircle
 10
15.822892014
 20
19.1015110627
 30
0.0
 40
0.1749999999999865
  0
CIRCLE
  5
D5
330
1F
100
AcDbEntity
  8
0
  6
Continuous
 62
     7
370
    15
100
AcDbCircle
 10
15.822892014
 20
19.9015110627
 30
0.0
 40
0.1749999999999901
  0
CIRCLE
  5
D6
330
1F
100
AcDbEntity
  8
0
  6
Continuous
 62
     7
370
    15
100
AcDbCircle
 10
15.822892014
 20
20.7015110627
 30
0.0
 40
0.1749999999999865
  0
CIRCLE
  5
D7
330
1F
100
AcDbEntity
  8
0
  6
Continuous
 62
     7
370
    15
100
AcDbCircle
 10
15.422892014
 20
15.1015110627
 30
0.0
 40
0.1749999999999901
  0
CIRCLE
  5
D8
330
1F
100
AcDbEntity
  8
0
  6
Continuous
 62
     7
370
    15
100
AcDbCircle
 10
15.422892014
 20
15.9015110627
 30
0.0
 40
0.1749999999999901
  0
CIRCLE
  5
D9
330
1F
100
AcDbEntity
  8
0
  6
Continuous
 62
     7
370
    15
100
AcDbCircle
 10
15.422892014
 20
16.7015110627
 30
0.0
 40
0.1749999999999901
  0
CIRCLE
  5
DA
330
1F
100
AcDbEntity
  8
0
  6
Continuous
 62
     7
370
    15
100
AcDbCircle
 10
15.422892014
 20
17.5015110627
 30
0.0
 40
0.1749999999999901
  0
CIRCLE
  5
DB
330
1F
100
AcDbEntity
  8
0
  6
Continuous
 62
     7
370
    15
100
AcDbCircle
 10
15.422892014
 20
18.3015110627
 30
0.0
 40
0.1749999999999901
  0
CIRCLE
  5
DC
330
1F
100
AcDbEntity
  8
0
  6
Continuous
 62
     7
370
    15
100
AcDbCircle
 10
15.422892014
 20
19.1015110627
 30
0.0
 40
0.1749999999999865
  0
CIRCLE
  5
DD
330
1F
100
AcDbEntity
  8
0
  6
Continuous
 62
     7
370
    15
100
AcDbCircle
 10
15.422892014
 20
19.9015110627
 30
0.0
 40
0.1749999999999901
  0
CIRCLE
  5
DE
330
1F
100
AcDbEntity
  8
0
  6
Continuous
 62
     7
370
    15
100
AcDbCircle
 10
15.422892014
 20
20.7015110627
 30
0.0
 40
0.1749999999999865
  0
CIRCLE
  5
DF
330
1F
100
AcDbEntity
  8
0
  6
Continuous
 62
     7
370
    15
100
AcDbCircle
 10
15.022892014
 20
15.1015110627
 30
0.0
 40
0.1749999999999901
  0
CIRCLE
  5
E0
330
1F
100
AcDbEntity
  8
0
  6
Continuous
 62
     7
370
    15
100
AcDbCircle
 10
15.022892014
 20
15.9015110627
 30
0.0
 40
0.1749999999999901
  0
CIRCLE
  5
E1
330
1F
100
AcDbEntity
  8
0
  6
Continuous
 62
     7
370
    15
100
AcDbCircle
 10
15.022892014
 20
16.7015110627
 30
0.0
 40
0.1749999999999901
  0
CIRCLE
  5
E2
330
1F
100
AcDbEntity
  8
0
  6
Continuous
 62
     7
370
    15
100
AcDbCircle
 10
15.022892014
 20
17.5015110627
 30
0.0
 40
0.1749999999999901
  0
CIRCLE
  5
E3
330
1F
100
AcDbEntity
  8
0
  6
Continuous
 62
     7
370
    15
100
AcDbCircle
 10
15.022892014
 20
18.3015110627
 30
0.0
 40
0.1749999999999901
  0
CIRCLE
  5
E4
330
1F
100
AcDbEntity
  8
0
  6
Continuous
 62
     7
370
    15
100
AcDbCircle
 10
15.022892014
 20
19.1015110627
 30
0.0
 40
0.1749999999999865
  0
CIRCLE
  5
E5
330
1F
100
AcDbEntity
  8
0
  6
Continuous
 62
     7
370
    15
100
AcDbCircle
 10
15.022892014
 20
19.9015110627
 30
0.0
 40
0.1749999999999901
  0
CIRCLE
  5
E6
330
1F
100
AcDbEntity
  8
0
  6
Continuous
 62
     7
370
    15
100
AcDbCircle
 10
15.022892014
 20
20.7015110627
 30
0.0
 40
0.1749999999999865
  0
CIRCLE
  5
E7
330
1F
100
AcDbEntity
  8
0
  6
Continuous
 62
     7
370
    15
100
AcDbCircle
 10
14.622892014
 20
15.1015110627
 30
0.0
 40
0.1749999999999901
  0
CIRCLE
  5
E8
330
1F
100
AcDbEntity
  8
0
  6
Continuous
 62
     7
370
    15
100
AcDbCircle
 10
14.622892014
 20
15.9015110627
 30
0.0
 40
0.1749999999999901
  0
CIRCLE
  5
E9
330
1F
100
AcDbEntity
  8
0
  6
Continuous
 62
     7
370
    15
100
AcDbCircle
 10
14.622892014
 20
16.7015110627
 30
0.0
 40
0.1749999999999901
  0
CIRCLE
  5
EA
330
1F
100
AcDbEntity
  8
0
  6
Continuous
 62
     7
370
    15
100
AcDbCircle
 10
14.622892014
 20
17.5015110627
 30
0.0
 40
0.1749999999999901
  0
CIRCLE
  5
EB
330
1F
100
AcDbEntity
  8
0
  6
Continuous
 62
     7
370
    15
100
AcDbCircle
 10
14.622892014
 20
18.3015110627
 30
0.0
 40
0.1749999999999901
  0
CIRCLE
  5
EC
330
1F
100
AcDbEntity
  8
0
  6
Continuous
 62
     7
370
    15
100
AcDbCircle
 10
14.622892014
 20
19.1015110627
 30
0.0
 40
0.1749999999999865
  0
CIRCLE
  5
ED
330
1F
100
AcDbEntity
  8
0
  6
Continuous
 62
     7
370
    15
100
AcDbCircle
 10
14.622892014
 20
19.9015110627
 30
0.0
 40
0.1749999999999901
  0
CIRCLE
  5
EE
330
1F
100
AcDbEntity
  8
0
  6
Continuous
 62
     7
370
    15
100
AcDbCircle
 10
14.622892014
 20
20.7015110627
 30
0.0
 40
0.1749999999999865
  0
CIRCLE
  5
EF
330
1F
100
AcDbEntity
  8
0
  6
Continuous
 62
     7
370
    15
100
AcDbCircle
 10
14.222892014
 20
15.1015110627
 30
0.0
 40
0.1749999999999901
  0
CIRCLE
  5
F0
330
1F
100
AcDbEntity
  8
0
  6
Continuous
 62
     7
370
    15
100
AcDbCircle
 10
14.222892014
 20
15.9015110627
 30
0.0
 40
0.1749999999999901
  0
CIRCLE
  5
F1
330
1F
100
AcDbEntity
  8
0
  6
Continuous
 62
     7
370
    15
100
AcDbCircle
 10
14.222892014
 20
16.7015110627
 30
0.0
 40
0.1749999999999901
  0
CIRCLE
  5
F2
330
1F
100
AcDbEntity
  8
0
  6
Continuous
 62
     7
370
    15
100
AcDbCircle
 10
14.222892014
 20
17.5015110627
 30
0.0
 40
0.1749999999999901
  0
CIRCLE
  5
F3
330
1F
100
AcDbEntity
  8
0
  6
Continuous
 62
     7
370
    15
100
AcDbCircle
 10
14.222892014
 20
18.3015110627
 30
0.0
 40
0.1749999999999901
  0
CIRCLE
  5
F4
330
1F
100
AcDbEntity
  8
0
  6
Continuous
 62
     7
370
    15
100
AcDbCircle
 10
14.222892014
 20
19.1015110627
 30
0.0
 40
0.1749999999999865
  0
CIRCLE
  5
F5
330
1F
100
AcDbEntity
  8
0
  6
Continuous
 62
     7
370
    15
100
AcDbCircle
 10
14.222892014
 20
19.9015110627
 30
0.0
 40
0.1749999999999901
  0
CIRCLE
  5
F6
330
1F
100
AcDbEntity
  8
0
  6
Continuous
 62
     7
370
    15
100
AcDbCircle
 10
14.222892014
 20
20.7015110627
 30
0.0
 40
0.1749999999999865
  0
CIRCLE
  5
F7
330
1F
100
AcDbEntity
  8
0
  6
Continuous
 62
     7
370
    15
100
AcDbCircle
 10
16.972892014
 20
11.7365110627
 30
0.0
 40
0.8499999999999996
  0
CIRCLE
  5
F8
330
1F
100
AcDbEntity
  8
0
  6
Continuous
 62
     7
370
    15
100
AcDbCircle
 10
16.972892014
 20
24.4615110627
 30
0.0
 40
0.8500000000000014
  0
CIRCLE
  5
F9
330
1F
100
AcDbEntity
  8
0
  6
Continuous
 62
     7
370
    15
100
AcDbCircle
 10
10.610392014
 20
16.8165110627
 30
0.0
 40
0.4249999999999972
  0
CIRCLE
  5
FA
330
1F
100
AcDbEntity
  8
0
  6
Continuous
 62
     7
370
    15
100
AcDbCircle
 10
10.610392014
 20
11.7365110627
 30
0.0
 40
0.8499999999999996
  0
CIRCLE
  5
FB
330
1F
100
AcDbEntity
  8
0
  6
Continuous
 62
     7
370
    15
100
AcDbCircle
 10
23.335392014
 20
11.7365110627
 30
0.0
 40
0.8499999999999996
  0
CIRCLE
  5
FC
330
1F
100
AcDbEntity
  8
0
  6
Continuous
 62
     7
370
    15
100
AcDbCircle
 10
23.335392014
 20
21.9215110627
 30
0.0
 40
0.4250000000000007
  0
CIRCLE
  5
FD
330
1F
100
AcDbEntity
  8
0
  6
Continuous
 62
     7
370
    15
100
AcDbCircle
 10
23.335392014
 20
24.4615110627
 30
0.0
 40
0.8500000000000014
  0
CIRCLE
  5
FE
330
1F
100
AcDbEntity
  8
0
  6
Continuous
 62
     7
370
    15
100
AcDbCircle
 10
10.610392014
 20
24.4615110627
 30
0.0
 40
0.8500000000000014
  0
LINE
  5
FF
330
1F
100
AcDbEntity
  8
0
  6
Continuous
 62
     7
370
    15
100
AcDbLine
 10
19.3759819967
 20
10.4865106652
 30
0.0
 11
24.8353921351
 21
10.4865106652
 31
0.0
  0
ARC
  5
100
330
1F
100
AcDbEntity
  8
0
  6
Continuous
 62
     7
370
    15
100
AcDbCircle
 10
19.3759820086
 20
7.4865110627
 30
0.0
 40
3.000000000000001
100
AcDbArc
 50
90.0
 51
119.4852479726
  0
ARC
  5
101
330
1F
100
AcDbEntity
  8
0
  6
Continuous
 62
     7
370
    15
100
AcDbCircle
 10
16.972892014
 20
11.7365110627
 30
0.0
 40
1.88235
100
AcDbArc
 50
240.5147520274
 51
299.4852479726
  0
ARC
  5
102
330
1F
100
AcDbEntity
  8
0
  6
Continuous
 62
     7
370
    15
100
AcDbCircle
 10
14.5698020193
 20
7.4865110627
 30
0.0
 40
3.000000000000001
100
AcDbArc
 50
60.5147520274
 51
90.0
  0
LINE
  5
103
330
1F
100
AcDbEntity
  8
0
  6
Continuous
 62
     7
370
    15
100
AcDbLine
 10
9.3603918803
 20
10.4865106652
 30
0.0
 11
14.5698019778
 21
10.4865106652
 31
0.0
  0
LINE
  5
104
330
1F
100
AcDbEntity
  8
0
  6
Continuous
 62
     7
370
    15
100
AcDbLine
 10
9.3603918803
 20
25.7115108791
 30
0.0
 11
9.3603918803
 21
10.4865106652
 31
0.0
  0
LINE
  5
105
330
1F
100
AcDbEntity
  8
0
  6
Continuous
 62
     7
370
    15
100
AcDbLine
 10
14.5698019778
 20
25.7115108791
 30
0.0
 11
9.3603918803
 21
25.7115108791
 31
0.0
  0
ARC
  5
106
330
1F
100
AcDbEntity
  8
0
  6
Continuous
 62
     7
370
    15
100
AcDbCircle
 10
14.5698020193
 20
28.7115110627
 30
0.0
 40
2.999999999999997
100
AcDbArc
 50
270.0
 51
299.4852479726
  0
ARC
  5
107
330
1F
100
AcDbEntity
  8
0
  6
Continuous
 62
     7
370
    15
100
AcDbCircle
 10
16.972892014
 20
24.4615110627
 30
0.0
 40
1.882350000000005
100
AcDbArc
 50
60.5147520274
 51
119.4852479726
  0
ARC
  5
108
330
1F
100
AcDbEntity
  8
0
  6
Continuous
 62
     7
370
    15
100
AcDbCircle
 10
19.3759820086
 20
28.7115110627
 30
0.0
 40
2.999999999999996
100
AcDbArc
 50
240.5147520274
 51
270.0
  0
LINE
  5
109
330
1F
100
AcDbEntity
  8
0
  6
Continuous
 62
     7
370
    15
100
AcDbLine
 10
24.8353921351
 20
25.7115108791
 30
0.0
 11
19.3759819967
 21
25.7115108791
 31
0.0
  0
LINE
  5
10A
330
1F
100
AcDbEntity
  8
0
  6
Continuous
 62
     7
370
    15
100
AcDbLine
 10
24.8353921351
 20
10.4865106652
 30
0.0
 11
24.8353921351
 21
25.7115108791
 31
0.0
  0
CIRCLE
  5
10B
330
1F
100
AcDbEntity
  8
0
  6
Continuous
 62
     7
370
    15
100
AcDbCircle
 10
14.222892014
 20
21.1015110627
 30
0.0
 40
0.1749999999999901
  0
CIRCLE
  5
10C
330
1F
100
AcDbEntity
  8
0
  6
Continuous
 62
     7
370
    15
100
AcDbCircle
 10
14.222892014
 20
20.3015110627
 30
0.0
 40
0.1749999999999901
  0
CIRCLE
  5
10D
330
1F
100
AcDbEntity
  8
0
  6
Continuous
 62
     7
370
    15
100
AcDbCircle
 10
14.222892014
 20
19.5015110627
 30
0.0
 40
0.1749999999999865
  0
CIRCLE
  5
10E
330
1F
100
AcDbEntity
  8
0
  6
Continuous
 62
     7
370
    15
100
AcDbCircle
 10
14.222892014
 20
18.7015110627
 30
0.0
 40
0.1749999999999901
  0
CIRCLE
  5
10F
330
1F
100
AcDbEntity
  8
0
  6
Continuous
 62
     7
370
    15
100
AcDbCircle
 10
14.222892014
 20
17.9015110627
 30
0.0
 40
0.1749999999999901
  0
CIRCLE
  5
110
330
1F
100
AcDbEntity
  8
0
  6
Continuous
 62
     7
370
    15
100
AcDbCircle
 10
14.222892014
 20
17.1015110627
 30
0.0
 40
0.1749999999999865
  0
CIRCLE
  5
111
330
1F
100
AcDbEntity
  8
0
  6
Continuous
 62
     7
370
    15
100
AcDbCircle
 10
14.222892014
 20
16.3015110627
 30
0.0
 40
0.1749999999999865
  0
CIRCLE
  5
112
330
1F
100
AcDbEntity
  8
0
  6
Continuous
 62
     7
370
    15
100
AcDbCircle
 10
14.222892014
 20
15.5015110627
 30
0.0
 40
0.1749999999999883
  0
CIRCLE
  5
113
330
1F
100
AcDbEntity
  8
0
  6
Continuous
 62
     7
370
    15
100
AcDbCircle
 10
14.622892014
 20
21.1015110627
 30
0.0
 40
0.1749999999999901
  0
CIRCLE
  5
114
330
1F
100
AcDbEntity
  8
0
  6
Continuous
 62
     7
370
    15
100
AcDbCircle
 10
14.622892014
 20
20.3015110627
 30
0.0
 40
0.1749999999999901
  0
CIRCLE
  5
115
330
1F
100
AcDbEntity
  8
0
  6
Continuous
 62
     7
370
    15
100
AcDbCircle
 10
14.622892014
 20
19.5015110627
 30
0.0
 40
0.1749999999999865
  0
CIRCLE
  5
116
330
1F
100
AcDbEntity
  8
0
  6
Continuous
 62
     7
370
    15
100
AcDbCircle
 10
14.622892014
 20
18.7015110627
 30
0.0
 40
0.1749999999999901
  0
CIRCLE
  5
117
330
1F
100
AcDbEntity
  8
0
  6
Continuous
 62
     7
370
    15
100
AcDbCircle
 10
14.622892014
 20
17.9015110627
 30
0.0
 40
0.1749999999999901
  0
CIRCLE
  5
118
330
1F
100
AcDbEntity
  8
0
  6
Continuous
 62
     7
370
    15
100
AcDbCircle
 10
14.622892014
 20
17.1015110627
 30
0.0
 40
0.1749999999999865
  0
CIRCLE
  5
119
330
1F
100
AcDbEntity
  8
0
  6
Continuous
 62
     7
370
    15
100
AcDbCircle
 10
14.622892014
 20
16.3015110627
 30
0.0
 40
0.1749999999999865
  0
CIRCLE
  5
11A
330
1F
100
AcDbEntity
  8
0
  6
Continuous
 62
     7
370
    15
100
AcDbCircle
 10
14.622892014
 20
15.5015110627
 30
0.0
 40
0.1749999999999883
  0
CIRCLE
  5
11B
330
1F
100
AcDbEntity
  8
0
  6
Continuous
 62
     7
370
    15
100
AcDbCircle
 10
15.022892014
 20
21.1015110627
 30
0.0
 40
0.1749999999999901
  0
CIRCLE
  5
11C
330
1F
100
AcDbEntity
  8
0
  6
Continuous
 62
     7
370
    15
100
AcDbCircle
 10
15.022892014
 20
20.3015110627
 30
0.0
 40
0.1749999999999901
  0
CIRCLE
  5
11D
330
1F
100
AcDbEntity
  8
0
  6
Continuous
 62
     7
370
    15
100
AcDbCircle
 10
15.022892014
 20
19.5015110627
 30
0.0
 40
0.1749999999999865
  0
CIRCLE
  5
11E
330
1F
100
AcDbEntity
  8
0
  6
Continuous
 62
     7
370
    15
100
AcDbCircle
 10
15.022892014
 20
18.7015110627
 30
0.0
 40
0.1749999999999901
  0
CIRCLE
  5
11F
330
1F
100
AcDbEntity
  8
0
  6
Continuous
 62
     7
370
    15
100
AcDbCircle
 10
15.022892014
 20
17.9015110627
 30
0.0
 40
0.1749999999999901
  0
CIRCLE
  5
120
330
1F
100
AcDbEntity
  8
0
  6
Continuous
 62
     7
370
    15
100
AcDbCircle
 10
15.022892014
 20
17.1015110627
 30
0.0
 40
0.1749999999999865
  0
CIRCLE
  5
121
330
1F
100
AcDbEntity
  8
0
  6
Continuous
 62
     7
370
    15
100
AcDbCircle
 10
15.022892014
 20
16.3015110627
 30
0.0
 40
0.1749999999999865
  0
CIRCLE
  5
122
330
1F
100
AcDbEntity
  8
0
  6
Continuous
 62
     7
370
    15
100
AcDbCircle
 10
15.022892014
 20
15.5015110627
 30
0.0
 40
0.1749999999999883
  0
CIRCLE
  5
123
330
1F
100
AcDbEntity
  8
0
  6
Continuous
 62
     7
370
    15
100
AcDbCircle
 10
15.422892014
 20
21.1015110627
 30
0.0
 40
0.1749999999999901
  0
CIRCLE
  5
124
330
1F
100
AcDbEntity
  8
0
  6
Continuous
 62
     7
370
    15
100
AcDbCircle
 10
15.422892014
 20
20.3015110627
 30
0.0
 40
0.1749999999999901
  0
CIRCLE
  5
125
330
1F
100
AcDbEntity
  8
0
  6
Continuous
 62
     7
370
    15
100
AcDbCircle
 10
15.422892014
 20
19.5015110627
 30
0.0
 40
0.1749999999999865
  0
CIRCLE
  5
126
330
1F
100
AcDbEntity
  8
0
  6
Continuous
 62
     7
370
    15
100
AcDbCircle
 10
15.422892014
 20
18.7015110627
 30
0.0
 40
0.1749999999999901
  0
CIRCLE
  5
127
330
1F
100
AcDbEntity
  8
0
  6
Continuous
 62
     7
370
    15
100
AcDbCircle
 10
15.422892014
 20
17.9015110627
 30
0.0
 40
0.1749999999999901
  0
CIRCLE
  5
128
330
1F
100
AcDbEntity
  8
0
  6
Continuous
 62
     7
370
    15
100
AcDbCircle
 10
15.422892014
 20
17.1015110627
 30
0.0
 40
0.1749999999999865
  0
CIRCLE
  5
129
330
1F
100
AcDbEntity
  8
0
  6
Continuous
 62
     7
370
    15
100
AcDbCircle
 10
15.422892014
 20
16.3015110627
 30
0.0
 40
0.1749999999999865
  0
CIRCLE
  5
12A
330
1F
100
AcDbEntity
  8
0
  6
Continuous
 62
     7
370
    15
100
AcDbCircle
 10
15.422892014
 20
15.5015110627
 30
0.0
 40
0.1749999999999883
  0
CIRCLE
  5
12B
330
1F
100
AcDbEntity
  8
0
  6
Continuous
 62
     7
370
    15
100
AcDbCircle
 10
15.822892014
 20
21.1015110627
 30
0.0
 40
0.1749999999999901
  0
CIRCLE
  5
12C
330
1F
100
AcDbEntity
  8
0
  6
Continuous
 62
     7
370
    15
100
AcDbCircle
 10
15.822892014
 20
20.3015110627
 30
0.0
 40
0.1749999999999901
  0
CIRCLE
  5
12D
330
1F
100
AcDbEntity
  8
0
  6
Continuous
 62
     7
370
    15
100
AcDbCircle
 10
15.822892014
 20
19.5015110627
 30
0.0
 40
0.1749999999999865
  0
CIRCLE
  5
12E
330
1F
100
AcDbEntity
  8
0
  6
Continuous
 62
     7
370
    15
100
AcDbCircle
 10
15.822892014
 20
18.7015110627
 30
0.0
 40
0.1749999999999901
  0
CIRCLE
  5
12F
330
1F
100
AcDbEntity
  8
0
  6
Continuous
 62
     7
370
    15
100
AcDbCircle
 10
15.822892014
 20
17.9015110627
 30
0.0
 40
0.1749999999999901
  0
CIRCLE
  5
130
330
1F
100
AcDbEntity
  8
0
  6
Continuous
 62
     7
370
    15
100
AcDbCircle
 10
15.822892014
 20
17.1015110627
 30
0.0
 40
0.1749999999999865
  0
CIRCLE
  5
131
330
1F
100
AcDbEntity
  8
0
  6
Continuous
 62
     7
370
    15
100
AcDbCircle
 10
15.822892014
 20
16.3015110627
 30
0.0
 40
0.1749999999999865
  0
CIRCLE
  5
132
330
1F
100
AcDbEntity
  8
0
  6
Continuous
 62
     7
370
    15
100
AcDbCircle
 10
15.822892014
 20
15.5015110627
 30
0.0
 40
0.1749999999999883
  0
CIRCLE
  5
133
330
1F
100
AcDbEntity
  8
0
  6
Continuous
 62
     7
370
    15
100
AcDbCircle
 10
16.222892014
 20
21.1015110627
 30
0.0
 40
0.1749999999999901
  0
CIRCLE
  5
134
330
1F
100
AcDbEntity
  8
0
  6
Continuous
 62
     7
370
    15
100
AcDbCircle
 10
16.222892014
 20
20.3015110627
 30
0.0
 40
0.1749999999999901
  0
CIRCLE
  5
135
330
1F
100
AcDbEntity
  8
0
  6
Continuous
 62
     7
370
    15
100
AcDbCircle
 10
16.222892014
 20
19.5015110627
 30
0.0
 40
0.1749999999999865
  0
CIRCLE
  5
136
330
1F
100
AcDbEntity
  8
0
  6
Continuous
 62
     7
370
    15
100
AcDbCircle
 10
16.222892014
 20
18.7015110627
 30
0.0
 40
0.1749999999999901
  0
CIRCLE
  5
137
330
1F
100
AcDbEntity
  8
0
  6
Continuous
 62
     7
370
    15
100
AcDbCircle
 10
16.222892014
 20
17.9015110627
 30
0.0
 40
0.1749999999999901
  0
CIRCLE
  5
138
330
1F
100
AcDbEntity
  8
0
  6
Continuous
 62
     7
370
    15
100
AcDbCircle
 10
16.222892014
 20
17.1015110627
 30
0.0
 40
0.1749999999999865
  0
CIRCLE
  5
139
330
1F
100
AcDbEntity
  8
0
  6
Continuous
 62
     7
370
    15
100
AcDbCircle
 10
16.222892014
 20
16.3015110627
 30
0.0
 40
0.1749999999999865
  0
CIRCLE
  5
13A
330
1F
100
AcDbEntity
  8
0
  6
Continuous
 62
     7
370
    15
100
AcDbCircle
 10
16.222892014
 20
15.5015110627
 30
0.0
 40
0.1749999999999883
  0
CIRCLE
  5
13B
330
1F
100
AcDbEntity
  8
0
  6
Continuous
 62
     7
370
    15
100
AcDbCircle
 10
16.622892014
 20
21.1015110627
 30
0.0
 40
0.1749999999999901
  0
CIRCLE
  5
13C
330
1F
100
AcDbEntity
  8
0
  6
Continuous
 62
     7
370
    15
100
AcDbCircle
 10
16.622892014
 20
20.3015110627
 30
0.0
 40
0.1749999999999901
  0
CIRCLE
  5
13D
330
1F
100
AcDbEntity
  8
0
  6
Continuous
 62
     7
370
    15
100
AcDbCircle
 10
16.622892014
 20
19.5015110627
 30
0.0
 40
0.1749999999999865
  0
CIRCLE
  5
13E
330
1F
100
AcDbEntity
  8
0
  6
Continuous
 62
     7
370
    15
100
AcDbCircle
 10
16.622892014
 20
18.7015110627
 30
0.0
 40
0.1749999999999901
  0
CIRCLE
  5
13F
330
1F
100
AcDbEntity
  8
0
  6
Continuous
 62
     7
370
    15
100
AcDbCircle
 10
16.622892014
 20
17.9015110627
 30
0.0
 40
0.1749999999999901
  0
CIRCLE
  5
140
330
1F
100
AcDbEntity
  8
0
  6
Continuous
 62
     7
370
    15
100
AcDbCircle
 10
16.622892014
 20
17.1015110627
 30
0.0
 40
0.1749999999999865
  0
CIRCLE
  5
141
330
1F
100
AcDbEntity
  8
0
  6
Continuous
 62
     7
370
    15
100
AcDbCircle
 10
16.622892014
 20
16.3015110627
 30
0.0
 40
0.1749999999999865
  0
CIRCLE
  5
142
330
1F
100
AcDbEntity
  8
0
  6
Continuous
 62
     7
370
    15
100
AcDbCircle
 10
16.622892014
 20
15.5015110627
 30
0.0
 40
0.1749999999999883
  0
CIRCLE
  5
143
330
1F
100
AcDbEntity
  8
0
  6
Continuous
 62
     7
370
    15
100
AcDbCircle
 10
17.022892014
 20
21.1015110627
 30
0.0
 40
0.1749999999999901
  0
CIRCLE
  5
144
330
1F
100
AcDbEntity
  8
0
  6
Continuous
 62
     7
370
    15
100
AcDbCircle
 10
17.022892014
 20
20.3015110627
 30
0.0
 40
0.1749999999999901
  0
CIRCLE
  5
145
330
1F
100
AcDbEntity
  8
0
  6
Continuous
 62
     7
370
    15
100
AcDbCircle
 10
17.022892014
 20
19.5015110627
 30
0.0
 40
0.1749999999999865
  0
CIRCLE
  5
146
330
1F
100
AcDbEntity
  8
0
  6
Continuous
 62
     7
370
    15
100
AcDbCircle
 10
17.022892014
 20
18.7015110627
 30
0.0
 40
0.1749999999999901
  0
CIRCLE
  5
147
330
1F
100
AcDbEntity
  8
0
  6
Continuous
 62
     7
370
    15
100
AcDbCircle
 10
17.022892014
 20
17.9015110627
 30
0.0
 40
0.1749999999999901
  0
CIRCLE
  5
148
330
1F
100
AcDbEntity
  8
0
  6
Continuous
 62
     7
370
    15
100
AcDbCircle
 10
17.022892014
 20
17.1015110627
 30
0.0
 40
0.1749999999999865
  0
CIRCLE
  5
149
330
1F
100
AcDbEntity
  8
0
  6
Continuous
 62
     7
370
    15
100
AcDbCircle
 10
17.022892014
 20
16.3015110627
 30
0.0
 40
0.1749999999999865
  0
CIRCLE
  5
14A
330
1F
100
AcDbEntity
  8
0
  6
Continuous
 62
     7
370
    15
100
AcDbCircle
 10
17.022892014
 20
15.5015110627
 30
0.0
 40
0.1749999999999883
  0
CIRCLE
  5
14B
330
1F
100
AcDbEntity
  8
0
  6
Continuous
 62
     7
370
    15
100
AcDbCircle
 10
17.422892014
 20
21.1015110627
 30
0.0
 40
0.1749999999999901
  0
CIRCLE
  5
14C
330
1F
100
AcDbEntity
  8
0
  6
Continuous
 62
     7
370
    15
100
AcDbCircle
 10
17.422892014
 20
20.3015110627
 30
0.0
 40
0.1749999999999901
  0
CIRCLE
  5
14D
330
1F
100
AcDbEntity
  8
0
  6
Continuous
 62
     7
370
    15
100
AcDbCircle
 10
17.422892014
 20
19.5015110627
 30
0.0
 40
0.1749999999999865
  0
CIRCLE
  5
14E
330
1F
100
AcDbEntity
  8
0
  6
Continuous
 62
     7
370
    15
100
AcDbCircle
 10
17.422892014
 20
18.7015110627
 30
0.0
 40
0.1749999999999901
  0
CIRCLE
  5
14F
330
1F
100
AcDbEntity
  8
0
  6
Continuous
 62
     7
370
    15
100
AcDbCircle
 10
17.422892014
 20
17.9015110627
 30
0.0
 40
0.1749999999999901
  0
CIRCLE
  5
150
330
1F
100
AcDbEntity
  8
0
  6
Continuous
 62
     7
370
    15
100
AcDbCircle
 10
17.422892014
 20
17.1015110627
 30
0.0
 40
0.1749999999999865
  0
CIRCLE
  5
151
330
1F
100
AcDbEntity
  8
0
  6
Continuous
 62
     7
370
    15
100
AcDbCircle
 10
17.422892014
 20
16.3015110627
 30
0.0
 40
0.1749999999999865
  0
CIRCLE
  5
152
330
1F
100
AcDbEntity
  8
0
  6
Continuous
 62
     7
370
    15
100
AcDbCircle
 10
17.422892014
 20
15.5015110627
 30
0.0
 40
0.1749999999999883
  0
CIRCLE
  5
153
330
1F
100
AcDbEntity
  8
0
  6
Continuous
 62
     7
370
    15
100
AcDbCircle
 10
17.822892014
 20
21.1015110627
 30
0.0
 40
0.1749999999999901
  0
CIRCLE
  5
154
330
1F
100
AcDbEntity
  8
0
  6
Continuous
 62
     7
370
    15
100
AcDbCircle
 10
17.822892014
 20
20.3015110627
 30
0.0
 40
0.1749999999999901
  0
CIRCLE
  5
155
330
1F
100
AcDbEntity
  8
0
  6
Continuous
 62
     7
370
    15
100
AcDbCircle
 10
17.822892014
 20
19.5015110627
 30
0.0
 40
0.1749999999999865
  0
CIRCLE
  5
156
330
1F
100
AcDbEntity
  8
0
  6
Continuous
 62
     7
370
    15
100
AcDbCircle
 10
17.822892014
 20
18.7015110627
 30
0.0
 40
0.1749999999999901
  0
CIRCLE
  5
157
330
1F
100
AcDbEntity
  8
0
  6
Continuous
 62
     7
370
    15
100
AcDbCircle
 10
17.822892014
 20
17.9015110627
 30
0.0
 40
0.1749999999999901
  0
CIRCLE
  5
158
330
1F
100
AcDbEntity
  8
0
  6
Continuous
 62
     7
370
    15
100
AcDbCircle
 10
17.822892014
 20
17.1015110627
 30
0.0
 40
0.1749999999999865
  0
CIRCLE
  5
159
330
1F
100
AcDbEntity
  8
0
  6
Continuous
 62
     7
370
    15
100
AcDbCircle
 10
17.822892014
 20
16.3015110627
 30
0.0
 40
0.1749999999999865
  0
CIRCLE
  5
15A
330
1F
100
AcDbEntity
  8
0
  6
Continuous
 62
     7
370
    15
100
AcDbCircle
 10
17.822892014
 20
15.5015110627
 30
0.0
 40
0.1749999999999883
  0
CIRCLE
  5
15B
330
1F
100
AcDbEntity
  8
0
  6
Continuous
 62
     7
370
    15
100
AcDbCircle
 10
18.222892014
 20
21.1015110627
 30
0.0
 40
0.1749999999999901
  0
CIRCLE
  5
15C
330
1F
100
AcDbEntity
  8
0
  6
Continuous
 62
     7
370
    15
100
AcDbCircle
 10
18.222892014
 20
20.3015110627
 30
0.0
 40
0.1749999999999901
  0
CIRCLE
  5
15D
330
1F
100
AcDbEntity
  8
0
  6
Continuous
 62
     7
370
    15
100
AcDbCircle
 10
18.222892014
 20
19.5015110627
 30
0.0
 40
0.1749999999999865
  0
CIRCLE
  5
15E
330
1F
100
AcDbEntity
  8
0
  6
Continuous
 62
     7
370
    15
100
AcDbCircle
 10
18.222892014
 20
18.7015110627
 30
0.0
 40
0.1749999999999901
  0
CIRCLE
  5
15F
330
1F
100
AcDbEntity
  8
0
  6
Continuous
 62
     7
370
    15
100
AcDbCircle
 10
18.222892014
 20
17.9015110627
 30
0.0
 40
0.1749999999999901
  0
CIRCLE
  5
160
330
1F
100
AcDbEntity
  8
0
  6
Continuous
 62
     7
370
    15
100
AcDbCircle
 10
18.222892014
 20
17.1015110627
 30
0.0
 40
0.1749999999999865
  0
CIRCLE
  5
161
330
1F
100
AcDbEntity
  8
0
  6
Continuous
 62
     7
370
    15
100
AcDbCircle
 10
18.222892014
 20
16.3015110627
 30
0.0
 40
0.1749999999999865
  0
CIRCLE
  5
162
330
1F
100
AcDbEntity
  8
0
  6
Continuous
 62
     7
370
    15
100
AcDbCircle
 10
18.222892014
 20
15.5015110627
 30
0.0
 40
0.1749999999999883
  0
CIRCLE
  5
163
330
1F
100
AcDbEntity
  8
0
  6
Continuous
 62
     7
370
    15
100
AcDbCircle
 10
18.622892014
 20
21.1015110627
 30
0.0
 40
0.1749999999999901
  0
CIRCLE
  5
164
330
1F
100
AcDbEntity
  8
0
  6
Continuous
 62
     7
370
    15
100
AcDbCircle
 10
18.622892014
 20
20.3015110627
 30
0.0
 40
0.1749999999999901
  0
CIRCLE
  5
165
330
1F
100
AcDbEntity
  8
0
  6
Continuous
 62
     7
370
    15
100
AcDbCircle
 10
18.622892014
 20
19.5015110627
 30
0.0
 40
0.1749999999999865
  0
CIRCLE
  5
166
330
1F
100
AcDbEntity
  8
0
  6
Continuous
 62
     7
370
    15
100
AcDbCircle
 10
18.622892014
 20
18.7015110627
 30
0.0
 40
0.1749999999999901
  0
CIRCLE
  5
167
330
1F
100
AcDbEntity
  8
0
  6
Continuous
 62
     7
370
    15
100
AcDbCircle
 10
18.622892014
 20
17.9015110627
 30
0.0
 40
0.1749999999999901
  0
CIRCLE
  5
168
330
1F
100
AcDbEntity
  8
0
  6
Continuous
 62
     7
370
    15
100
AcDbCircle
 10
18.622892014
 20
17.1015110627
 30
0.0
 40
0.1749999999999865
  0
CIRCLE
  5
169
330
1F
100
AcDbEntity
  8
0
  6
Continuous
 62
     7
370
    15
100
AcDbCircle
 10
18.622892014
 20
16.3015110627
 30
0.0
 40
0.1749999999999865
  0
CIRCLE
  5
16A
330
1F
100
AcDbEntity
  8
0
  6
Continuous
 62
     7
370
    15
100
AcDbCircle
 10
18.622892014
 20
15.5015110627
 30
0.0
 40
0.1749999999999883
  0
CIRCLE
  5
16B
330
1F
100
AcDbEntity
  8
0
  6
Continuous
 62
     7
370
    15
100
AcDbCircle
 10
19.022892014
 20
21.1015110627
 30
0.0
 40
0.1749999999999901
  0
CIRCLE
  5
16C
330
1F
100
AcDbEntity
  8
0
  6
Continuous
 62
     7
370
    15
100
AcDbCircle
 10
19.022892014
 20
20.3015110627
 30
0.0
 40
0.1749999999999901
  0
CIRCLE
  5
16D
330
1F
100
AcDbEntity
  8
0
  6
Continuous
 62
     7
370
    15
100
AcDbCircle
 10
19.022892014
 20
19.5015110627
 30
0.0
 40
0.1749999999999865
  0
CIRCLE
  5
16E
330
1F
100
AcDbEntity
  8
0
  6
Continuous
 62
     7
370
    15
100
AcDbCircle
 10
19.022892014
 20
18.7015110627
 30
0.0
 40
0.1749999999999901
  0
CIRCLE
  5
16F
330
1F
100
AcDbEntity
  8
0
  6
Continuous
 62
     7
370
    15
100
AcDbCircle
 10
19.022892014
 20
17.9015110627
 30
0.0
 40
0.1749999999999901
  0
CIRCLE
  5
170
330
1F
100
AcDbEntity
  8
0
  6
Continuous
 62
     7
370
    15
100
AcDbCircle
 10
19.022892014
 20
17.1015110627
 30
0.0
 40
0.1749999999999865
  0
CIRCLE
  5
171
330
1F
100
AcDbEntity
  8
0
  6
Continuous
 62
     7
370
    15
100
AcDbCircle
 10
19.022892014
 20
16.3015110627
 30
0.0
 40
0.1749999999999865
  0
CIRCLE
  5
172
330
1F
100
AcDbEntity
  8
0
  6
Continuous
 62
     7
370
    15
100
AcDbCircle
 10
19.022892014
 20
15.5015110627
 30
0.0
 40
0.1749999999999883
  0
CIRCLE
  5
173
330
1F
100
AcDbEntity
  8
0
  6
Continuous
 62
     7
370
    15
100
AcDbCircle
 10
19.422892014
 20
21.1015110627
 30
0.0
 40
0.1749999999999901
  0
CIRCLE
  5
174
330
1F
100
AcDbEntity
  8
0
  6
Continuous
 62
     7
370
    15
100
AcDbCircle
 10
19.422892014
 20
20.3015110627
 30
0.0
 40
0.1749999999999901
  0
CIRCLE
  5
175
330
1F
100
AcDbEntity
  8
0
  6
Continuous
 62
     7
370
    15
100
AcDbCircle
 10
19.422892014
 20
19.5015110627
 30
0.0
 40
0.1749999999999865
  0
CIRCLE
  5
176
330
1F
100
AcDbEntity
  8
0
  6
Continuous
 62
     7
370
    15
100
AcDbCircle
 10
19.422892014
 20
18.7015110627
 30
0.0
 40
0.1749999999999901
  0
CIRCLE
  5
177
330
1F
100
AcDbEntity
  8
0
  6
Continuous
 62
     7
370
    15
100
AcDbCircle
 10
19.422892014
 20
17.9015110627
 30
0.0
 40
0.1749999999999901
  0
CIRCLE
  5
178
330
1F
100
AcDbEntity
  8
0
  6
Continuous
 62
     7
370
    15
100
AcDbCircle
 10
19.422892014
 20
17.1015110627
 30
0.0
 40
0.1749999999999865
  0
CIRCLE
  5
179
330
1F
100
AcDbEntity
  8
0
  6
Continuous
 62
     7
370
    15
100
AcDbCircle
 10
19.422892014
 20
16.3015110627
 30
0.0
 40
0.1749999999999865
  0
CIRCLE
  5
17A
330
1F
100
AcDbEntity
  8
0
  6
Continuous
 62
     7
370
    15
100
AcDbCircle
 10
19.422892014
 20
15.5015110627
 30
0.0
 40
0.1749999999999883
  0
CIRCLE
  5
17B
330
1F
100
AcDbEntity
  8
0
  6
Continuous
 62
     7
370
    15
100
AcDbCircle
 10
19.822892014
 20
21.1015110627
 30
0.0
 40
0.1749999999999901
  0
CIRCLE
  5
17C
330
1F
100
AcDbEntity
  8
0
  6
Continuous
 62
     7
370
    15
100
AcDbCircle
 10
19.822892014
 20
20.3015110627
 30
0.0
 40
0.1749999999999901
  0
CIRCLE
  5
17D
330
1F
100
AcDbEntity
  8
0
  6
Continuous
 62
     7
370
    15
100
AcDbCircle
 10
19.822892014
 20
19.5015110627
 30
0.0
 40
0.1749999999999865
  0
CIRCLE
  5
17E
330
1F
100
AcDbEntity
  8
0
  6
Continuous
 62
     7
370
    15
100
AcDbCircle
 10
19.822892014
 20
18.7015110627
 30
0.0
 40
0.1749999999999901
  0
CIRCLE
  5
17F
330
1F
100
AcDbEntity
  8
0
  6
Continuous
 62
     7
370
    15
100
AcDbCircle
 10
19.822892014
 20
17.9015110627
 30
0.0
 40
0.1749999999999901
  0
CIRCLE
  5
180
330
1F
100
AcDbEntity
  8
0
  6
Continuous
 62
     7
370
    15
100
AcDbCircle
 10
19.822892014
 20
17.1015110627
 30
0.0
 40
0.1749999999999865
  0
CIRCLE
  5
181
330
1F
100
AcDbEntity
  8
0
  6
Continuous
 62
     7
370
    15
100
AcDbCircle
 10
19.822892014
 20
16.3015110627
 30
0.0
 40
0.1749999999999865
  0
CIRCLE
  5
182
330
1F
100
AcDbEntity
  8
0
  6
Continuous
 62
     7
370
    15
100
AcDbCircle
 10
19.822892014
 20
15.5015110627
 30
0.0
 40
0.1749999999999883
  0
CIRCLE
  5
183
330
1F
100
AcDbEntity
  8
0
  6
Continuous
 62
     7
370
    15
100
AcDbCircle
 10
20.222892014
 20
21.1015110627
 30
0.0
 40
0.1749999999999901
  0
CIRCLE
  5
184
330
1F
100
AcDbEntity
  8
0
  6
Continuous
 62
     7
370
    15
100
AcDbCircle
 10
20.222892014
 20
20.3015110627
 30
0.0
 40
0.1749999999999901
  0
CIRCLE
  5
185
330
1F
100
AcDbEntity
  8
0
  6
Continuous
 62
     7
370
    15
100
AcDbCircle
 10
20.222892014
 20
19.5015110627
 30
0.0
 40
0.1749999999999865
  0
CIRCLE
  5
186
330
1F
100
AcDbEntity
  8
0
  6
Continuous
 62
     7
370
    15
100
AcDbCircle
 10
20.222892014
 20
18.7015110627
 30
0.0
 40
0.1749999999999901
  0
CIRCLE
  5
187
330
1F
100
AcDbEntity
  8
0
  6
Continuous
 62
     7
370
    15
100
AcDbCircle
 10
20.222892014
 20
17.9015110627
 30
0.0
 40
0.1749999999999901
  0
CIRCLE
  5
188
330
1F
100
AcDbEntity
  8
0
  6
Continuous
 62
     7
370
    15
100
AcDbCircle
 10
20.222892014
 20
17.1015110627
 30
0.0
 40
0.1749999999999865
  0
CIRCLE
  5
189
330
1F
100
AcDbEntity
  8
0
  6
Continuous
 62
     7
370
    15
100
AcDbCircle
 10
20.222892014
 20
16.3015110627
 30
0.0
 40
0.1749999999999865
  0
CIRCLE
  5
18A
330
1F
100
AcDbEntity
  8
0
  6
Continuous
 62
     7
370
    15
100
AcDbCircle
 10
20.222892014
 20
15.5015110627
 30
0.0
 40
0.1749999999999883
  0
CIRCLE
  5
18B
330
1F
100
AcDbEntity
  8
0
  6
Continuous
 62
     7
370
    15
100
AcDbCircle
 10
20.222892014
 20
20.3015110627
 30
0.0
 40
0.0899999999999999
  0
CIRCLE
  5
18C
330
1F
100
AcDbEntity
  8
0
  6
Continuous
 62
     7
370
    15
100
AcDbCircle
 10
19.422892014
 20
19.5015110627
 30
0.0
 40
0.0899999999999963
  0
CIRCLE
  5
18D
330
1F
100
AcDbEntity
  8
0
  6
Continuous
 62
     7
370
    15
100
AcDbCircle
 10
19.422892014
 20
19.1015110627
 30
0.0
 40
0.0899999999999963
  0
CIRCLE
  5
18E
330
1F
100
AcDbEntity
  8
0
  6
Continuous
 62
     7
370
    15
100
AcDbCircle
 10
20.222892014
 20
15.9015110627
 30
0.0
 40
0.0899999999999999
  0
CIRCLE
  5
18F
330
1F
100
AcDbEntity
  8
0
  6
Continuous
 62
     7
370
    15
100
AcDbCircle
 10
19.422892014
 20
18.7015110627
 30
0.0
 40
0.0899999999999999
  0
CIRCLE
  5
190
330
1F
100
AcDbEntity
  8
0
  6
Continuous
 62
     7
370
    15
100
AcDbCircle
 10
20.222892014
 20
15.5015110627
 30
0.0
 40
0.0899999999999981
  0
CIRCLE
  5
191
330
1F
100
AcDbEntity
  8
0
  6
Continuous
 62
     7
370
    15
100
AcDbCircle
 10
19.422892014
 20
20.3015110627
 30
0.0
 40
0.0899999999999999
  0
CIRCLE
  5
192
330
1F
100
AcDbEntity
  8
0
  6
Continuous
 62
     7
370
    15
100
AcDbCircle
 10
14.222892014
 20
19.5015110627
 30
0.0
 40
0.0899999999999963
  0
CIRCLE
  5
193
330
1F
100
AcDbEntity
  8
0
  6
Continuous
 62
     7
370
    15
100
AcDbCircle
 10
19.422892014
 20
17.9015110627
 30
0.0
 40
0.0899999999999999
  0
CIRCLE
  5
194
330
1F
100
AcDbEntity
  8
0
  6
Continuous
 62
     7
370
    15
100
AcDbCircle
 10
14.222892014
 20
19.1015110627
 30
0.0
 40
0.0899999999999963
  0
CIRCLE
  5
195
330
1F
100
AcDbEntity
  8
0
  6
Continuous
 62
     7
370
    15
100
AcDbCircle
 10
19.422892014
 20
17.5015110627
 30
0.0
 40
0.0899999999999999
  0
CIRCLE
  5
196
330
1F
100
AcDbEntity
  8
0
  6
Continuous
 62
     7
370
    15
100
AcDbCircle
 10
14.222892014
 20
18.7015110627
 30
0.0
 40
0.0899999999999999
  0
CIRCLE
  5
197
330
1F
100
AcDbEntity
  8
0
  6
Continuous
 62
     7
370
    15
100
AcDbCircle
 10
19.422892014
 20
17.1015110627
 30
0.0
 40
0.0899999999999963
  0
CIRCLE
  5
198
330
1F
100
AcDbEntity
  8
0
  6
Continuous
 62
     7
370
    15
100
AcDbCircle
 10
14.222892014
 20
18.3015110627
 30
0.0
 40
0.0899999999999999
  0
CIRCLE
  5
199
330
1F
100
AcDbEntity
  8
0
  6
Continuous
 62
     7
370
    15
100
AcDbCircle
 10
19.422892014
 20
16.7015110627
 30
0.0
 40
0.0899999999999999
  0
CIRCLE
  5
19A
330
1F
100
AcDbEntity
  8
0
  6
Continuous
 62
     7
370
    15
100
AcDbCircle
 10
14.222892014
 20
17.9015110627
 30
0.0
 40
0.0899999999999999
  0
CIRCLE
  5
19B
330
1F
100
AcDbEntity
  8
0
  6
Continuous
 62
     7
370
    15
100
AcDbCircle
 10
19.422892014
 20
18.3015110627
 30
0.0
 40
0.0899999999999999
  0
CIRCLE
  5
19C
330
1F
100
AcDbEntity
  8
0
  6
Continuous
 62
     7
370
    15
100
AcDbCircle
 10
14.222892014
 20
17.5015110627
 30
0.0
 40
0.0899999999999999
  0
CIRCLE
  5
19D
330
1F
100
AcDbEntity
  8
0
  6
Continuous
 62
     7
370
    15
100
AcDbCircle
 10
19.422892014
 20
15.9015110627
 30
0.0
 40
0.0899999999999999
  0
CIRCLE
  5
19E
330
1F
100
AcDbEntity
  8
0
  6
Continuous
 62
     7
370
    15
100
AcDbCircle
 10
14.222892014
 20
17.1015110627
 30
0.0
 40
0.0899999999999963
  0
CIRCLE
  5
19F
330
1F
100
AcDbEntity
  8
0
  6
Continuous
 62
     7
370
    15
100
AcDbCircle
 10
19.422892014
 20
15.5015110627
 30
0.0
 40
0.0899999999999981
  0
CIRCLE
  5
1A0
330
1F
100
AcDbEntity
  8
0
  6
Continuous
 62
     7
370
    15
100
AcDbCircle
 10
14.222892014
 20
16.7015110627
 30
0.0
 40
0.0899999999999999
  0
CIRCLE
  5
1A1
330
1F
100
AcDbEntity
  8
0
  6
Continuous
 62
     7
370
    15
100
AcDbCircle
 10
19.422892014
 20
15.1015110627
 30
0.0
 40
0.0899999999999999
  0
CIRCLE
  5
1A2
330
1F
100
AcDbEntity
  8
0
  6
Continuous
 62
     7
370
    15
100
AcDbCircle
 10
14.222892014
 20
16.3015110627
 30
0.0
 40
0.0899999999999999
  0
CIRCLE
  5
1A3
330
1F
100
AcDbEntity
  8
0
  6
Continuous
 62
     7
370
    15
100
AcDbCircle
 10
19.822892014
 20
21.1015110627
 30
0.0
 40
0.0900000000000034
  0
CIRCLE
  5
1A4
330
1F
100
AcDbEntity
  8
0
  6
Continuous
 62
     7
370
    15
100
AcDbCircle
 10
14.222892014
 20
15.9015110627
 30
0.0
 40
0.0899999999999999
  0
CIRCLE
  5
1A5
330
1F
100
AcDbEntity
  8
0
  6
Continuous
 62
     7
370
    15
100
AcDbCircle
 10
19.422892014
 20
16.3015110627
 30
0.0
 40
0.0899999999999999
  0
CIRCLE
  5
1A6
330
1F
100
AcDbEntity
  8
0
  6
Continuous
 62
     7
370
    15
100
AcDbCircle
 10
14.222892014
 20
15.5015110627
 30
0.0
 40
0.0899999999999981
  0
CIRCLE
  5
1A7
330
1F
100
AcDbEntity
  8
0
  6
Continuous
 62
     7
370
    15
100
AcDbCircle
 10
19.822892014
 20
20.3015110627
 30
0.0
 40
0.0899999999999999
  0
CIRCLE
  5
1A8
330
1F
100
AcDbEntity
  8
0
  6
Continuous
 62
     7
370
    15
100
AcDbCircle
 10
14.222892014
 20
15.1015110627
 30
0.0
 40
0.0899999999999999
  0
CIRCLE
  5
1A9
330
1F
100
AcDbEntity
  8
0
  6
Continuous
 62
     7
370
    15
100
AcDbCircle
 10
19.822892014
 20
19.9015110627
 30
0.0
 40
0.0899999999999999
  0
CIRCLE
  5
1AA
330
1F
100
AcDbEntity
  8
0
  6
Continuous
 62
     7
370
    15
100
AcDbCircle
 10
14.622892014
 20
21.1015110627
 30
0.0
 40
0.0900000000000034
  0
CIRCLE
  5
1AB
330
1F
100
AcDbEntity
  8
0
  6
Continuous
 62
     7
370
    15
100
AcDbCircle
 10
19.822892014
 20
19.5015110627
 30
0.0
 40
0.0899999999999963
  0
CIRCLE
  5
1AC
330
1F
100
AcDbEntity
  8
0
  6
Continuous
 62
     7
370
    15
100
AcDbCircle
 10
14.622892014
 20
20.7015110627
 30
0.0
 40
0.0899999999999963
  0
CIRCLE
  5
1AD
330
1F
100
AcDbEntity
  8
0
  6
Continuous
 62
     7
370
    15
100
AcDbCircle
 10
19.822892014
 20
19.1015110627
 30
0.0
 40
0.0899999999999963
  0
CIRCLE
  5
1AE
330
1F
100
AcDbEntity
  8
0
  6
Continuous
 62
     7
370
    15
100
AcDbCircle
 10
14.622892014
 20
20.3015110627
 30
0.0
 40
0.0899999999999999
  0
CIRCLE
  5
1AF
330
1F
100
AcDbEntity
  8
0
  6
Continuous
 62
     7
370
    15
100
AcDbCircle
 10
19.822892014
 20
18.7015110627
 30
0.0
 40
0.0899999999999999
  0
CIRCLE
  5
1B0
330
1F
100
AcDbEntity
  8
0
  6
Continuous
 62
     7
370
    15
100
AcDbCircle
 10
14.622892014
 20
19.9015110627
 30
0.0
 40
0.0899999999999999
  0
CIRCLE
  5
1B1
330
1F
100
AcDbEntity
  8
0
  6
Continuous
 62
     7
370
    15
100
AcDbCircle
 10
19.822892014
 20
18.3015110627
 30
0.0
 40
0.0899999999999999
  0
CIRCLE
  5
1B2
330
1F
100
AcDbEntity
  8
0
  6
Continuous
 62
     7
370
    15
100
AcDbCircle
 10
14.622892014
 20
19.5015110627
 30
0.0
 40
0.0899999999999963
  0
CIRCLE
  5
1B3
330
1F
100
AcDbEntity
  8
0
  6
Continuous
 62
     7
370
    15
100
AcDbCircle
 10
19.822892014
 20
17.9015110627
 30
0.0
 40
0.0899999999999999
  0
CIRCLE
  5
1B4
330
1F
100
AcDbEntity
  8
0
  6
Continuous
 62
     7
370
    15
100
AcDbCircle
 10
14.622892014
 20
19.1015110627
 30
0.0
 40
0.0899999999999963
  0
CIRCLE
  5
1B5
330
1F
100
AcDbEntity
  8
0
  6
Continuous
 62
     7
370
    15
100
AcDbCircle
 10
19.822892014
 20
17.5015110627
 30
0.0
 40
0.0899999999999999
  0
CIRCLE
  5
1B6
330
1F
100
AcDbEntity
  8
0
  6
Continuous
 62
     7
370
    15
100
AcDbCircle
 10
14.622892014
 20
18.7015110627
 30
0.0
 40
0.0899999999999999
  0
CIRCLE
  5
1B7
330
1F
100
AcDbEntity
  8
0
  6
Continuous
 62
     7
370
    15
100
AcDbCircle
 10
19.822892014
 20
17.1015110627
 30
0.0
 40
0.0899999999999963
  0
CIRCLE
  5
1B8
330
1F
100
AcDbEntity
  8
0
  6
Continuous
 62
     7
370
    15
100
AcDbCircle
 10
14.622892014
 20
18.3015110627
 30
0.0
 40
0.0899999999999999
  0
CIRCLE
  5
1B9
330
1F
100
AcDbEntity
  8
0
  6
Continuous
 62
     7
370
    15
100
AcDbCircle
 10
19.822892014
 20
16.7015110627
 30
0.0
 40
0.0899999999999999
  0
CIRCLE
  5
1BA
330
1F
100
AcDbEntity
  8
0
  6
Continuous
 62
     7
370
    15
100
AcDbCircle
 10
19.822892014
 20
20.7015110627
 30
0.0
 40
0.0899999999999963
  0
CIRCLE
  5
1BB
330
1F
100
AcDbEntity
  8
0
  6
Continuous
 62
     7
370
    15
100
AcDbCircle
 10
19.822892014
 20
16.3015110627
 30
0.0
 40
0.0899999999999999
  0
CIRCLE
  5
1BC
330
1F
100
AcDbEntity
  8
0
  6
Continuous
 62
     7
370
    15
100
AcDbCircle
 10
14.622892014
 20
17.5015110627
 30
0.0
 40
0.0899999999999999
  0
CIRCLE
  5
1BD
330
1F
100
AcDbEntity
  8
0
  6
Continuous
 62
     7
370
    15
100
AcDbCircle
 10
19.822892014
 20
15.9015110627
 30
0.0
 40
0.0899999999999999
  0
CIRCLE
  5
1BE
330
1F
100
AcDbEntity
  8
0
  6
Continuous
 62
     7
370
    15
100
AcDbCircle
 10
14.622892014
 20
17.1015110627
 30
0.0
 40
0.0899999999999963
  0
CIRCLE
  5
1BF
330
1F
100
AcDbEntity
  8
0
  6
Continuous
 62
     7
370
    15
100
AcDbCircle
 10
19.822892014
 20
15.5015110627
 30
0.0
 40
0.0899999999999981
  0
CIRCLE
  5
1C0
330
1F
100
AcDbEntity
  8
0
  6
Continuous
 62
     7
370
    15
100
AcDbCircle
 10
14.622892014
 20
16.7015110627
 30
0.0
 40
0.0899999999999999
  0
CIRCLE
  5
1C1
330
1F
100
AcDbEntity
  8
0
  6
Continuous
 62
     7
370
    15
100
AcDbCircle
 10
19.822892014
 20
15.1015110627
 30
0.0
 40
0.0899999999999999
  0
CIRCLE
  5
1C2
330
1F
100
AcDbEntity
  8
0
  6
Continuous
 62
     7
370
    15
100
AcDbCircle
 10
14.622892014
 20
16.3015110627
 30
0.0
 40
0.0899999999999999
  0
CIRCLE
  5
1C3
330
1F
100
AcDbEntity
  8
0
  6
Continuous
 62
     7
370
    15
100
AcDbCircle
 10
20.222892014
 20
21.1015110627
 30
0.0
 40
0.0900000000000034
  0
CIRCLE
  5
1C4
330
1F
100
AcDbEntity
  8
0
  6
Continuous
 62
     7
370
    15
100
AcDbCircle
 10
14.622892014
 20
15.9015110627
 30
0.0
 40
0.0899999999999999
  0
CIRCLE
  5
1C5
330
1F
100
AcDbEntity
  8
0
  6
Continuous
 62
     7
370
    15
100
AcDbCircle
 10
20.222892014
 20
20.7015110627
 30
0.0
 40
0.0899999999999963
  0
CIRCLE
  5
1C6
330
1F
100
AcDbEntity
  8
0
  6
Continuous
 62
     7
370
    15
100
AcDbCircle
 10
14.622892014
 20
15.5015110627
 30
0.0
 40
0.0899999999999981
  0
CIRCLE
  5
1C7
330
1F
100
AcDbEntity
  8
0
  6
Continuous
 62
     7
370
    15
100
AcDbCircle
 10
17.022892014
 20
19.9015110627
 30
0.0
 40
0.0899999999999999
  0
CIRCLE
  5
1C8
330
1F
100
AcDbEntity
  8
0
  6
Continuous
 62
     7
370
    15
100
AcDbCircle
 10
14.622892014
 20
15.1015110627
 30
0.0
 40
0.0899999999999999
  0
CIRCLE
  5
1C9
330
1F
100
AcDbEntity
  8
0
  6
Continuous
 62
     7
370
    15
100
AcDbCircle
 10
20.222892014
 20
19.9015110627
 30
0.0
 40
0.0899999999999999
  0
CIRCLE
  5
1CA
330
1F
100
AcDbEntity
  8
0
  6
Continuous
 62
     7
370
    15
100
AcDbCircle
 10
15.022892014
 20
21.1015110627
 30
0.0
 40
0.0900000000000034
  0
CIRCLE
  5
1CB
330
1F
100
AcDbEntity
  8
0
  6
Continuous
 62
     7
370
    15
100
AcDbCircle
 10
20.222892014
 20
19.5015110627
 30
0.0
 40
0.0899999999999963
  0
CIRCLE
  5
1CC
330
1F
100
AcDbEntity
  8
0
  6
Continuous
 62
     7
370
    15
100
AcDbCircle
 10
15.022892014
 20
20.7015110627
 30
0.0
 40
0.0899999999999963
  0
CIRCLE
  5
1CD
330
1F
100
AcDbEntity
  8
0
  6
Continuous
 62
     7
370
    15
100
AcDbCircle
 10
20.222892014
 20
19.1015110627
 30
0.0
 40
0.0899999999999963
  0
CIRCLE
  5
1CE
330
1F
100
AcDbEntity
  8
0
  6
Continuous
 62
     7
370
    15
100
AcDbCircle
 10
15.022892014
 20
20.3015110627
 30
0.0
 40
0.0899999999999999
  0
CIRCLE
  5
1CF
330
1F
100
AcDbEntity
  8
0
  6
Continuous
 62
     7
370
    15
100
AcDbCircle
 10
20.222892014
 20
18.7015110627
 30
0.0
 40
0.0899999999999999
  0
CIRCLE
  5
1D0
330
1F
100
AcDbEntity
  8
0
  6
Continuous
 62
     7
370
    15
100
AcDbCircle
 10
15.022892014
 20
19.9015110627
 30
0.0
 40
0.0899999999999999
  0
CIRCLE
  5
1D1
330
1F
100
AcDbEntity
  8
0
  6
Continuous
 62
     7
370
    15
100
AcDbCircle
 10
20.222892014
 20
18.3015110627
 30
0.0
 40
0.0899999999999999
  0
CIRCLE
  5
1D2
330
1F
100
AcDbEntity
  8
0
  6
Continuous
 62
     7
370
    15
100
AcDbCircle
 10
15.022892014
 20
19.5015110627
 30
0.0
 40
0.0899999999999963
  0
CIRCLE
  5
1D3
330
1F
100
AcDbEntity
  8
0
  6
Continuous
 62
     7
370
    15
100
AcDbCircle
 10
20.222892014
 20
17.9015110627
 30
0.0
 40
0.0899999999999999
  0
CIRCLE
  5
1D4
330
1F
100
AcDbEntity
  8
0
  6
Continuous
 62
     7
370
    15
100
AcDbCircle
 10
15.022892014
 20
19.1015110627
 30
0.0
 40
0.0899999999999963
  0
CIRCLE
  5
1D5
330
1F
100
AcDbEntity
  8
0
  6
Continuous
 62
     7
370
    15
100
AcDbCircle
 10
20.222892014
 20
17.5015110627
 30
0.0
 40
0.0899999999999999
  0
CIRCLE
  5
1D6
330
1F
100
AcDbEntity
  8
0
  6
Continuous
 62
     7
370
    15
100
AcDbCircle
 10
15.022892014
 20
18.7015110627
 30
0.0
 40
0.0899999999999999
  0
CIRCLE
  5
1D7
330
1F
100
AcDbEntity
  8
0
  6
Continuous
 62
     7
370
    15
100
AcDbCircle
 10
20.222892014
 20
17.1015110627
 30
0.0
 40
0.0899999999999963
  0
CIRCLE
  5
1D8
330
1F
100
AcDbEntity
  8
0
  6
Continuous
 62
     7
370
    15
100
AcDbCircle
 10
15.022892014
 20
18.3015110627
 30
0.0
 40
0.0899999999999999
  0
CIRCLE
  5
1D9
330
1F
100
AcDbEntity
  8
0
  6
Continuous
 62
     7
370
    15
100
AcDbCircle
 10
20.222892014
 20
16.7015110627
 30
0.0
 40
0.0899999999999999
  0
CIRCLE
  5
1DA
330
1F
100
AcDbEntity
  8
0
  6
Continuous
 62
     7
370
    15
100
AcDbCircle
 10
15.022892014
 20
17.9015110627
 30
0.0
 40
0.0899999999999999
  0
CIRCLE
  5
1DB
330
1F
100
AcDbEntity
  8
0
  6
Continuous
 62
     7
370
    15
100
AcDbCircle
 10
20.222892014
 20
16.3015110627
 30
0.0
 40
0.0899999999999999
  0
CIRCLE
  5
1DC
330
1F
100
AcDbEntity
  8
0
  6
Continuous
 62
     7
370
    15
100
AcDbCircle
 10
15.022892014
 20
17.5015110627
 30
0.0
 40
0.0899999999999999
  0
CIRCLE
  5
1DD
330
1F
100
AcDbEntity
  8
0
  6
Continuous
 62
     7
370
    15
100
AcDbCircle
 10
17.022892014
 20
15.5015110627
 30
0.0
 40
0.0899999999999981
  0
CIRCLE
  5
1DE
330
1F
100
AcDbEntity
  8
0
  6
Continuous
 62
     7
370
    15
100
AcDbCircle
 10
15.022892014
 20
17.1015110627
 30
0.0
 40
0.0899999999999963
  0
CIRCLE
  5
1DF
330
1F
100
AcDbEntity
  8
0
  6
Continuous
 62
     7
370
    15
100
AcDbCircle
 10
17.022892014
 20
15.1015110627
 30
0.0
 40
0.0899999999999999
  0
CIRCLE
  5
1E0
330
1F
100
AcDbEntity
  8
0
  6
Continuous
 62
     7
370
    15
100
AcDbCircle
 10
15.022892014
 20
16.7015110627
 30
0.0
 40
0.0899999999999999
  0
CIRCLE
  5
1E1
330
1F
100
AcDbEntity
  8
0
  6
Continuous
 62
     7
370
    15
100
AcDbCircle
 10
17.422892014
 20
21.1015110627
 30
0.0
 40
0.0900000000000034
  0
CIRCLE
  5
1E2
330
1F
100
AcDbEntity
  8
0
  6
Continuous
 62
     7
370
    15
100
AcDbCircle
 10
15.022892014
 20
16.3015110627
 30
0.0
 40
0.0899999999999999
  0
CIRCLE
  5
1E3
330
1F
100
AcDbEntity
  8
0
  6
Continuous
 62
     7
370
    15
100
AcDbCircle
 10
17.422892014
 20
20.7015110627
 30
0.0
 40
0.0899999999999963
  0
CIRCLE
  5
1E4
330
1F
100
AcDbEntity
  8
0
  6
Continuous
 62
     7
370
    15
100
AcDbCircle
 10
14.622892014
 20
17.9015110627
 30
0.0
 40
0.0899999999999999
  0
CIRCLE
  5
1E5
330
1F
100
AcDbEntity
  8
0
  6
Continuous
 62
     7
370
    15
100
AcDbCircle
 10
17.422892014
 20
20.3015110627
 30
0.0
 40
0.0899999999999999
  0
CIRCLE
  5
1E6
330
1F
100
AcDbEntity
  8
0
  6
Continuous
 62
     7
370
    15
100
AcDbCircle
 10
15.022892014
 20
15.5015110627
 30
0.0
 40
0.0899999999999981
  0
CIRCLE
  5
1E7
330
1F
100
AcDbEntity
  8
0
  6
Continuous
 62
     7
370
    15
100
AcDbCircle
 10
17.422892014
 20
19.9015110627
 30
0.0
 40
0.0899999999999999
  0
CIRCLE
  5
1E8
330
1F
100
AcDbEntity
  8
0
  6
Continuous
 62
     7
370
    15
100
AcDbCircle
 10
15.022892014
 20
15.1015110627
 30
0.0
 40
0.0899999999999999
  0
CIRCLE
  5
1E9
330
1F
100
AcDbEntity
  8
0
  6
Continuous
 62
     7
370
    15
100
AcDbCircle
 10
17.422892014
 20
19.5015110627
 30
0.0
 40
0.0899999999999963
  0
CIRCLE
  5
1EA
330
1F
100
AcDbEntity
  8
0
  6
Continuous
 62
     7
370
    15
100
AcDbCircle
 10
15.422892014
 20
21.1015110627
 30
0.0
 40
0.0900000000000034
  0
CIRCLE
  5
1EB
330
1F
100
AcDbEntity
  8
0
  6
Continuous
 62
     7
370
    15
100
AcDbCircle
 10
17.422892014
 20
19.1015110627
 30
0.0
 40
0.0899999999999963
  0
CIRCLE
  5
1EC
330
1F
100
AcDbEntity
  8
0
  6
Continuous
 62
     7
370
    15
100
AcDbCircle
 10
15.422892014
 20
20.7015110627
 30
0.0
 40
0.0899999999999963
  0
CIRCLE
  5
1ED
330
1F
100
AcDbEntity
  8
0
  6
Continuous
 62
     7
370
    15
100
AcDbCircle
 10
17.422892014
 20
18.7015110627
 30
0.0
 40
0.0899999999999999
  0
CIRCLE
  5
1EE
330
1F
100
AcDbEntity
  8
0
  6
Continuous
 62
     7
370
    15
100
AcDbCircle
 10
15.422892014
 20
20.3015110627
 30
0.0
 40
0.0899999999999999
  0
CIRCLE
  5
1EF
330
1F
100
AcDbEntity
  8
0
  6
Continuous
 62
     7
370
    15
100
AcDbCircle
 10
17.422892014
 20
18.3015110627
 30
0.0
 40
0.0899999999999999
  0
CIRCLE
  5
1F0
330
1F
100
AcDbEntity
  8
0
  6
Continuous
 62
     7
370
    15
100
AcDbCircle
 10
15.422892014
 20
19.9015110627
 30
0.0
 40
0.0899999999999999
  0
CIRCLE
  5
1F1
330
1F
100
AcDbEntity
  8
0
  6
Continuous
 62
     7
370
    15
100
AcDbCircle
 10
17.422892014
 20
17.9015110627
 30
0.0
 40
0.0899999999999999
  0
CIRCLE
  5
1F2
330
1F
100
AcDbEntity
  8
0
  6
Continuous
 62
     7
370
    15
100
AcDbCircle
 10
15.422892014
 20
19.5015110627
 30
0.0
 40
0.0899999999999963
  0
CIRCLE
  5
1F3
330
1F
100
AcDbEntity
  8
0
  6
Continuous
 62
     7
370
    15
100
AcDbCircle
 10
17.422892014
 20
17.5015110627
 30
0.0
 40
0.0899999999999999
  0
CIRCLE
  5
1F4
330
1F
100
AcDbEntity
  8
0
  6
Continuous
 62
     7
370
    15
100
AcDbCircle
 10
15.422892014
 20
19.1015110627
 30
0.0
 40
0.0899999999999963
  0
CIRCLE
  5
1F5
330
1F
100
AcDbEntity
  8
0
  6
Continuous
 62
     7
370
    15
100
AcDbCircle
 10
17.422892014
 20
17.1015110627
 30
0.0
 40
0.0899999999999963
  0
CIRCLE
  5
1F6
330
1F
100
AcDbEntity
  8
0
  6
Continuous
 62
     7
370
    15
100
AcDbCircle
 10
15.422892014
 20
18.7015110627
 30
0.0
 40
0.0899999999999999
  0
CIRCLE
  5
1F7
330
1F
100
AcDbEntity
  8
0
  6
Continuous
 62
     7
370
    15
100
AcDbCircle
 10
17.422892014
 20
16.7015110627
 30
0.0
 40
0.0899999999999999
  0
CIRCLE
  5
1F8
330
1F
100
AcDbEntity
  8
0
  6
Continuous
 62
     7
370
    15
100
AcDbCircle
 10
15.422892014
 20
18.3015110627
 30
0.0
 40
0.0899999999999999
  0
CIRCLE
  5
1F9
330
1F
100
AcDbEntity
  8
0
  6
Continuous
 62
     7
370
    15
100
AcDbCircle
 10
17.422892014
 20
16.3015110627
 30
0.0
 40
0.0899999999999999
  0
CIRCLE
  5
1FA
330
1F
100
AcDbEntity
  8
0
  6
Continuous
 62
     7
370
    15
100
AcDbCircle
 10
15.422892014
 20
17.9015110627
 30
0.0
 40
0.0899999999999999
  0
CIRCLE
  5
1FB
330
1F
100
AcDbEntity
  8
0
  6
Continuous
 62
     7
370
    15
100
AcDbCircle
 10
17.422892014
 20
15.9015110627
 30
0.0
 40
0.0899999999999999
  0
CIRCLE
  5
1FC
330
1F
100
AcDbEntity
  8
0
  6
Continuous
 62
     7
370
    15
100
AcDbCircle
 10
15.422892014
 20
17.5015110627
 30
0.0
 40
0.0899999999999999
  0
CIRCLE
  5
1FD
330
1F
100
AcDbEntity
  8
0
  6
Continuous
 62
     7
370
    15
100
AcDbCircle
 10
17.422892014
 20
15.5015110627
 30
0.0
 40
0.0899999999999981
  0
CIRCLE
  5
1FE
330
1F
100
AcDbEntity
  8
0
  6
Continuous
 62
     7
370
    15
100
AcDbCircle
 10
15.422892014
 20
17.1015110627
 30
0.0
 40
0.0899999999999963
  0
CIRCLE
  5
1FF
330
1F
100
AcDbEntity
  8
0
  6
Continuous
 62
     7
370
    15
100
AcDbCircle
 10
17.422892014
 20
15.1015110627
 30
0.0
 40
0.0899999999999999
  0
CIRCLE
  5
200
330
1F
100
AcDbEntity
  8
0
  6
Continuous
 62
     7
370
    15
100
AcDbCircle
 10
15.422892014
 20
16.7015110627
 30
0.0
 40
0.0899999999999999
  0
CIRCLE
  5
201
330
1F
100
AcDbEntity
  8
0
  6
Continuous
 62
     7
370
    15
100
AcDbCircle
 10
17.822892014
 20
21.1015110627
 30
0.0
 40
0.0900000000000034
  0
CIRCLE
  5
202
330
1F
100
AcDbEntity
  8
0
  6
Continuous
 62
     7
370
    15
100
AcDbCircle
 10
15.422892014
 20
16.3015110627
 30
0.0
 40
0.0899999999999999
  0
CIRCLE
  5
203
330
1F
100
AcDbEntity
  8
0
  6
Continuous
 62
     7
370
    15
100
AcDbCircle
 10
17.822892014
 20
20.7015110627
 30
0.0
 40
0.0899999999999963
  0
CIRCLE
  5
204
330
1F
100
AcDbEntity
  8
0
  6
Continuous
 62
     7
370
    15
100
AcDbCircle
 10
15.422892014
 20
15.9015110627
 30
0.0
 40
0.0899999999999999
  0
CIRCLE
  5
205
330
1F
100
AcDbEntity
  8
0
  6
Continuous
 62
     7
370
    15
100
AcDbCircle
 10
17.822892014
 20
20.3015110627
 30
0.0
 40
0.0899999999999999
  0
CIRCLE
  5
206
330
1F
100
AcDbEntity
  8
0
  6
Continuous
 62
     7
370
    15
100
AcDbCircle
 10
15.422892014
 20
15.5015110627
 30
0.0
 40
0.0899999999999981
  0
CIRCLE
  5
207
330
1F
100
AcDbEntity
  8
0
  6
Continuous
 62
     7
370
    15
100
AcDbCircle
 10
17.822892014
 20
19.9015110627
 30
0.0
 40
0.0899999999999999
  0
CIRCLE
  5
208
330
1F
100
AcDbEntity
  8
0
  6
Continuous
 62
     7
370
    15
100
AcDbCircle
 10
15.422892014
 20
15.1015110627
 30
0.0
 40
0.0899999999999999
  0
CIRCLE
  5
209
330
1F
100
AcDbEntity
  8
0
  6
Continuous
 62
     7
370
    15
100
AcDbCircle
 10
17.822892014
 20
19.5015110627
 30
0.0
 40
0.0899999999999963
  0
CIRCLE
  5
20A
330
1F
100
AcDbEntity
  8
0
  6
Continuous
 62
     7
370
    15
100
AcDbCircle
 10
15.822892014
 20
21.1015110627
 30
0.0
 40
0.0900000000000034
  0
CIRCLE
  5
20B
330
1F
100
AcDbEntity
  8
0
  6
Continuous
 62
     7
370
    15
100
AcDbCircle
 10
17.822892014
 20
19.1015110627
 30
0.0
 40
0.0899999999999963
  0
CIRCLE
  5
20C
330
1F
100
AcDbEntity
  8
0
  6
Continuous
 62
     7
370
    15
100
AcDbCircle
 10
15.822892014
 20
20.7015110627
 30
0.0
 40
0.0899999999999963
  0
CIRCLE
  5
20D
330
1F
100
AcDbEntity
  8
0
  6
Continuous
 62
     7
370
    15
100
AcDbCircle
 10
17.822892014
 20
18.7015110627
 30
0.0
 40
0.0899999999999999
  0
CIRCLE
  5
20E
330
1F
100
AcDbEntity
  8
0
  6
Continuous
 62
     7
370
    15
100
AcDbCircle
 10
15.822892014
 20
20.3015110627
 30
0.0
 40
0.0899999999999999
  0
CIRCLE
  5
20F
330
1F
100
AcDbEntity
  8
0
  6
Continuous
 62
     7
370
    15
100
AcDbCircle
 10
17.822892014
 20
18.3015110627
 30
0.0
 40
0.0899999999999999
  0
CIRCLE
  5
210
330
1F
100
AcDbEntity
  8
0
  6
Continuous
 62
     7
370
    15
100
AcDbCircle
 10
15.822892014
 20
19.9015110627
 30
0.0
 40
0.0899999999999999
  0
CIRCLE
  5
211
330
1F
100
AcDbEntity
  8
0
  6
Continuous
 62
     7
370
    15
100
AcDbCircle
 10
17.822892014
 20
17.9015110627
 30
0.0
 40
0.0899999999999999
  0
CIRCLE
  5
212
330
1F
100
AcDbEntity
  8
0
  6
Continuous
 62
     7
370
    15
100
AcDbCircle
 10
15.822892014
 20
19.5015110627
 30
0.0
 40
0.0899999999999963
  0
CIRCLE
  5
213
330
1F
100
AcDbEntity
  8
0
  6
Continuous
 62
     7
370
    15
100
AcDbCircle
 10
17.822892014
 20
17.5015110627
 30
0.0
 40
0.0899999999999999
  0
CIRCLE
  5
214
330
1F
100
AcDbEntity
  8
0
  6
Continuous
 62
     7
370
    15
100
AcDbCircle
 10
15.822892014
 20
19.1015110627
 30
0.0
 40
0.0899999999999963
  0
CIRCLE
  5
215
330
1F
100
AcDbEntity
  8
0
  6
Continuous
 62
     7
370
    15
100
AcDbCircle
 10
17.822892014
 20
17.1015110627
 30
0.0
 40
0.0899999999999963
  0
CIRCLE
  5
216
330
1F
100
AcDbEntity
  8
0
  6
Continuous
 62
     7
370
    15
100
AcDbCircle
 10
15.822892014
 20
18.7015110627
 30
0.0
 40
0.0899999999999999
  0
CIRCLE
  5
217
330
1F
100
AcDbEntity
  8
0
  6
Continuous
 62
     7
370
    15
100
AcDbCircle
 10
17.822892014
 20
16.7015110627
 30
0.0
 40
0.0899999999999999
  0
CIRCLE
  5
218
330
1F
100
AcDbEntity
  8
0
  6
Continuous
 62
     7
370
    15
100
AcDbCircle
 10
15.822892014
 20
18.3015110627
 30
0.0
 40
0.0899999999999999
  0
CIRCLE
  5
219
330
1F
100
AcDbEntity
  8
0
  6
Continuous
 62
     7
370
    15
100
AcDbCircle
 10
17.822892014
 20
16.3015110627
 30
0.0
 40
0.0899999999999999
  0
CIRCLE
  5
21A
330
1F
100
AcDbEntity
  8
0
  6
Continuous
 62
     7
370
    15
100
AcDbCircle
 10
15.822892014
 20
17.9015110627
 30
0.0
 40
0.0899999999999999
  0
CIRCLE
  5
21B
330
1F
100
AcDbEntity
  8
0
  6
Continuous
 62
     7
370
    15
100
AcDbCircle
 10
17.822892014
 20
15.9015110627
 30
0.0
 40
0.0899999999999999
  0
CIRCLE
  5
21C
330
1F
100
AcDbEntity
  8
0
  6
Continuous
 62
     7
370
    15
100
AcDbCircle
 10
15.822892014
 20
17.5015110627
 30
0.0
 40
0.0899999999999999
  0
CIRCLE
  5
21D
330
1F
100
AcDbEntity
  8
0
  6
Continuous
 62
     7
370
    15
100
AcDbCircle
 10
17.822892014
 20
15.5015110627
 30
0.0
 40
0.0899999999999981
  0
CIRCLE
  5
21E
330
1F
100
AcDbEntity
  8
0
  6
Continuous
 62
     7
370
    15
100
AcDbCircle
 10
15.822892014
 20
17.1015110627
 30
0.0
 40
0.0899999999999963
  0
CIRCLE
  5
21F
330
1F
100
AcDbEntity
  8
0
  6
Continuous
 62
     7
370
    15
100
AcDbCircle
 10
17.822892014
 20
15.1015110627
 30
0.0
 40
0.0899999999999999
  0
CIRCLE
  5
220
330
1F
100
AcDbEntity
  8
0
  6
Continuous
 62
     7
370
    15
100
AcDbCircle
 10
15.822892014
 20
16.7015110627
 30
0.0
 40
0.0899999999999999
  0
CIRCLE
  5
221
330
1F
100
AcDbEntity
  8
0
  6
Continuous
 62
     7
370
    15
100
AcDbCircle
 10
18.222892014
 20
21.1015110627
 30
0.0
 40
0.0900000000000034
  0
CIRCLE
  5
222
330
1F
100
AcDbEntity
  8
0
  6
Continuous
 62
     7
370
    15
100
AcDbCircle
 10
15.822892014
 20
16.3015110627
 30
0.0
 40
0.0899999999999999
  0
CIRCLE
  5
223
330
1F
100
AcDbEntity
  8
0
  6
Continuous
 62
     7
370
    15
100
AcDbCircle
 10
18.222892014
 20
20.7015110627
 30
0.0
 40
0.0899999999999963
  0
CIRCLE
  5
224
330
1F
100
AcDbEntity
  8
0
  6
Continuous
 62
     7
370
    15
100
AcDbCircle
 10
15.822892014
 20
15.9015110627
 30
0.0
 40
0.0899999999999999
  0
CIRCLE
  5
225
330
1F
100
AcDbEntity
  8
0
  6
Continuous
 62
     7
370
    15
100
AcDbCircle
 10
18.222892014
 20
20.3015110627
 30
0.0
 40
0.0899999999999999
  0
CIRCLE
  5
226
330
1F
100
AcDbEntity
  8
0
  6
Continuous
 62
     7
370
    15
100
AcDbCircle
 10
15.822892014
 20
15.5015110627
 30
0.0
 40
0.0899999999999981
  0
CIRCLE
  5
227
330
1F
100
AcDbEntity
  8
0
  6
Continuous
 62
     7
370
    15
100
AcDbCircle
 10
18.222892014
 20
19.9015110627
 30
0.0
 40
0.0899999999999999
  0
CIRCLE
  5
228
330
1F
100
AcDbEntity
  8
0
  6
Continuous
 62
     7
370
    15
100
AcDbCircle
 10
15.822892014
 20
15.1015110627
 30
0.0
 40
0.0899999999999999
  0
CIRCLE
  5
229
330
1F
100
AcDbEntity
  8
0
  6
Continuous
 62
     7
370
    15
100
AcDbCircle
 10
18.222892014
 20
19.5015110627
 30
0.0
 40
0.0899999999999963
  0
CIRCLE
  5
22A
330
1F
100
AcDbEntity
  8
0
  6
Continuous
 62
     7
370
    15
100
AcDbCircle
 10
16.222892014
 20
21.1015110627
 30
0.0
 40
0.0900000000000034
  0
CIRCLE
  5
22B
330
1F
100
AcDbEntity
  8
0
  6
Continuous
 62
     7
370
    15
100
AcDbCircle
 10
18.222892014
 20
19.1015110627
 30
0.0
 40
0.0899999999999963
  0
CIRCLE
  5
22C
330
1F
100
AcDbEntity
  8
0
  6
Continuous
 62
     7
370
    15
100
AcDbCircle
 10
16.222892014
 20
20.7015110627
 30
0.0
 40
0.0899999999999963
  0
CIRCLE
  5
22D
330
1F
100
AcDbEntity
  8
0
  6
Continuous
 62
     7
370
    15
100
AcDbCircle
 10
18.222892014
 20
18.7015110627
 30
0.0
 40
0.0899999999999999
  0
CIRCLE
  5
22E
330
1F
100
AcDbEntity
  8
0
  6
Continuous
 62
     7
370
    15
100
AcDbCircle
 10
16.222892014
 20
20.3015110627
 30
0.0
 40
0.0899999999999999
  0
CIRCLE
  5
22F
330
1F
100
AcDbEntity
  8
0
  6
Continuous
 62
     7
370
    15
100
AcDbCircle
 10
18.222892014
 20
18.3015110627
 30
0.0
 40
0.0899999999999999
  0
CIRCLE
  5
230
330
1F
100
AcDbEntity
  8
0
  6
Continuous
 62
     7
370
    15
100
AcDbCircle
 10
16.222892014
 20
19.9015110627
 30
0.0
 40
0.0899999999999999
  0
CIRCLE
  5
231
330
1F
100
AcDbEntity
  8
0
  6
Continuous
 62
     7
370
    15
100
AcDbCircle
 10
18.222892014
 20
17.9015110627
 30
0.0
 40
0.0899999999999999
  0
CIRCLE
  5
232
330
1F
100
AcDbEntity
  8
0
  6
Continuous
 62
     7
370
    15
100
AcDbCircle
 10
16.222892014
 20
19.5015110627
 30
0.0
 40
0.0899999999999963
  0
CIRCLE
  5
233
330
1F
100
AcDbEntity
  8
0
  6
Continuous
 62
     7
370
    15
100
AcDbCircle
 10
18.222892014
 20
17.5015110627
 30
0.0
 40
0.0899999999999999
  0
CIRCLE
  5
234
330
1F
100
AcDbEntity
  8
0
  6
Continuous
 62
     7
370
    15
100
AcDbCircle
 10
16.222892014
 20
19.1015110627
 30
0.0
 40
0.0899999999999963
  0
CIRCLE
  5
235
330
1F
100
AcDbEntity
  8
0
  6
Continuous
 62
     7
370
    15
100
AcDbCircle
 10
14.222892014
 20
20.7015110627
 30
0.0
 40
0.0899999999999963
  0
CIRCLE
  5
236
330
1F
100
AcDbEntity
  8
0
  6
Continuous
 62
     7
370
    15
100
AcDbCircle
 10
20.222892014
 20
15.1015110627
 30
0.0
 40
0.0899999999999999
  0
CIRCLE
  5
237
330
1F
100
AcDbEntity
  8
0
  6
Continuous
 62
     7
370
    15
100
AcDbCircle
 10
14.222892014
 20
20.3015110627
 30
0.0
 40
0.0899999999999999
  0
CIRCLE
  5
238
330
1F
100
AcDbEntity
  8
0
  6
Continuous
 62
     7
370
    15
100
AcDbCircle
 10
15.022892014
 20
15.9015110627
 30
0.0
 40
0.0899999999999999
  0
CIRCLE
  5
239
330
1F
100
AcDbEntity
  8
0
  6
Continuous
 62
     7
370
    15
100
AcDbCircle
 10
14.222892014
 20
19.9015110627
 30
0.0
 40
0.0899999999999999
  0
CIRCLE
  5
23A
330
1F
100
AcDbEntity
  8
0
  6
Continuous
 62
     7
370
    15
100
AcDbCircle
 10
16.222892014
 20
17.9015110627
 30
0.0
 40
0.0899999999999999
  0
CIRCLE
  5
23B
330
1F
100
AcDbEntity
  8
0
  6
Continuous
 62
     7
370
    15
100
AcDbCircle
 10
18.222892014
 20
15.9015110627
 30
0.0
 40
0.0899999999999999
  0
CIRCLE
  5
23C
330
1F
100
AcDbEntity
  8
0
  6
Continuous
 62
     7
370
    15
100
AcDbCircle
 10
16.222892014
 20
17.5015110627
 30
0.0
 40
0.0899999999999999
  0
CIRCLE
  5
23D
330
1F
100
AcDbEntity
  8
0
  6
Continuous
 62
     7
370
    15
100
AcDbCircle
 10
18.222892014
 20
15.5015110627
 30
0.0
 40
0.0899999999999981
  0
CIRCLE
  5
23E
330
1F
100
AcDbEntity
  8
0
  6
Continuous
 62
     7
370
    15
100
AcDbCircle
 10
16.222892014
 20
17.1015110627
 30
0.0
 40
0.0899999999999963
  0
CIRCLE
  5
23F
330
1F
100
AcDbEntity
  8
0
  6
Continuous
 62
     7
370
    15
100
AcDbCircle
 10
18.222892014
 20
15.1015110627
 30
0.0
 40
0.0899999999999999
  0
CIRCLE
  5
240
330
1F
100
AcDbEntity
  8
0
  6
Continuous
 62
     7
370
    15
100
AcDbCircle
 10
16.222892014
 20
16.7015110627
 30
0.0
 40
0.0899999999999999
  0
CIRCLE
  5
241
330
1F
100
AcDbEntity
  8
0
  6
Continuous
 62
     7
370
    15
100
AcDbCircle
 10
18.622892014
 20
21.1015110627
 30
0.0
 40
0.0900000000000034
  0
CIRCLE
  5
242
330
1F
100
AcDbEntity
  8
0
  6
Continuous
 62
     7
370
    15
100
AcDbCircle
 10
16.222892014
 20
16.3015110627
 30
0.0
 40
0.0899999999999999
  0
CIRCLE
  5
243
330
1F
100
AcDbEntity
  8
0
  6
Continuous
 62
     7
370
    15
100
AcDbCircle
 10
18.622892014
 20
20.7015110627
 30
0.0
 40
0.0899999999999963
  0
CIRCLE
  5
244
330
1F
100
AcDbEntity
  8
0
  6
Continuous
 62
     7
370
    15
100
AcDbCircle
 10
16.222892014
 20
15.9015110627
 30
0.0
 40
0.0899999999999999
  0
CIRCLE
  5
245
330
1F
100
AcDbEntity
  8
0
  6
Continuous
 62
     7
370
    15
100
AcDbCircle
 10
18.622892014
 20
20.3015110627
 30
0.0
 40
0.0899999999999999
  0
CIRCLE
  5
246
330
1F
100
AcDbEntity
  8
0
  6
Continuous
 62
     7
370
    15
100
AcDbCircle
 10
16.222892014
 20
15.5015110627
 30
0.0
 40
0.0899999999999981
  0
CIRCLE
  5
247
330
1F
100
AcDbEntity
  8
0
  6
Continuous
 62
     7
370
    15
100
AcDbCircle
 10
18.622892014
 20
19.9015110627
 30
0.0
 40
0.0899999999999999
  0
CIRCLE
  5
248
330
1F
100
AcDbEntity
  8
0
  6
Continuous
 62
     7
370
    15
100
AcDbCircle
 10
16.222892014
 20
15.1015110627
 30
0.0
 40
0.0899999999999999
  0
CIRCLE
  5
249
330
1F
100
AcDbEntity
  8
0
  6
Continuous
 62
     7
370
    15
100
AcDbCircle
 10
18.622892014
 20
19.5015110627
 30
0.0
 40
0.0899999999999963
  0
CIRCLE
  5
24A
330
1F
100
AcDbEntity
  8
0
  6
Continuous
 62
     7
370
    15
100
AcDbCircle
 10
16.622892014
 20
21.1015110627
 30
0.0
 40
0.0900000000000034
  0
CIRCLE
  5
24B
330
1F
100
AcDbEntity
  8
0
  6
Continuous
 62
     7
370
    15
100
AcDbCircle
 10
18.622892014
 20
19.1015110627
 30
0.0
 40
0.0899999999999963
  0
CIRCLE
  5
24C
330
1F
100
AcDbEntity
  8
0
  6
Continuous
 62
     7
370
    15
100
AcDbCircle
 10
16.622892014
 20
20.7015110627
 30
0.0
 40
0.0899999999999963
  0
CIRCLE
  5
24D
330
1F
100
AcDbEntity
  8
0
  6
Continuous
 62
     7
370
    15
100
AcDbCircle
 10
18.622892014
 20
18.7015110627
 30
0.0
 40
0.0899999999999999
  0
CIRCLE
  5
24E
330
1F
100
AcDbEntity
  8
0
  6
Continuous
 62
     7
370
    15
100
AcDbCircle
 10
16.622892014
 20
20.3015110627
 30
0.0
 40
0.0899999999999999
  0
CIRCLE
  5
24F
330
1F
100
AcDbEntity
  8
0
  6
Continuous
 62
     7
370
    15
100
AcDbCircle
 10
18.622892014
 20
18.3015110627
 30
0.0
 40
0.0899999999999999
  0
CIRCLE
  5
250
330
1F
100
AcDbEntity
  8
0
  6
Continuous
 62
     7
370
    15
100
AcDbCircle
 10
16.622892014
 20
19.9015110627
 30
0.0
 40
0.0899999999999999
  0
CIRCLE
  5
251
330
1F
100
AcDbEntity
  8
0
  6
Continuous
 62
     7
370
    15
100
AcDbCircle
 10
18.622892014
 20
17.9015110627
 30
0.0
 40
0.0899999999999999
  0
CIRCLE
  5
252
330
1F
100
AcDbEntity
  8
0
  6
Continuous
 62
     7
370
    15
100
AcDbCircle
 10
16.622892014
 20
19.5015110627
 30
0.0
 40
0.0899999999999963
  0
CIRCLE
  5
253
330
1F
100
AcDbEntity
  8
0
  6
Continuous
 62
     7
370
    15
100
AcDbCircle
 10
18.622892014
 20
17.5015110627
 30
0.0
 40
0.0899999999999999
  0
CIRCLE
  5
254
330
1F
100
AcDbEntity
  8
0
  6
Continuous
 62
     7
370
    15
100
AcDbCircle
 10
16.622892014
 20
19.1015110627
 30
0.0
 40
0.0899999999999963
  0
CIRCLE
  5
255
330
1F
100
AcDbEntity
  8
0
  6
Continuous
 62
     7
370
    15
100
AcDbCircle
 10
18.622892014
 20
17.1015110627
 30
0.0
 40
0.0899999999999963
  0
CIRCLE
  5
256
330
1F
100
AcDbEntity
  8
0
  6
Continuous
 62
     7
370
    15
100
AcDbCircle
 10
16.622892014
 20
18.7015110627
 30
0.0
 40
0.0899999999999999
  0
CIRCLE
  5
257
330
1F
100
AcDbEntity
  8
0
  6
Continuous
 62
     7
370
    15
100
AcDbCircle
 10
18.622892014
 20
16.7015110627
 30
0.0
 40
0.0899999999999999
  0
CIRCLE
  5
258
330
1F
100
AcDbEntity
  8
0
  6
Continuous
 62
     7
370
    15
100
AcDbCircle
 10
16.622892014
 20
18.3015110627
 30
0.0
 40
0.0899999999999999
  0
CIRCLE
  5
259
330
1F
100
AcDbEntity
  8
0
  6
Continuous
 62
     7
370
    15
100
AcDbCircle
 10
18.622892014
 20
16.3015110627
 30
0.0
 40
0.0899999999999999
  0
CIRCLE
  5
25A
330
1F
100
AcDbEntity
  8
0
  6
Continuous
 62
     7
370
    15
100
AcDbCircle
 10
16.622892014
 20
17.9015110627
 30
0.0
 40
0.0899999999999999
  0
CIRCLE
  5
25B
330
1F
100
AcDbEntity
  8
0
  6
Continuous
 62
     7
370
    15
100
AcDbCircle
 10
18.622892014
 20
15.9015110627
 30
0.0
 40
0.0899999999999999
  0
CIRCLE
  5
25C
330
1F
100
AcDbEntity
  8
0
  6
Continuous
 62
     7
370
    15
100
AcDbCircle
 10
16.622892014
 20
17.5015110627
 30
0.0
 40
0.0899999999999999
  0
CIRCLE
  5
25D
330
1F
100
AcDbEntity
  8
0
  6
Continuous
 62
     7
370
    15
100
AcDbCircle
 10
18.622892014
 20
15.5015110627
 30
0.0
 40
0.0899999999999981
  0
CIRCLE
  5
25E
330
1F
100
AcDbEntity
  8
0
  6
Continuous
 62
     7
370
    15
100
AcDbCircle
 10
16.622892014
 20
17.1015110627
 30
0.0
 40
0.0899999999999963
  0
CIRCLE
  5
25F
330
1F
100
AcDbEntity
  8
0
  6
Continuous
 62
     7
370
    15
100
AcDbCircle
 10
18.622892014
 20
15.1015110627
 30
0.0
 40
0.0899999999999999
  0
CIRCLE
  5
260
330
1F
100
AcDbEntity
  8
0
  6
Continuous
 62
     7
370
    15
100
AcDbCircle
 10
16.622892014
 20
16.7015110627
 30
0.0
 40
0.0899999999999999
  0
CIRCLE
  5
261
330
1F
100
AcDbEntity
  8
0
  6
Continuous
 62
     7
370
    15
100
AcDbCircle
 10
19.022892014
 20
21.1015110627
 30
0.0
 40
0.0900000000000034
  0
CIRCLE
  5
262
330
1F
100
AcDbEntity
  8
0
  6
Continuous
 62
     7
370
    15
100
AcDbCircle
 10
16.622892014
 20
16.3015110627
 30
0.0
 40
0.0899999999999999
  0
CIRCLE
  5
263
330
1F
100
AcDbEntity
  8
0
  6
Continuous
 62
     7
370
    15
100
AcDbCircle
 10
19.022892014
 20
20.7015110627
 30
0.0
 40
0.0899999999999963
  0
CIRCLE
  5
264
330
1F
100
AcDbEntity
  8
0
  6
Continuous
 62
     7
370
    15
100
AcDbCircle
 10
16.622892014
 20
15.9015110627
 30
0.0
 40
0.0899999999999999
  0
CIRCLE
  5
265
330
1F
100
AcDbEntity
  8
0
  6
Continuous
 62
     7
370
    15
100
AcDbCircle
 10
19.022892014
 20
20.3015110627
 30
0.0
 40
0.0899999999999999
  0
CIRCLE
  5
266
330
1F
100
AcDbEntity
  8
0
  6
Continuous
 62
     7
370
    15
100
AcDbCircle
 10
16.622892014
 20
15.5015110627
 30
0.0
 40
0.0899999999999981
  0
CIRCLE
  5
267
330
1F
100
AcDbEntity
  8
0
  6
Continuous
 62
     7
370
    15
100
AcDbCircle
 10
19.022892014
 20
19.9015110627
 30
0.0
 40
0.0899999999999999
  0
CIRCLE
  5
268
330
1F
100
AcDbEntity
  8
0
  6
Continuous
 62
     7
370
    15
100
AcDbCircle
 10
16.622892014
 20
15.1015110627
 30
0.0
 40
0.0899999999999999
  0
CIRCLE
  5
269
330
1F
100
AcDbEntity
  8
0
  6
Continuous
 62
     7
370
    15
100
AcDbCircle
 10
19.022892014
 20
19.5015110627
 30
0.0
 40
0.0899999999999963
  0
CIRCLE
  5
26A
330
1F
100
AcDbEntity
  8
0
  6
Continuous
 62
     7
370
    15
100
AcDbCircle
 10
17.022892014
 20
21.1015110627
 30
0.0
 40
0.0900000000000034
  0
CIRCLE
  5
26B
330
1F
100
AcDbEntity
  8
0
  6
Continuous
 62
     7
370
    15
100
AcDbCircle
 10
19.022892014
 20
19.1015110627
 30
0.0
 40
0.0899999999999963
  0
CIRCLE
  5
26C
330
1F
100
AcDbEntity
  8
0
  6
Continuous
 62
     7
370
    15
100
AcDbCircle
 10
17.022892014
 20
20.7015110627
 30
0.0
 40
0.0899999999999963
  0
CIRCLE
  5
26D
330
1F
100
AcDbEntity
  8
0
  6
Continuous
 62
     7
370
    15
100
AcDbCircle
 10
19.022892014
 20
18.7015110627
 30
0.0
 40
0.0899999999999999
  0
CIRCLE
  5
26E
330
1F
100
AcDbEntity
  8
0
  6
Continuous
 62
     7
370
    15
100
AcDbCircle
 10
17.022892014
 20
20.3015110627
 30
0.0
 40
0.0899999999999999
  0
CIRCLE
  5
26F
330
1F
100
AcDbEntity
  8
0
  6
Continuous
 62
     7
370
    15
100
AcDbCircle
 10
19.022892014
 20
18.3015110627
 30
0.0
 40
0.0899999999999999
  0
CIRCLE
  5
270
330
1F
100
AcDbEntity
  8
0
  6
Continuous
 62
     7
370
    15
100
AcDbCircle
 10
17.022892014
 20
17.9015110627
 30
0.0
 40
0.0899999999999999
  0
CIRCLE
  5
271
330
1F
100
AcDbEntity
  8
0
  6
Continuous
 62
     7
370
    15
100
AcDbCircle
 10
19.022892014
 20
17.9015110627
 30
0.0
 40
0.0899999999999999
  0
CIRCLE
  5
272
330
1F
100
AcDbEntity
  8
0
  6
Continuous
 62
     7
370
    15
100
AcDbCircle
 10
17.022892014
 20
19.5015110627
 30
0.0
 40
0.0899999999999963
  0
CIRCLE
  5
273
330
1F
100
AcDbEntity
  8
0
  6
Continuous
 62
     7
370
    15
100
AcDbCircle
 10
19.022892014
 20
17.5015110627
 30
0.0
 40
0.0899999999999999
  0
CIRCLE
  5
274
330
1F
100
AcDbEntity
  8
0
  6
Continuous
 62
     7
370
    15
100
AcDbCircle
 10
17.022892014
 20
19.1015110627
 30
0.0
 40
0.0899999999999963
  0
CIRCLE
  5
275
330
1F
100
AcDbEntity
  8
0
  6
Continuous
 62
     7
370
    15
100
AcDbCircle
 10
19.022892014
 20
17.1015110627
 30
0.0
 40
0.0899999999999963
  0
CIRCLE
  5
276
330
1F
100
AcDbEntity
  8
0
  6
Continuous
 62
     7
370
    15
100
AcDbCircle
 10
17.022892014
 20
18.7015110627
 30
0.0
 40
0.0899999999999999
  0
CIRCLE
  5
277
330
1F
100
AcDbEntity
  8
0
  6
Continuous
 62
     7
370
    15
100
AcDbCircle
 10
19.022892014
 20
16.7015110627
 30
0.0
 40
0.0899999999999999
  0
CIRCLE
  5
278
330
1F
100
AcDbEntity
  8
0
  6
Continuous
 62
     7
370
    15
100
AcDbCircle
 10
17.022892014
 20
18.3015110627
 30
0.0
 40
0.0899999999999999
  0
CIRCLE
  5
279
330
1F
100
AcDbEntity
  8
0
  6
Continuous
 62
     7
370
    15
100
AcDbCircle
 10
19.022892014
 20
16.3015110627
 30
0.0
 40
0.0899999999999999
  0
CIRCLE
  5
27A
330
1F
100
AcDbEntity
  8
0
  6
Continuous
 62
     7
370
    15
100
AcDbCircle
 10
17.022892014
 20
15.9015110627
 30
0.0
 40
0.0899999999999999
  0
CIRCLE
  5
27B
330
1F
100
AcDbEntity
  8
0
  6
Continuous
 62
     7
370
    15
100
AcDbCircle
 10
19.022892014
 20
15.9015110627
 30
0.0
 40
0.0899999999999999
  0
CIRCLE
  5
27C
330
1F
100
AcDbEntity
  8
0
  6
Continuous
 62
     7
370
    15
100
AcDbCircle
 10
17.022892014
 20
17.5015110627
 30
0.0
 40
0.0899999999999999
  0
CIRCLE
  5
27D
330
1F
100
AcDbEntity
  8
0
  6
Continuous
 62
     7
370
    15
100
AcDbCircle
 10
19.022892014
 20
15.5015110627
 30
0.0
 40
0.0899999999999981
  0
CIRCLE
  5
27E
330
1F
100
AcDbEntity
  8
0
  6
Continuous
 62
     7
370
    15
100
AcDbCircle
 10
17.022892014
 20
17.1015110627
 30
0.0
 40
0.0899999999999963
  0
CIRCLE
  5
27F
330
1F
100
AcDbEntity
  8
0
  6
Continuous
 62
     7
370
    15
100
AcDbCircle
 10
19.022892014
 20
15.1015110627
 30
0.0
 40
0.0899999999999999
  0
CIRCLE
  5
280
330
1F
100
AcDbEntity
  8
0
  6
Continuous
 62
     7
370
    15
100
AcDbCircle
 10
17.022892014
 20
16.7015110627
 30
0.0
 40
0.0899999999999999
  0
CIRCLE
  5
281
330
1F
100
AcDbEntity
  8
0
  6
Continuous
 62
     7
370
    15
100
AcDbCircle
 10
19.422892014
 20
21.1015110627
 30
0.0
 40
0.0900000000000034
  0
CIRCLE
  5
282
330
1F
100
AcDbEntity
  8
0
  6
Continuous
 62
     7
370
    15
100
AcDbCircle
 10
17.022892014
 20
16.3015110627
 30
0.0
 40
0.0899999999999999
  0
CIRCLE
  5
283
330
1F
100
AcDbEntity
  8
0
  6
Continuous
 62
     7
370
    15
100
AcDbCircle
 10
19.422892014
 20
20.7015110627
 30
0.0
 40
0.0899999999999963
  0
CIRCLE
  5
284
330
1F
100
AcDbEntity
  8
0
  6
Continuous
 62
     7
370
    15
100
AcDbCircle
 10
18.222892014
 20
16.3015110627
 30
0.0
 40
0.0899999999999999
  0
CIRCLE
  5
285
330
1F
100
AcDbEntity
  8
0
  6
Continuous
 62
     7
370
    15
100
AcDbCircle
 10
18.222892014
 20
17.1015110627
 30
0.0
 40
0.0899999999999963
  0
CIRCLE
  5
286
330
1F
100
AcDbEntity
  8
0
  6
Continuous
 62
     7
370
    15
100
AcDbCircle
 10
14.222892014
 20
21.1015110627
 30
0.0
 40
0.0900000000000034
  0
CIRCLE
  5
287
330
1F
100
AcDbEntity
  8
0
  6
Continuous
 62
     7
370
    15
100
AcDbCircle
 10
19.422892014
 20
19.9015110627
 30
0.0
 40
0.0899999999999999
  0
CIRCLE
  5
288
330
1F
100
AcDbEntity
  8
0
  6
Continuous
 62
     7
370
    15
100
AcDbCircle
 10
16.222892014
 20
18.3015110627
 30
0.0
 40
0.0899999999999999
  0
CIRCLE
  5
289
330
1F
100
AcDbEntity
  8
0
  6
Continuous
 62
     7
370
    15
100
AcDbCircle
 10
16.222892014
 20
18.7015110627
 30
0.0
 40
0.0899999999999999
  0
CIRCLE
  5
28A
330
1F
100
AcDbEntity
  8
0
  6
Continuous
 62
     7
370
    15
100
AcDbCircle
 10
18.222892014
 20
16.7015110627
 30
0.0
 40
0.0899999999999999
  0
CIRCLE
  5
28B
330
1F
100
AcDbEntity
  8
0
  6
Continuous
 62
     7
370
    15
100
AcDbCircle
 10
10.610392014
 20
24.4615110627
 30
0.0
 40
0.8049999999999997
  0
CIRCLE
  5
28C
330
1F
100
AcDbEntity
  8
0
  6
Continuous
 62
     7
370
    15
100
AcDbCircle
 10
23.335392014
 20
24.4615110627
 30
0.0
 40
0.8049999999999997
  0
CIRCLE
  5
28D
330
1F
100
AcDbEntity
  8
0
  6
Continuous
 62
     7
370
    15
100
AcDbCircle
 10
23.335392014
 20
11.7365110627
 30
0.0
 40
0.8049999999999997
  0
CIRCLE
  5
28E
330
1F
100
AcDbEntity
  8
0
  6
Continuous
 62
     7
370
    15
100
AcDbCircle
 10
10.610392014
 20
11.7365110627
 30
0.0
 40
0.8049999999999997
  0
ARC
  5
28F
330
1F
100
AcDbEntity
  8
0
  6
Continuous
 62
     7
370
    15
100
AcDbCircle
 10
23.335392014
 20
24.4615110627
 30
0.0
 40
2.000000000000002
100
AcDbArc
 50
318.5903778907
 51
141.3178125465
  0
ARC
  5
290
330
1F
100
AcDbEntity
  8
0
  6
Continuous
 62
     7
370
    15
100
AcDbCircle
 10
10.610392014
 20
11.7365110627
 30
0.0
 40
2.000000000000002
100
AcDbArc
 50
270.0
 51
321.3178125465
  0
ARC
  5
291
330
1F
100
AcDbEntity
  8
0
  6
Continuous
 62
     7
370
    15
100
AcDbCircle
 10
10.610392014
 20
11.7365110627
 30
0.0
 40
2.000000000000002
100
AcDbArc
 50
128.6821874535
 51
270.0
  0
ARC
  5
292
330
1F
100
AcDbEntity
  8
0
  6
Continuous
 62
     7
370
    15
100
AcDbCircle
 10
23.335392014
 20
11.7365110627
 30
0.0
 40
2.000000000000002
100
AcDbArc
 50
270.0
 51
41.4096221093
  0
ARC
  5
293
330
1F
100
AcDbEntity
  8
0
  6
Continuous
 62
     7
370
    15
100
AcDbCircle
 10
23.335392014
 20
11.7365110627
 30
0.0
 40
2.000000000000002
100
AcDbArc
 50
218.6821874535
 51
270.0
  0
ARC
  5
294
330
1F
100
AcDbEntity
  8
0
  6
Continuous
 62
     7
370
    15
100
AcDbCircle
 10
10.610392014
 20
24.4615110627
 30
0.0
 40
2.000000000000001
100
AcDbArc
 50
38.6821874535
 51
231.3178125465
  0
LINE
  5
295
330
1F
100
AcDbEntity
  8
0
  6
Continuous
 62
     7
370
    15
100
AcDbLine
 10
12.1888194708
 20
25.7115108791
 30
0.0
 11
12.0246058804
 21
25.8757244694
 31
0.0
  0
LINE
  5
296
330
1F
100
AcDbEntity
  8
0
  6
Continuous
 62
     7
370
    15
100
AcDbLine
 10
21.9211784433
 20
25.8757244694
 30
0.0
 11
21.756964853
 21
25.7115108791
 31
0.0
  0
LINE
  5
297
330
1F
100
AcDbEntity
  8
0
  6
Continuous
 62
     7
370
    15
100
AcDbLine
 10
23.2159486049
 20
21.5136407307
 30
0.0
 11
23.7432625153
 21
22.0409544083
 31
0.0
  0
LINE
  5
298
330
1F
100
AcDbEntity
  8
0
  6
Continuous
 62
     7
370
    15
100
AcDbLine
 10
21.756964853
 20
10.4865106652
 30
0.0
 11
21.9211784433
 21
10.3222970749
 31
0.0
  0
LINE
  5
299
330
1F
100
AcDbEntity
  8
0
  6
Continuous
 62
     7
370
    15
100
AcDbLine
 10
12.0246058804
 20
10.3222970749
 30
0.0
 11
12.1888194708
 21
10.4865106652
 31
0.0
  0
LINE
  5
29A
330
1F
100
AcDbEntity
  8
0
  6
Continuous
 62
     7
370
    15
100
AcDbLine
 10
9.3603918803
 20
13.3149382557
 30
0.0
 11
9.19617829
 21
13.1507246653
 31
0.0
  0
LINE
  5
29B
330
1F
100
AcDbEntity
  8
0
  6
Continuous
 62
     7
370
    15
100
AcDbLine
 10
9.19617829
 20
23.0472973446
 30
0.0
 11
9.3603918803
 21
22.8830837543
 31
0.0
  0
CIRCLE
  5
29C
330
1F
100
AcDbEntity
  8
0
  6
HIDDEN
 62
     7
370
     0
100
AcDbCircle
 10
16.972892014
 20
24.4615110627
 30
0.0
 40
1.632358064034605
  0
CIRCLE
  5
29D
330
1F
100
AcDbEntity
  8
0
  6
HIDDEN
 62
     7
370
     0
100
AcDbCircle
 10
16.972892014
 20
11.7365110627
 30
0.0
 40
1.632358064034612
  0
CIRCLE
  5
29E
330
1F
100
AcDbEntity
  8
0
  6
HIDDEN
 62
     7
370
     0
100
AcDbCircle
 10
15.422892014
 20
17.0990110627
 30
0.0
 40
0.1500000000000021
  0
CIRCLE
  5
29F
330
1F
100
AcDbEntity
  8
0
  6
HIDDEN
 62
     7
370
     0
100
AcDbCircle
 10
15.822892014
 20
17.0990110627
 30
0.0
 40
0.1500000000000021
  0
CIRCLE
  5
2A0
330
1F
100
AcDbEntity
  8
0
  6
HIDDEN
 62
     7
370
     0
100
AcDbCircle
 10
16.222892014
 20
17.0990110627
 30
0.0
 40
0.1500000000000021
  0
CIRCLE
  5
2A1
330
1F
100
AcDbEntity
  8
0
  6
HIDDEN
 62
     7
370
     0
100
AcDbCircle
 10
16.622892014
 20
17.0990110627
 30
0.0
 40
0.1500000000000021
  0
CIRCLE
  5
2A2
330
1F
100
AcDbEntity
  8
0
  6
HIDDEN
 62
     7
370
     0
100
AcDbCircle
 10
17.022892014
 20
17.0990110627
 30
0.0
 40
0.1500000000000021
  0
CIRCLE
  5
2A3
330
1F
100
AcDbEntity
  8
0
  6
HIDDEN
 62
     7
370
     0
100
AcDbCircle
 10
17.422892014
 20
17.0990110627
 30
0.0
 40
0.1500000000000021
  0
CIRCLE
  5
2A4
330
1F
100
AcDbEntity
  8
0
  6
HIDDEN
 62
     7
370
     0
100
AcDbCircle
 10
14.222892014
 20
21.0990110627
 30
0.0
 40
0.1499999999999986
  0
CIRCLE
  5
2A5
330
1F
100
AcDbEntity
  8
0
  6
HIDDEN
 62
     7
370
     0
100
AcDbCircle
 10
14.622892014
 20
21.0990110627
 30
0.0
 40
0.1499999999999986
  0
CIRCLE
  5
2A6
330
1F
100
AcDbEntity
  8
0
  6
HIDDEN
 62
     7
370
     0
100
AcDbCircle
 10
15.022892014
 20
21.0990110627
 30
0.0
 40
0.1499999999999986
  0
CIRCLE
  5
2A7
330
1F
100
AcDbEntity
  8
0
  6
HIDDEN
 62
     7
370
     0
100
AcDbCircle
 10
15.422892014
 20
21.0990110627
 30
0.0
 40
0.1499999999999986
  0
CIRCLE
  5
2A8
330
1F
100
AcDbEntity
  8
0
  6
HIDDEN
 62
     7
370
     0
100
AcDbCircle
 10
15.822892014
 20
21.0990110627
 30
0.0
 40
0.1499999999999986
  0
CIRCLE
  5
2A9
330
1F
100
AcDbEntity
  8
0
  6
HIDDEN
 62
     7
370
     0
100
AcDbCircle
 10
16.222892014
 20
21.0990110627
 30
0.0
 40
0.1499999999999986
  0
CIRCLE
  5
2AA
330
1F
100
AcDbEntity
  8
0
  6
HIDDEN
 62
     7
370
     0
100
AcDbCircle
 10
16.622892014
 20
21.0990110627
 30
0.0
 40
0.1499999999999986
  0
CIRCLE
  5
2AB
330
1F
100
AcDbEntity
  8
0
  6
HIDDEN
 62
     7
370
     0
100
AcDbCircle
 10
17.022892014
 20
21.0990110627
 30
0.0
 40
0.1499999999999986
  0
CIRCLE
  5
2AC
330
1F
100
AcDbEntity
  8
0
  6
HIDDEN
 62
     7
370
     0
100
AcDbCircle
 10
17.422892014
 20
21.0990110627
 30
0.0
 40
0.1499999999999986
  0
CIRCLE
  5
2AD
330
1F
100
AcDbEntity
  8
0
  6
HIDDEN
 62
     7
370
     0
100
AcDbCircle
 10
17.822892014
 20
21.0990110627
 30
0.0
 40
0.1499999999999986
  0
CIRCLE
  5
2AE
330
1F
100
AcDbEntity
  8
0
  6
HIDDEN
 62
     7
370
     0
100
AcDbCircle
 10
18.222892014
 20
21.0990110627
 30
0.0
 40
0.1499999999999986
  0
CIRCLE
  5
2AF
330
1F
100
AcDbEntity
  8
0
  6
HIDDEN
 62
     7
370
     0
100
AcDbCircle
 10
18.622892014
 20
21.0990110627
 30
0.0
 40
0.1499999999999986
  0
CIRCLE
  5
2B0
330
1F
100
AcDbEntity
  8
0
  6
HIDDEN
 62
     7
370
     0
100
AcDbCircle
 10
19.022892014
 20
21.0990110627
 30
0.0
 40
0.1499999999999986
  0
CIRCLE
  5
2B1
330
1F
100
AcDbEntity
  8
0
  6
HIDDEN
 62
     7
370
     0
100
AcDbCircle
 10
19.422892014
 20
21.0990110627
 30
0.0
 40
0.1499999999999986
  0
CIRCLE
  5
2B2
330
1F
100
AcDbEntity
  8
0
  6
HIDDEN
 62
     7
370
     0
100
AcDbCircle
 10
19.822892014
 20
21.0990110627
 30
0.0
 40
0.1499999999999986
  0
CIRCLE
  5
2B3
330
1F
100
AcDbEntity
  8
0
  6
HIDDEN
 62
     7
370
     0
100
AcDbCircle
 10
20.222892014
 20
21.0990110627
 30
0.0
 40
0.1499999999999986
  0
CIRCLE
  5
2B4
330
1F
100
AcDbEntity
  8
0
  6
HIDDEN
 62
     7
370
     0
100
AcDbCircle
 10
14.222892014
 20
20.6990110627
 30
0.0
 40
0.1500000000000057
  0
CIRCLE
  5
2B5
330
1F
100
AcDbEntity
  8
0
  6
HIDDEN
 62
     7
370
     0
100
AcDbCircle
 10
14.622892014
 20
20.6990110627
 30
0.0
 40
0.1500000000000057
  0
CIRCLE
  5
2B6
330
1F
100
AcDbEntity
  8
0
  6
HIDDEN
 62
     7
370
     0
100
AcDbCircle
 10
15.022892014
 20
20.6990110627
 30
0.0
 40
0.1500000000000057
  0
CIRCLE
  5
2B7
330
1F
100
AcDbEntity
  8
0
  6
HIDDEN
 62
     7
370
     0
100
AcDbCircle
 10
15.422892014
 20
20.6990110627
 30
0.0
 40
0.1500000000000057
  0
CIRCLE
  5
2B8
330
1F
100
AcDbEntity
  8
0
  6
HIDDEN
 62
     7
370
     0
100
AcDbCircle
 10
15.822892014
 20
20.6990110627
 30
0.0
 40
0.1500000000000057
  0
CIRCLE
  5
2B9
330
1F
100
AcDbEntity
  8
0
  6
HIDDEN
 62
     7
370
     0
100
AcDbCircle
 10
16.222892014
 20
20.6990110627
 30
0.0
 40
0.1500000000000057
  0
CIRCLE
  5
2BA
330
1F
100
AcDbEntity
  8
0
  6
HIDDEN
 62
     7
370
     0
100
AcDbCircle
 10
16.622892014
 20
20.6990110627
 30
0.0
 40
0.1500000000000057
  0
CIRCLE
  5
2BB
330
1F
100
AcDbEntity
  8
0
  6
HIDDEN
 62
     7
370
     0
100
AcDbCircle
 10
17.022892014
 20
20.6990110627
 30
0.0
 40
0.1500000000000057
  0
CIRCLE
  5
2BC
330
1F
100
AcDbEntity
  8
0
  6
HIDDEN
 62
     7
370
     0
100
AcDbCircle
 10
17.422892014
 20
20.6990110627
 30
0.0
 40
0.1500000000000057
  0
CIRCLE
  5
2BD
330
1F
100
AcDbEntity
  8
0
  6
HIDDEN
 62
     7
370
     0
100
AcDbCircle
 10
17.822892014
 20
20.6990110627
 30
0.0
 40
0.1500000000000057
  0
CIRCLE
  5
2BE
330
1F
100
AcDbEntity
  8
0
  6
HIDDEN
 62
     7
370
     0
100
AcDbCircle
 10
18.222892014
 20
20.6990110627
 30
0.0
 40
0.1500000000000057
  0
CIRCLE
  5
2BF
330
1F
100
AcDbEntity
  8
0
  6
HIDDEN
 62
     7
370
     0
100
AcDbCircle
 10
18.622892014
 20
20.6990110627
 30
0.0
 40
0.1500000000000057
  0
CIRCLE
  5
2C0
330
1F
100
AcDbEntity
  8
0
  6
HIDDEN
 62
     7
370
     0
100
AcDbCircle
 10
19.022892014
 20
20.6990110627
 30
0.0
 40
0.1500000000000057
  0
CIRCLE
  5
2C1
330
1F
100
AcDbEntity
  8
0
  6
HIDDEN
 62
     7
370
     0
100
AcDbCircle
 10
19.422892014
 20
20.6990110627
 30
0.0
 40
0.1500000000000057
  0
CIRCLE
  5
2C2
330
1F
100
AcDbEntity
  8
0
  6
HIDDEN
 62
     7
370
     0
100
AcDbCircle
 10
19.822892014
 20
20.6990110627
 30
0.0
 40
0.1500000000000057
  0
CIRCLE
  5
2C3
330
1F
100
AcDbEntity
  8
0
  6
HIDDEN
 62
     7
370
     0
100
AcDbCircle
 10
20.222892014
 20
20.6990110627
 30
0.0
 40
0.1500000000000057
  0
CIRCLE
  5
2C4
330
1F
100
AcDbEntity
  8
0
  6
HIDDEN
 62
     7
370
     0
100
AcDbCircle
 10
14.222892014
 20
20.2990110627
 30
0.0
 40
0.1499999999999986
  0
CIRCLE
  5
2C5
330
1F
100
AcDbEntity
  8
0
  6
HIDDEN
 62
     7
370
     0
100
AcDbCircle
 10
14.622892014
 20
20.2990110627
 30
0.0
 40
0.1499999999999986
  0
CIRCLE
  5
2C6
330
1F
100
AcDbEntity
  8
0
  6
HIDDEN
 62
     7
370
     0
100
AcDbCircle
 10
15.022892014
 20
20.2990110627
 30
0.0
 40
0.1499999999999986
  0
CIRCLE
  5
2C7
330
1F
100
AcDbEntity
  8
0
  6
HIDDEN
 62
     7
370
     0
100
AcDbCircle
 10
15.422892014
 20
20.2990110627
 30
0.0
 40
0.1499999999999986
  0
CIRCLE
  5
2C8
330
1F
100
AcDbEntity
  8
0
  6
HIDDEN
 62
     7
370
     0
100
AcDbCircle
 10
15.822892014
 20
20.2990110627
 30
0.0
 40
0.1499999999999986
  0
CIRCLE
  5
2C9
330
1F
100
AcDbEntity
  8
0
  6
HIDDEN
 62
     7
370
     0
100
AcDbCircle
 10
16.222892014
 20
20.2990110627
 30
0.0
 40
0.1499999999999986
  0
CIRCLE
  5
2CA
330
1F
100
AcDbEntity
  8
0
  6
HIDDEN
 62
     7
370
     0
100
AcDbCircle
 10
16.622892014
 20
20.2990110627
 30
0.0
 40
0.1499999999999986
  0
CIRCLE
  5
2CB
330
1F
100
AcDbEntity
  8
0
  6
HIDDEN
 62
     7
370
     0
100
AcDbCircle
 10
17.022892014
 20
20.2990110627
 30
0.0
 40
0.1499999999999986
  0
CIRCLE
  5
2CC
330
1F
100
AcDbEntity
  8
0
  6
HIDDEN
 62
     7
370
     0
100
AcDbCircle
 10
17.422892014
 20
20.2990110627
 30
0.0
 40
0.1499999999999986
  0
CIRCLE
  5
2CD
330
1F
100
AcDbEntity
  8
0
  6
HIDDEN
 62
     7
370
     0
100
AcDbCircle
 10
17.822892014
 20
20.2990110627
 30
0.0
 40
0.1499999999999986
  0
CIRCLE
  5
2CE
330
1F
100
AcDbEntity
  8
0
  6
HIDDEN
 62
     7
370
     0
100
AcDbCircle
 10
18.222892014
 20
20.2990110627
 30
0.0
 40
0.1499999999999986
  0
CIRCLE
  5
2CF
330
1F
100
AcDbEntity
  8
0
  6
HIDDEN
 62
     7
370
     0
100
AcDbCircle
 10
18.622892014
 20
20.2990110627
 30
0.0
 40
0.1499999999999986
  0
CIRCLE
  5
2D0
330
1F
100
AcDbEntity
  8
0
  6
HIDDEN
 62
     7
370
     0
100
AcDbCircle
 10
19.022892014
 20
20.2990110627
 30
0.0
 40
0.1499999999999986
  0
CIRCLE
  5
2D1
330
1F
100
AcDbEntity
  8
0
  6
HIDDEN
 62
     7
370
     0
100
AcDbCircle
 10
19.422892014
 20
20.2990110627
 30
0.0
 40
0.1499999999999986
  0
CIRCLE
  5
2D2
330
1F
100
AcDbEntity
  8
0
  6
HIDDEN
 62
     7
370
     0
100
AcDbCircle
 10
19.822892014
 20
20.2990110627
 30
0.0
 40
0.1499999999999986
  0
CIRCLE
  5
2D3
330
1F
100
AcDbEntity
  8
0
  6
HIDDEN
 62
     7
370
     0
100
AcDbCircle
 10
20.222892014
 20
20.2990110627
 30
0.0
 40
0.1499999999999986
  0
CIRCLE
  5
2D4
330
1F
100
AcDbEntity
  8
0
  6
HIDDEN
 62
     7
370
     0
100
AcDbCircle
 10
14.222892014
 20
19.8990110627
 30
0.0
 40
0.1499999999999986
  0
CIRCLE
  5
2D5
330
1F
100
AcDbEntity
  8
0
  6
HIDDEN
 62
     7
370
     0
100
AcDbCircle
 10
14.622892014
 20
19.8990110627
 30
0.0
 40
0.1499999999999986
  0
CIRCLE
  5
2D6
330
1F
100
AcDbEntity
  8
0
  6
HIDDEN
 62
     7
370
     0
100
AcDbCircle
 10
15.022892014
 20
19.8990110627
 30
0.0
 40
0.1499999999999986
  0
CIRCLE
  5
2D7
330
1F
100
AcDbEntity
  8
0
  6
HIDDEN
 62
     7
370
     0
100
AcDbCircle
 10
15.422892014
 20
19.8990110627
 30
0.0
 40
0.1499999999999986
  0
CIRCLE
  5
2D8
330
1F
100
AcDbEntity
  8
0
  6
HIDDEN
 62
     7
370
     0
100
AcDbCircle
 10
15.822892014
 20
19.8990110627
 30
0.0
 40
0.1499999999999986
  0
CIRCLE
  5
2D9
330
1F
100
AcDbEntity
  8
0
  6
HIDDEN
 62
     7
370
     0
100
AcDbCircle
 10
16.222892014
 20
19.8990110627
 30
0.0
 40
0.1499999999999986
  0
CIRCLE
  5
2DA
330
1F
100
AcDbEntity
  8
0
  6
HIDDEN
 62
     7
370
     0
100
AcDbCircle
 10
16.622892014
 20
19.8990110627
 30
0.0
 40
0.1499999999999986
  0
CIRCLE
  5
2DB
330
1F
100
AcDbEntity
  8
0
  6
HIDDEN
 62
     7
370
     0
100
AcDbCircle
 10
17.022892014
 20
19.8990110627
 30
0.0
 40
0.1499999999999986
  0
CIRCLE
  5
2DC
330
1F
100
AcDbEntity
  8
0
  6
HIDDEN
 62
     7
370
     0
100
AcDbCircle
 10
17.422892014
 20
19.8990110627
 30
0.0
 40
0.1499999999999986
  0
CIRCLE
  5
2DD
330
1F
100
AcDbEntity
  8
0
  6
HIDDEN
 62
     7
370
     0
100
AcDbCircle
 10
17.822892014
 20
19.8990110627
 30
0.0
 40
0.1499999999999986
  0
CIRCLE
  5
2DE
330
1F
100
AcDbEntity
  8
0
  6
HIDDEN
 62
     7
370
     0
100
AcDbCircle
 10
18.222892014
 20
19.8990110627
 30
0.0
 40
0.1499999999999986
  0
CIRCLE
  5
2DF
330
1F
100
AcDbEntity
  8
0
  6
HIDDEN
 62
     7
370
     0
100
AcDbCircle
 10
18.622892014
 20
19.8990110627
 30
0.0
 40
0.1499999999999986
  0
CIRCLE
  5
2E0
330
1F
100
AcDbEntity
  8
0
  6
HIDDEN
 62
     7
370
     0
100
AcDbCircle
 10
19.022892014
 20
19.8990110627
 30
0.0
 40
0.1499999999999986
  0
CIRCLE
  5
2E1
330
1F
100
AcDbEntity
  8
0
  6
HIDDEN
 62
     7
370
     0
100
AcDbCircle
 10
19.422892014
 20
19.8990110627
 30
0.0
 40
0.1499999999999986
  0
CIRCLE
  5
2E2
330
1F
100
AcDbEntity
  8
0
  6
HIDDEN
 62
     7
370
     0
100
AcDbCircle
 10
19.822892014
 20
19.8990110627
 30
0.0
 40
0.1499999999999986
  0
CIRCLE
  5
2E3
330
1F
100
AcDbEntity
  8
0
  6
HIDDEN
 62
     7
370
     0
100
AcDbCircle
 10
20.222892014
 20
19.8990110627
 30
0.0
 40
0.1499999999999986
  0
CIRCLE
  5
2E4
330
1F
100
AcDbEntity
  8
0
  6
HIDDEN
 62
     7
370
     0
100
AcDbCircle
 10
14.222892014
 20
19.4990110627
 30
0.0
 40
0.1500000000000021
  0
CIRCLE
  5
2E5
330
1F
100
AcDbEntity
  8
0
  6
HIDDEN
 62
     7
370
     0
100
AcDbCircle
 10
14.622892014
 20
19.4990110627
 30
0.0
 40
0.1500000000000021
  0
CIRCLE
  5
2E6
330
1F
100
AcDbEntity
  8
0
  6
HIDDEN
 62
     7
370
     0
100
AcDbCircle
 10
15.022892014
 20
19.4990110627
 30
0.0
 40
0.1500000000000021
  0
CIRCLE
  5
2E7
330
1F
100
AcDbEntity
  8
0
  6
HIDDEN
 62
     7
370
     0
100
AcDbCircle
 10
15.422892014
 20
19.4990110627
 30
0.0
 40
0.1500000000000021
  0
CIRCLE
  5
2E8
330
1F
100
AcDbEntity
  8
0
  6
HIDDEN
 62
     7
370
     0
100
AcDbCircle
 10
15.822892014
 20
19.4990110627
 30
0.0
 40
0.1500000000000021
  0
CIRCLE
  5
2E9
330
1F
100
AcDbEntity
  8
0
  6
HIDDEN
 62
     7
370
     0
100
AcDbCircle
 10
16.222892014
 20
19.4990110627
 30
0.0
 40
0.1500000000000021
  0
CIRCLE
  5
2EA
330
1F
100
AcDbEntity
  8
0
  6
HIDDEN
 62
     7
370
     0
100
AcDbCircle
 10
16.622892014
 20
19.4990110627
 30
0.0
 40
0.1500000000000021
  0
CIRCLE
  5
2EB
330
1F
100
AcDbEntity
  8
0
  6
HIDDEN
 62
     7
370
     0
100
AcDbCircle
 10
17.022892014
 20
19.4990110627
 30
0.0
 40
0.1500000000000021
  0
CIRCLE
  5
2EC
330
1F
100
AcDbEntity
  8
0
  6
HIDDEN
 62
     7
370
     0
100
AcDbCircle
 10
17.422892014
 20
19.4990110627
 30
0.0
 40
0.1500000000000021
  0
CIRCLE
  5
2ED
330
1F
100
AcDbEntity
  8
0
  6
HIDDEN
 62
     7
370
     0
100
AcDbCircle
 10
17.822892014
 20
19.4990110627
 30
0.0
 40
0.1500000000000021
  0
CIRCLE
  5
2EE
330
1F
100
AcDbEntity
  8
0
  6
HIDDEN
 62
     7
370
     0
100
AcDbCircle
 10
18.222892014
 20
19.4990110627
 30
0.0
 40
0.1500000000000021
  0
CIRCLE
  5
2EF
330
1F
100
AcDbEntity
  8
0
  6
HIDDEN
 62
     7
370
     0
100
AcDbCircle
 10
18.622892014
 20
19.4990110627
 30
0.0
 40
0.1500000000000021
  0
CIRCLE
  5
2F0
330
1F
100
AcDbEntity
  8
0
  6
HIDDEN
 62
     7
370
     0
100
AcDbCircle
 10
19.022892014
 20
19.4990110627
 30
0.0
 40
0.1500000000000021
  0
CIRCLE
  5
2F1
330
1F
100
AcDbEntity
  8
0
  6
HIDDEN
 62
     7
370
     0
100
AcDbCircle
 10
19.422892014
 20
19.4990110627
 30
0.0
 40
0.1500000000000021
  0
CIRCLE
  5
2F2
330
1F
100
AcDbEntity
  8
0
  6
HIDDEN
 62
     7
370
     0
100
AcDbCircle
 10
19.822892014
 20
19.4990110627
 30
0.0
 40
0.1500000000000021
  0
CIRCLE
  5
2F3
330
1F
100
AcDbEntity
  8
0
  6
HIDDEN
 62
     7
370
     0
100
AcDbCircle
 10
20.222892014
 20
19.4990110627
 30
0.0
 40
0.1500000000000021
  0
CIRCLE
  5
2F4
330
1F
100
AcDbEntity
  8
0
  6
HIDDEN
 62
     7
370
     0
100
AcDbCircle
 10
14.222892014
 20
19.0990110627
 30
0.0
 40
0.1499999999999986
  0
CIRCLE
  5
2F5
330
1F
100
AcDbEntity
  8
0
  6
HIDDEN
 62
     7
370
     0
100
AcDbCircle
 10
14.622892014
 20
19.0990110627
 30
0.0
 40
0.1499999999999986
  0
CIRCLE
  5
2F6
330
1F
100
AcDbEntity
  8
0
  6
HIDDEN
 62
     7
370
     0
100
AcDbCircle
 10
15.022892014
 20
19.0990110627
 30
0.0
 40
0.1499999999999986
  0
CIRCLE
  5
2F7
330
1F
100
AcDbEntity
  8
0
  6
HIDDEN
 62
     7
370
     0
100
AcDbCircle
 10
15.422892014
 20
19.0990110627
 30
0.0
 40
0.1499999999999986
  0
CIRCLE
  5
2F8
330
1F
100
AcDbEntity
  8
0
  6
HIDDEN
 62
     7
370
     0
100
AcDbCircle
 10
15.822892014
 20
19.0990110627
 30
0.0
 40
0.1499999999999986
  0
CIRCLE
  5
2F9
330
1F
100
AcDbEntity
  8
0
  6
HIDDEN
 62
     7
370
     0
100
AcDbCircle
 10
16.222892014
 20
19.0990110627
 30
0.0
 40
0.1499999999999986
  0
CIRCLE
  5
2FA
330
1F
100
AcDbEntity
  8
0
  6
HIDDEN
 62
     7
370
     0
100
AcDbCircle
 10
16.622892014
 20
19.0990110627
 30
0.0
 40
0.1499999999999986
  0
CIRCLE
  5
2FB
330
1F
100
AcDbEntity
  8
0
  6
HIDDEN
 62
     7
370
     0
100
AcDbCircle
 10
17.022892014
 20
19.0990110627
 30
0.0
 40
0.1499999999999986
  0
CIRCLE
  5
2FC
330
1F
100
AcDbEntity
  8
0
  6
HIDDEN
 62
     7
370
     0
100
AcDbCircle
 10
17.422892014
 20
19.0990110627
 30
0.0
 40
0.1499999999999986
  0
CIRCLE
  5
2FD
330
1F
100
AcDbEntity
  8
0
  6
HIDDEN
 62
     7
370
     0
100
AcDbCircle
 10
17.822892014
 20
19.0990110627
 30
0.0
 40
0.1499999999999986
  0
CIRCLE
  5
2FE
330
1F
100
AcDbEntity
  8
0
  6
HIDDEN
 62
     7
370
     0
100
AcDbCircle
 10
18.222892014
 20
19.0990110627
 30
0.0
 40
0.1499999999999986
  0
CIRCLE
  5
2FF
330
1F
100
AcDbEntity
  8
0
  6
HIDDEN
 62
     7
370
     0
100
AcDbCircle
 10
18.622892014
 20
19.0990110627
 30
0.0
 40
0.1499999999999986
  0
CIRCLE
  5
300
330
1F
100
AcDbEntity
  8
0
  6
HIDDEN
 62
     7
370
     0
100
AcDbCircle
 10
19.022892014
 20
19.0990110627
 30
0.0
 40
0.1499999999999986
  0
CIRCLE
  5
301
330
1F
100
AcDbEntity
  8
0
  6
HIDDEN
 62
     7
370
     0
100
AcDbCircle
 10
19.422892014
 20
19.0990110627
 30
0.0
 40
0.1499999999999986
  0
CIRCLE
  5
302
330
1F
100
AcDbEntity
  8
0
  6
HIDDEN
 62
     7
370
     0
100
AcDbCircle
 10
19.822892014
 20
19.0990110627
 30
0.0
 40
0.1499999999999986
  0
CIRCLE
  5
303
330
1F
100
AcDbEntity
  8
0
  6
HIDDEN
 62
     7
370
     0
100
AcDbCircle
 10
20.222892014
 20
19.0990110627
 30
0.0
 40
0.1499999999999986
  0
CIRCLE
  5
304
330
1F
100
AcDbEntity
  8
0
  6
HIDDEN
 62
     7
370
     0
100
AcDbCircle
 10
14.222892014
 20
18.6990110627
 30
0.0
 40
0.1499999999999986
  0
CIRCLE
  5
305
330
1F
100
AcDbEntity
  8
0
  6
HIDDEN
 62
     7
370
     0
100
AcDbCircle
 10
14.622892014
 20
18.6990110627
 30
0.0
 40
0.1499999999999986
  0
CIRCLE
  5
306
330
1F
100
AcDbEntity
  8
0
  6
HIDDEN
 62
     7
370
     0
100
AcDbCircle
 10
15.022892014
 20
18.6990110627
 30
0.0
 40
0.1499999999999986
  0
CIRCLE
  5
307
330
1F
100
AcDbEntity
  8
0
  6
HIDDEN
 62
     7
370
     0
100
AcDbCircle
 10
15.422892014
 20
18.6990110627
 30
0.0
 40
0.1499999999999986
  0
CIRCLE
  5
308
330
1F
100
AcDbEntity
  8
0
  6
HIDDEN
 62
     7
370
     0
100
AcDbCircle
 10
15.822892014
 20
18.6990110627
 30
0.0
 40
0.1499999999999986
  0
CIRCLE
  5
309
330
1F
100
AcDbEntity
  8
0
  6
HIDDEN
 62
     7
370
     0
100
AcDbCircle
 10
16.222892014
 20
18.6990110627
 30
0.0
 40
0.1499999999999986
  0
CIRCLE
  5
30A
330
1F
100
AcDbEntity
  8
0
  6
HIDDEN
 62
     7
370
     0
100
AcDbCircle
 10
16.622892014
 20
18.6990110627
 30
0.0
 40
0.1499999999999986
  0
CIRCLE
  5
30B
330
1F
100
AcDbEntity
  8
0
  6
HIDDEN
 62
     7
370
     0
100
AcDbCircle
 10
17.022892014
 20
18.6990110627
 30
0.0
 40
0.1499999999999986
  0
CIRCLE
  5
30C
330
1F
100
AcDbEntity
  8
0
  6
HIDDEN
 62
     7
370
     0
100
AcDbCircle
 10
17.422892014
 20
18.6990110627
 30
0.0
 40
0.1499999999999986
  0
CIRCLE
  5
30D
330
1F
100
AcDbEntity
  8
0
  6
HIDDEN
 62
     7
370
     0
100
AcDbCircle
 10
17.822892014
 20
18.6990110627
 30
0.0
 40
0.1499999999999986
  0
CIRCLE
  5
30E
330
1F
100
AcDbEntity
  8
0
  6
HIDDEN
 62
     7
370
     0
100
AcDbCircle
 10
19.822892014
 20
16.6990110627
 30
0.0
 40
0.1499999999999986
  0
CIRCLE
  5
30F
330
1F
100
AcDbEntity
  8
0
  6
HIDDEN
 62
     7
370
     0
100
AcDbCircle
 10
18.222892014
 20
18.6990110627
 30
0.0
 40
0.1499999999999986
  0
CIRCLE
  5
310
330
1F
100
AcDbEntity
  8
0
  6
HIDDEN
 62
     7
370
     0
100
AcDbCircle
 10
18.622892014
 20
18.6990110627
 30
0.0
 40
0.1499999999999986
  0
CIRCLE
  5
311
330
1F
100
AcDbEntity
  8
0
  6
HIDDEN
 62
     7
370
     0
100
AcDbCircle
 10
19.022892014
 20
18.6990110627
 30
0.0
 40
0.1499999999999986
  0
CIRCLE
  5
312
330
1F
100
AcDbEntity
  8
0
  6
HIDDEN
 62
     7
370
     0
100
AcDbCircle
 10
19.422892014
 20
18.6990110627
 30
0.0
 40
0.1499999999999986
  0
CIRCLE
  5
313
330
1F
100
AcDbEntity
  8
0
  6
HIDDEN
 62
     7
370
     0
100
AcDbCircle
 10
19.822892014
 20
18.6990110627
 30
0.0
 40
0.1499999999999986
  0
CIRCLE
  5
314
330
1F
100
AcDbEntity
  8
0
  6
HIDDEN
 62
     7
370
     0
100
AcDbCircle
 10
20.222892014
 20
18.6990110627
 30
0.0
 40
0.1499999999999986
  0
CIRCLE
  5
315
330
1F
100
AcDbEntity
  8
0
  6
HIDDEN
 62
     7
370
     0
100
AcDbCircle
 10
14.222892014
 20
18.2990110627
 30
0.0
 40
0.1499999999999986
  0
CIRCLE
  5
316
330
1F
100
AcDbEntity
  8
0
  6
HIDDEN
 62
     7
370
     0
100
AcDbCircle
 10
14.622892014
 20
18.2990110627
 30
0.0
 40
0.1499999999999986
  0
CIRCLE
  5
317
330
1F
100
AcDbEntity
  8
0
  6
HIDDEN
 62
     7
370
     0
100
AcDbCircle
 10
15.022892014
 20
18.2990110627
 30
0.0
 40
0.1499999999999986
  0
CIRCLE
  5
318
330
1F
100
AcDbEntity
  8
0
  6
HIDDEN
 62
     7
370
     0
100
AcDbCircle
 10
15.422892014
 20
18.2990110627
 30
0.0
 40
0.1499999999999986
  0
CIRCLE
  5
319
330
1F
100
AcDbEntity
  8
0
  6
HIDDEN
 62
     7
370
     0
100
AcDbCircle
 10
15.822892014
 20
18.2990110627
 30
0.0
 40
0.1499999999999986
  0
CIRCLE
  5
31A
330
1F
100
AcDbEntity
  8
0
  6
HIDDEN
 62
     7
370
     0
100
AcDbCircle
 10
16.222892014
 20
18.2990110627
 30
0.0
 40
0.1499999999999986
  0
CIRCLE
  5
31B
330
1F
100
AcDbEntity
  8
0
  6
HIDDEN
 62
     7
370
     0
100
AcDbCircle
 10
16.622892014
 20
18.2990110627
 30
0.0
 40
0.1499999999999986
  0
CIRCLE
  5
31C
330
1F
100
AcDbEntity
  8
0
  6
HIDDEN
 62
     7
370
     0
100
AcDbCircle
 10
17.022892014
 20
18.2990110627
 30
0.0
 40
0.1499999999999986
  0
CIRCLE
  5
31D
330
1F
100
AcDbEntity
  8
0
  6
HIDDEN
 62
     7
370
     0
100
AcDbCircle
 10
17.422892014
 20
18.2990110627
 30
0.0
 40
0.1499999999999986
  0
CIRCLE
  5
31E
330
1F
100
AcDbEntity
  8
0
  6
HIDDEN
 62
     7
370
     0
100
AcDbCircle
 10
17.822892014
 20
18.2990110627
 30
0.0
 40
0.1499999999999986
  0
CIRCLE
  5
31F
330
1F
100
AcDbEntity
  8
0
  6
HIDDEN
 62
     7
370
     0
100
AcDbCircle
 10
18.222892014
 20
18.2990110627
 30
0.0
 40
0.1499999999999986
  0
CIRCLE
  5
320
330
1F
100
AcDbEntity
  8
0
  6
HIDDEN
 62
     7
370
     0
100
AcDbCircle
 10
18.622892014
 20
18.2990110627
 30
0.0
 40
0.1499999999999986
  0
CIRCLE
  5
321
330
1F
100
AcDbEntity
  8
0
  6
HIDDEN
 62
     7
370
     0
100
AcDbCircle
 10
19.022892014
 20
18.2990110627
 30
0.0
 40
0.1499999999999986
  0
CIRCLE
  5
322
330
1F
100
AcDbEntity
  8
0
  6
HIDDEN
 62
     7
370
     0
100
AcDbCircle
 10
19.422892014
 20
18.2990110627
 30
0.0
 40
0.1499999999999986
  0
CIRCLE
  5
323
330
1F
100
AcDbEntity
  8
0
  6
HIDDEN
 62
     7
370
     0
100
AcDbCircle
 10
19.822892014
 20
18.2990110627
 30
0.0
 40
0.1499999999999986
  0
CIRCLE
  5
324
330
1F
100
AcDbEntity
  8
0
  6
HIDDEN
 62
     7
370
     0
100
AcDbCircle
 10
20.222892014
 20
18.2990110627
 30
0.0
 40
0.1499999999999986
  0
CIRCLE
  5
325
330
1F
100
AcDbEntity
  8
0
  6
HIDDEN
 62
     7
370
     0
100
AcDbCircle
 10
14.222892014
 20
17.8990110627
 30
0.0
 40
0.1500000000000021
  0
CIRCLE
  5
326
330
1F
100
AcDbEntity
  8
0
  6
HIDDEN
 62
     7
370
     0
100
AcDbCircle
 10
14.622892014
 20
17.8990110627
 30
0.0
 40
0.1500000000000021
  0
CIRCLE
  5
327
330
1F
100
AcDbEntity
  8
0
  6
HIDDEN
 62
     7
370
     0
100
AcDbCircle
 10
15.022892014
 20
17.8990110627
 30
0.0
 40
0.1500000000000021
  0
CIRCLE
  5
328
330
1F
100
AcDbEntity
  8
0
  6
HIDDEN
 62
     7
370
     0
100
AcDbCircle
 10
15.422892014
 20
17.8990110627
 30
0.0
 40
0.1500000000000021
  0
CIRCLE
  5
329
330
1F
100
AcDbEntity
  8
0
  6
HIDDEN
 62
     7
370
     0
100
AcDbCircle
 10
15.822892014
 20
17.8990110627
 30
0.0
 40
0.1500000000000021
  0
CIRCLE
  5
32A
330
1F
100
AcDbEntity
  8
0
  6
HIDDEN
 62
     7
370
     0
100
AcDbCircle
 10
16.222892014
 20
17.8990110627
 30
0.0
 40
0.1500000000000021
  0
CIRCLE
  5
32B
330
1F
100
AcDbEntity
  8
0
  6
HIDDEN
 62
     7
370
     0
100
AcDbCircle
 10
16.622892014
 20
17.8990110627
 30
0.0
 40
0.1500000000000021
  0
CIRCLE
  5
32C
330
1F
100
AcDbEntity
  8
0
  6
HIDDEN
 62
     7
370
     0
100
AcDbCircle
 10
17.022892014
 20
17.8990110627
 30
0.0
 40
0.1500000000000021
  0
CIRCLE
  5
32D
330
1F
100
AcDbEntity
  8
0
  6
HIDDEN
 62
     7
370
     0
100
AcDbCircle
 10
17.422892014
 20
17.8990110627
 30
0.0
 40
0.1500000000000021
  0
CIRCLE
  5
32E
330
1F
100
AcDbEntity
  8
0
  6
HIDDEN
 62
     7
370
     0
100
AcDbCircle
 10
17.822892014
 20
17.8990110627
 30
0.0
 40
0.1500000000000021
  0
CIRCLE
  5
32F
330
1F
100
AcDbEntity
  8
0
  6
HIDDEN
 62
     7
370
     0
100
AcDbCircle
 10
18.222892014
 20
17.8990110627
 30
0.0
 40
0.1500000000000021
  0
CIRCLE
  5
330
330
1F
100
AcDbEntity
  8
0
  6
HIDDEN
 62
     7
370
     0
100
AcDbCircle
 10
18.622892014
 20
17.8990110627
 30
0.0
 40
0.1500000000000021
  0
CIRCLE
  5
331
330
1F
100
AcDbEntity
  8
0
  6
HIDDEN
 62
     7
370
     0
100
AcDbCircle
 10
19.022892014
 20
17.8990110627
 30
0.0
 40
0.1500000000000021
  0
CIRCLE
  5
332
330
1F
100
AcDbEntity
  8
0
  6
HIDDEN
 62
     7
370
     0
100
AcDbCircle
 10
19.422892014
 20
17.8990110627
 30
0.0
 40
0.1500000000000021
  0
CIRCLE
  5
333
330
1F
100
AcDbEntity
  8
0
  6
HIDDEN
 62
     7
370
     0
100
AcDbCircle
 10
19.822892014
 20
17.8990110627
 30
0.0
 40
0.1500000000000021
  0
CIRCLE
  5
334
330
1F
100
AcDbEntity
  8
0
  6
HIDDEN
 62
     7
370
     0
100
AcDbCircle
 10
20.222892014
 20
17.8990110627
 30
0.0
 40
0.1500000000000021
  0
CIRCLE
  5
335
330
1F
100
AcDbEntity
  8
0
  6
HIDDEN
 62
     7
370
     0
100
AcDbCircle
 10
14.222892014
 20
17.4990110627
 30
0.0
 40
0.1499999999999986
  0
CIRCLE
  5
336
330
1F
100
AcDbEntity
  8
0
  6
HIDDEN
 62
     7
370
     0
100
AcDbCircle
 10
14.622892014
 20
17.4990110627
 30
0.0
 40
0.1499999999999986
  0
CIRCLE
  5
337
330
1F
100
AcDbEntity
  8
0
  6
HIDDEN
 62
     7
370
     0
100
AcDbCircle
 10
15.022892014
 20
17.4990110627
 30
0.0
 40
0.1499999999999986
  0
CIRCLE
  5
338
330
1F
100
AcDbEntity
  8
0
  6
HIDDEN
 62
     7
370
     0
100
AcDbCircle
 10
15.422892014
 20
17.4990110627
 30
0.0
 40
0.1499999999999986
  0
CIRCLE
  5
339
330
1F
100
AcDbEntity
  8
0
  6
HIDDEN
 62
     7
370
     0
100
AcDbCircle
 10
15.822892014
 20
17.4990110627
 30
0.0
 40
0.1499999999999986
  0
CIRCLE
  5
33A
330
1F
100
AcDbEntity
  8
0
  6
HIDDEN
 62
     7
370
     0
100
AcDbCircle
 10
16.222892014
 20
17.4990110627
 30
0.0
 40
0.1499999999999986
  0
CIRCLE
  5
33B
330
1F
100
AcDbEntity
  8
0
  6
HIDDEN
 62
     7
370
     0
100
AcDbCircle
 10
16.622892014
 20
17.4990110627
 30
0.0
 40
0.1499999999999986
  0
CIRCLE
  5
33C
330
1F
100
AcDbEntity
  8
0
  6
HIDDEN
 62
     7
370
     0
100
AcDbCircle
 10
17.022892014
 20
17.4990110627
 30
0.0
 40
0.1499999999999986
  0
CIRCLE
  5
33D
330
1F
100
AcDbEntity
  8
0
  6
HIDDEN
 62
     7
370
     0
100
AcDbCircle
 10
17.422892014
 20
17.4990110627
 30
0.0
 40
0.1499999999999986
  0
CIRCLE
  5
33E
330
1F
100
AcDbEntity
  8
0
  6
HIDDEN
 62
     7
370
     0
100
AcDbCircle
 10
17.822892014
 20
17.4990110627
 30
0.0
 40
0.1499999999999986
  0
CIRCLE
  5
33F
330
1F
100
AcDbEntity
  8
0
  6
HIDDEN
 62
     7
370
     0
100
AcDbCircle
 10
18.222892014
 20
17.4990110627
 30
0.0
 40
0.1499999999999986
  0
CIRCLE
  5
340
330
1F
100
AcDbEntity
  8
0
  6
HIDDEN
 62
     7
370
     0
100
AcDbCircle
 10
18.622892014
 20
17.4990110627
 30
0.0
 40
0.1499999999999986
  0
CIRCLE
  5
341
330
1F
100
AcDbEntity
  8
0
  6
HIDDEN
 62
     7
370
     0
100
AcDbCircle
 10
19.022892014
 20
17.4990110627
 30
0.0
 40
0.1499999999999986
  0
CIRCLE
  5
342
330
1F
100
AcDbEntity
  8
0
  6
HIDDEN
 62
     7
370
     0
100
AcDbCircle
 10
19.422892014
 20
17.4990110627
 30
0.0
 40
0.1499999999999986
  0
CIRCLE
  5
343
330
1F
100
AcDbEntity
  8
0
  6
HIDDEN
 62
     7
370
     0
100
AcDbCircle
 10
19.822892014
 20
17.4990110627
 30
0.0
 40
0.1499999999999986
  0
CIRCLE
  5
344
330
1F
100
AcDbEntity
  8
0
  6
HIDDEN
 62
     7
370
     0
100
AcDbCircle
 10
20.222892014
 20
17.4990110627
 30
0.0
 40
0.1499999999999986
  0
CIRCLE
  5
345
330
1F
100
AcDbEntity
  8
0
  6
HIDDEN
 62
     7
370
     0
100
AcDbCircle
 10
14.222892014
 20
17.0990110627
 30
0.0
 40
0.1500000000000021
  0
CIRCLE
  5
346
330
1F
100
AcDbEntity
  8
0
  6
HIDDEN
 62
     7
370
     0
100
AcDbCircle
 10
14.622892014
 20
17.0990110627
 30
0.0
 40
0.1500000000000021
  0
CIRCLE
  5
347
330
1F
100
AcDbEntity
  8
0
  6
HIDDEN
 62
     7
370
     0
100
AcDbCircle
 10
15.022892014
 20
17.0990110627
 30
0.0
 40
0.1500000000000021
  0
CIRCLE
  5
348
330
1F
100
AcDbEntity
  8
0
  6
HIDDEN
 62
     7
370
     0
100
AcDbCircle
 10
17.422892014
 20
15.0990110627
 30
0.0
 40
0.1499999999999986
  0
CIRCLE
  5
349
330
1F
100
AcDbEntity
  8
0
  6
HIDDEN
 62
     7
370
     0
100
AcDbCircle
 10
17.822892014
 20
15.0990110627
 30
0.0
 40
0.1499999999999986
  0
CIRCLE
  5
34A
330
1F
100
AcDbEntity
  8
0
  6
HIDDEN
 62
     7
370
     0
100
AcDbCircle
 10
18.222892014
 20
15.0990110627
 30
0.0
 40
0.1499999999999986
  0
CIRCLE
  5
34B
330
1F
100
AcDbEntity
  8
0
  6
HIDDEN
 62
     7
370
     0
100
AcDbCircle
 10
18.622892014
 20
15.0990110627
 30
0.0
 40
0.1499999999999986
  0
CIRCLE
  5
34C
330
1F
100
AcDbEntity
  8
0
  6
HIDDEN
 62
     7
370
     0
100
AcDbCircle
 10
19.022892014
 20
15.0990110627
 30
0.0
 40
0.1499999999999986
  0
CIRCLE
  5
34D
330
1F
100
AcDbEntity
  8
0
  6
HIDDEN
 62
     7
370
     0
100
AcDbCircle
 10
19.422892014
 20
15.0990110627
 30
0.0
 40
0.1499999999999986
  0
CIRCLE
  5
34E
330
1F
100
AcDbEntity
  8
0
  6
HIDDEN
 62
     7
370
     0
100
AcDbCircle
 10
17.822892014
 20
17.0990110627
 30
0.0
 40
0.1500000000000021
  0
CIRCLE
  5
34F
330
1F
100
AcDbEntity
  8
0
  6
HIDDEN
 62
     7
370
     0
100
AcDbCircle
 10
18.222892014
 20
17.0990110627
 30
0.0
 40
0.1500000000000021
  0
CIRCLE
  5
350
330
1F
100
AcDbEntity
  8
0
  6
HIDDEN
 62
     7
370
     0
100
AcDbCircle
 10
18.622892014
 20
17.0990110627
 30
0.0
 40
0.1500000000000021
  0
CIRCLE
  5
351
330
1F
100
AcDbEntity
  8
0
  6
HIDDEN
 62
     7
370
     0
100
AcDbCircle
 10
19.022892014
 20
17.0990110627
 30
0.0
 40
0.1500000000000021
  0
CIRCLE
  5
352
330
1F
100
AcDbEntity
  8
0
  6
HIDDEN
 62
     7
370
     0
100
AcDbCircle
 10
19.422892014
 20
17.0990110627
 30
0.0
 40
0.1500000000000021
  0
CIRCLE
  5
353
330
1F
100
AcDbEntity
  8
0
  6
HIDDEN
 62
     7
370
     0
100
AcDbCircle
 10
19.822892014
 20
17.0990110627
 30
0.0
 40
0.1500000000000021
  0
CIRCLE
  5
354
330
1F
100
AcDbEntity
  8
0
  6
HIDDEN
 62
     7
370
     0
100
AcDbCircle
 10
20.222892014
 20
17.0990110627
 30
0.0
 40
0.1500000000000021
  0
CIRCLE
  5
355
330
1F
100
AcDbEntity
  8
0
  6
HIDDEN
 62
     7
370
     0
100
AcDbCircle
 10
14.222892014
 20
16.6990110627
 30
0.0
 40
0.1499999999999986
  0
CIRCLE
  5
356
330
1F
100
AcDbEntity
  8
0
  6
HIDDEN
 62
     7
370
     0
100
AcDbCircle
 10
14.622892014
 20
16.6990110627
 30
0.0
 40
0.1499999999999986
  0
CIRCLE
  5
357
330
1F
100
AcDbEntity
  8
0
  6
HIDDEN
 62
     7
370
     0
100
AcDbCircle
 10
15.022892014
 20
16.6990110627
 30
0.0
 40
0.1499999999999986
  0
CIRCLE
  5
358
330
1F
100
AcDbEntity
  8
0
  6
HIDDEN
 62
     7
370
     0
100
AcDbCircle
 10
15.422892014
 20
16.6990110627
 30
0.0
 40
0.1499999999999986
  0
CIRCLE
  5
359
330
1F
100
AcDbEntity
  8
0
  6
HIDDEN
 62
     7
370
     0
100
AcDbCircle
 10
15.822892014
 20
16.6990110627
 30
0.0
 40
0.1499999999999986
  0
CIRCLE
  5
35A
330
1F
100
AcDbEntity
  8
0
  6
HIDDEN
 62
     7
370
     0
100
AcDbCircle
 10
16.222892014
 20
16.6990110627
 30
0.0
 40
0.1499999999999986
  0
CIRCLE
  5
35B
330
1F
100
AcDbEntity
  8
0
  6
HIDDEN
 62
     7
370
     0
100
AcDbCircle
 10
16.622892014
 20
16.6990110627
 30
0.0
 40
0.1499999999999986
  0
CIRCLE
  5
35C
330
1F
100
AcDbEntity
  8
0
  6
HIDDEN
 62
     7
370
     0
100
AcDbCircle
 10
17.022892014
 20
16.6990110627
 30
0.0
 40
0.1499999999999986
  0
CIRCLE
  5
35D
330
1F
100
AcDbEntity
  8
0
  6
HIDDEN
 62
     7
370
     0
100
AcDbCircle
 10
17.422892014
 20
16.6990110627
 30
0.0
 40
0.1499999999999986
  0
CIRCLE
  5
35E
330
1F
100
AcDbEntity
  8
0
  6
HIDDEN
 62
     7
370
     0
100
AcDbCircle
 10
17.822892014
 20
16.6990110627
 30
0.0
 40
0.1499999999999986
  0
CIRCLE
  5
35F
330
1F
100
AcDbEntity
  8
0
  6
HIDDEN
 62
     7
370
     0
100
AcDbCircle
 10
18.222892014
 20
16.6990110627
 30
0.0
 40
0.1499999999999986
  0
CIRCLE
  5
360
330
1F
100
AcDbEntity
  8
0
  6
HIDDEN
 62
     7
370
     0
100
AcDbCircle
 10
18.622892014
 20
16.6990110627
 30
0.0
 40
0.1499999999999986
  0
CIRCLE
  5
361
330
1F
100
AcDbEntity
  8
0
  6
HIDDEN
 62
     7
370
     0
100
AcDbCircle
 10
19.022892014
 20
16.6990110627
 30
0.0
 40
0.1499999999999986
  0
CIRCLE
  5
362
330
1F
100
AcDbEntity
  8
0
  6
HIDDEN
 62
     7
370
     0
100
AcDbCircle
 10
19.422892014
 20
16.6990110627
 30
0.0
 40
0.1499999999999986
  0
CIRCLE
  5
363
330
1F
100
AcDbEntity
  8
0
  6
HIDDEN
 62
     7
370
     0
100
AcDbCircle
 10
17.422892014
 20
15.4990110627
 30
0.0
 40
0.1500000000000021
  0
CIRCLE
  5
364
330
1F
100
AcDbEntity
  8
0
  6
HIDDEN
 62
     7
370
     0
100
AcDbCircle
 10
20.222892014
 20
16.6990110627
 30
0.0
 40
0.1499999999999986
  0
CIRCLE
  5
365
330
1F
100
AcDbEntity
  8
0
  6
HIDDEN
 62
     7
370
     0
100
AcDbCircle
 10
14.222892014
 20
16.2990110627
 30
0.0
 40
0.1500000000000021
  0
CIRCLE
  5
366
330
1F
100
AcDbEntity
  8
0
  6
HIDDEN
 62
     7
370
     0
100
AcDbCircle
 10
14.622892014
 20
16.2990110627
 30
0.0
 40
0.1500000000000021
  0
CIRCLE
  5
367
330
1F
100
AcDbEntity
  8
0
  6
HIDDEN
 62
     7
370
     0
100
AcDbCircle
 10
15.022892014
 20
16.2990110627
 30
0.0
 40
0.1500000000000021
  0
CIRCLE
  5
368
330
1F
100
AcDbEntity
  8
0
  6
HIDDEN
 62
     7
370
     0
100
AcDbCircle
 10
15.422892014
 20
16.2990110627
 30
0.0
 40
0.1500000000000021
  0
CIRCLE
  5
369
330
1F
100
AcDbEntity
  8
0
  6
HIDDEN
 62
     7
370
     0
100
AcDbCircle
 10
15.822892014
 20
16.2990110627
 30
0.0
 40
0.1500000000000021
  0
CIRCLE
  5
36A
330
1F
100
AcDbEntity
  8
0
  6
HIDDEN
 62
     7
370
     0
100
AcDbCircle
 10
16.222892014
 20
16.2990110627
 30
0.0
 40
0.1500000000000021
  0
CIRCLE
  5
36B
330
1F
100
AcDbEntity
  8
0
  6
HIDDEN
 62
     7
370
     0
100
AcDbCircle
 10
16.622892014
 20
16.2990110627
 30
0.0
 40
0.1500000000000021
  0
CIRCLE
  5
36C
330
1F
100
AcDbEntity
  8
0
  6
HIDDEN
 62
     7
370
     0
100
AcDbCircle
 10
17.022892014
 20
16.2990110627
 30
0.0
 40
0.1500000000000021
  0
CIRCLE
  5
36D
330
1F
100
AcDbEntity
  8
0
  6
HIDDEN
 62
     7
370
     0
100
AcDbCircle
 10
17.422892014
 20
16.2990110627
 30
0.0
 40
0.1500000000000021
  0
CIRCLE
  5
36E
330
1F
100
AcDbEntity
  8
0
  6
HIDDEN
 62
     7
370
     0
100
AcDbCircle
 10
17.822892014
 20
16.2990110627
 30
0.0
 40
0.1500000000000021
  0
CIRCLE
  5
36F
330
1F
100
AcDbEntity
  8
0
  6
HIDDEN
 62
     7
370
     0
100
AcDbCircle
 10
18.222892014
 20
16.2990110627
 30
0.0
 40
0.1500000000000021
  0
CIRCLE
  5
370
330
1F
100
AcDbEntity
  8
0
  6
HIDDEN
 62
     7
370
     0
100
AcDbCircle
 10
18.622892014
 20
16.2990110627
 30
0.0
 40
0.1500000000000021
  0
CIRCLE
  5
371
330
1F
100
AcDbEntity
  8
0
  6
HIDDEN
 62
     7
370
     0
100
AcDbCircle
 10
19.022892014
 20
16.2990110627
 30
0.0
 40
0.1500000000000021
  0
CIRCLE
  5
372
330
1F
100
AcDbEntity
  8
0
  6
HIDDEN
 62
     7
370
     0
100
AcDbCircle
 10
19.422892014
 20
16.2990110627
 30
0.0
 40
0.1500000000000021
  0
CIRCLE
  5
373
330
1F
100
AcDbEntity
  8
0
  6
HIDDEN
 62
     7
370
     0
100
AcDbCircle
 10
19.822892014
 20
16.2990110627
 30
0.0
 40
0.1500000000000021
  0
CIRCLE
  5
374
330
1F
100
AcDbEntity
  8
0
  6
HIDDEN
 62
     7
370
     0
100
AcDbCircle
 10
20.222892014
 20
16.2990110627
 30
0.0
 40
0.1500000000000021
  0
CIRCLE
  5
375
330
1F
100
AcDbEntity
  8
0
  6
HIDDEN
 62
     7
370
     0
100
AcDbCircle
 10
14.222892014
 20
15.8990110627
 30
0.0
 40
0.1499999999999986
  0
CIRCLE
  5
376
330
1F
100
AcDbEntity
  8
0
  6
HIDDEN
 62
     7
370
     0
100
AcDbCircle
 10
14.622892014
 20
15.8990110627
 30
0.0
 40
0.1499999999999986
  0
CIRCLE
  5
377
330
1F
100
AcDbEntity
  8
0
  6
HIDDEN
 62
     7
370
     0
100
AcDbCircle
 10
15.022892014
 20
15.8990110627
 30
0.0
 40
0.1499999999999986
  0
CIRCLE
  5
378
330
1F
100
AcDbEntity
  8
0
  6
HIDDEN
 62
     7
370
     0
100
AcDbCircle
 10
15.422892014
 20
15.8990110627
 30
0.0
 40
0.1499999999999986
  0
CIRCLE
  5
379
330
1F
100
AcDbEntity
  8
0
  6
HIDDEN
 62
     7
370
     0
100
AcDbCircle
 10
15.822892014
 20
15.8990110627
 30
0.0
 40
0.1499999999999986
  0
CIRCLE
  5
37A
330
1F
100
AcDbEntity
  8
0
  6
HIDDEN
 62
     7
370
     0
100
AcDbCircle
 10
16.222892014
 20
15.8990110627
 30
0.0
 40
0.1499999999999986
  0
CIRCLE
  5
37B
330
1F
100
AcDbEntity
  8
0
  6
HIDDEN
 62
     7
370
     0
100
AcDbCircle
 10
16.622892014
 20
15.8990110627
 30
0.0
 40
0.1499999999999986
  0
CIRCLE
  5
37C
330
1F
100
AcDbEntity
  8
0
  6
HIDDEN
 62
     7
370
     0
100
AcDbCircle
 10
17.022892014
 20
15.8990110627
 30
0.0
 40
0.1499999999999986
  0
CIRCLE
  5
37D
330
1F
100
AcDbEntity
  8
0
  6
HIDDEN
 62
     7
370
     0
100
AcDbCircle
 10
17.422892014
 20
15.8990110627
 30
0.0
 40
0.1499999999999986
  0
CIRCLE
  5
37E
330
1F
100
AcDbEntity
  8
0
  6
HIDDEN
 62
     7
370
     0
100
AcDbCircle
 10
17.822892014
 20
15.8990110627
 30
0.0
 40
0.1499999999999986
  0
CIRCLE
  5
37F
330
1F
100
AcDbEntity
  8
0
  6
HIDDEN
 62
     7
370
     0
100
AcDbCircle
 10
18.222892014
 20
15.8990110627
 30
0.0
 40
0.1499999999999986
  0
CIRCLE
  5
380
330
1F
100
AcDbEntity
  8
0
  6
HIDDEN
 62
     7
370
     0
100
AcDbCircle
 10
18.622892014
 20
15.8990110627
 30
0.0
 40
0.1499999999999986
  0
CIRCLE
  5
381
330
1F
100
AcDbEntity
  8
0
  6
HIDDEN
 62
     7
370
     0
100
AcDbCircle
 10
19.022892014
 20
15.8990110627
 30
0.0
 40
0.1499999999999986
  0
CIRCLE
  5
382
330
1F
100
AcDbEntity
  8
0
  6
HIDDEN
 62
     7
370
     0
100
AcDbCircle
 10
19.422892014
 20
15.8990110627
 30
0.0
 40
0.1499999999999986
  0
CIRCLE
  5
383
330
1F
100
AcDbEntity
  8
0
  6
HIDDEN
 62
     7
370
     0
100
AcDbCircle
 10
19.822892014
 20
15.8990110627
 30
0.0
 40
0.1499999999999986
  0
CIRCLE
  5
384
330
1F
100
AcDbEntity
  8
0
  6
HIDDEN
 62
     7
370
     0
100
AcDbCircle
 10
20.222892014
 20
15.8990110627
 30
0.0
 40
0.1499999999999986
  0
CIRCLE
  5
385
330
1F
100
AcDbEntity
  8
0
  6
HIDDEN
 62
     7
370
     0
100
AcDbCircle
 10
14.222892014
 20
15.4990110627
 30
0.0
 40
0.1500000000000021
  0
CIRCLE
  5
386
330
1F
100
AcDbEntity
  8
0
  6
HIDDEN
 62
     7
370
     0
100
AcDbCircle
 10
14.622892014
 20
15.4990110627
 30
0.0
 40
0.1500000000000021
  0
CIRCLE
  5
387
330
1F
100
AcDbEntity
  8
0
  6
HIDDEN
 62
     7
370
     0
100
AcDbCircle
 10
15.022892014
 20
15.4990110627
 30
0.0
 40
0.1500000000000021
  0
CIRCLE
  5
388
330
1F
100
AcDbEntity
  8
0
  6
HIDDEN
 62
     7
370
     0
100
AcDbCircle
 10
15.422892014
 20
15.4990110627
 30
0.0
 40
0.1500000000000021
  0
CIRCLE
  5
389
330
1F
100
AcDbEntity
  8
0
  6
HIDDEN
 62
     7
370
     0
100
AcDbCircle
 10
15.822892014
 20
15.4990110627
 30
0.0
 40
0.1500000000000021
  0
CIRCLE
  5
38A
330
1F
100
AcDbEntity
  8
0
  6
HIDDEN
 62
     7
370
     0
100
AcDbCircle
 10
16.222892014
 20
15.4990110627
 30
0.0
 40
0.1500000000000021
  0
CIRCLE
  5
38B
330
1F
100
AcDbEntity
  8
0
  6
HIDDEN
 62
     7
370
     0
100
AcDbCircle
 10
16.622892014
 20
15.4990110627
 30
0.0
 40
0.1500000000000021
  0
CIRCLE
  5
38C
330
1F
100
AcDbEntity
  8
0
  6
HIDDEN
 62
     7
370
     0
100
AcDbCircle
 10
17.022892014
 20
15.4990110627
 30
0.0
 40
0.1500000000000021
  0
CIRCLE
  5
38D
330
1F
100
AcDbEntity
  8
0
  6
HIDDEN
 62
     7
370
     0
100
AcDbCircle
 10
17.822892014
 20
15.4990110627
 30
0.0
 40
0.1500000000000021
  0
CIRCLE
  5
38E
330
1F
100
AcDbEntity
  8
0
  6
HIDDEN
 62
     7
370
     0
100
AcDbCircle
 10
18.222892014
 20
15.4990110627
 30
0.0
 40
0.1500000000000021
  0
CIRCLE
  5
38F
330
1F
100
AcDbEntity
  8
0
  6
HIDDEN
 62
     7
370
     0
100
AcDbCircle
 10
18.622892014
 20
15.4990110627
 30
0.0
 40
0.1500000000000021
  0
CIRCLE
  5
390
330
1F
100
AcDbEntity
  8
0
  6
HIDDEN
 62
     7
370
     0
100
AcDbCircle
 10
19.022892014
 20
15.4990110627
 30
0.0
 40
0.1500000000000021
  0
CIRCLE
  5
391
330
1F
100
AcDbEntity
  8
0
  6
HIDDEN
 62
     7
370
     0
100
AcDbCircle
 10
19.422892014
 20
15.4990110627
 30
0.0
 40
0.1500000000000021
  0
CIRCLE
  5
392
330
1F
100
AcDbEntity
  8
0
  6
HIDDEN
 62
     7
370
     0
100
AcDbCircle
 10
19.822892014
 20
15.4990110627
 30
0.0
 40
0.1500000000000021
  0
CIRCLE
  5
393
330
1F
100
AcDbEntity
  8
0
  6
HIDDEN
 62
     7
370
     0
100
AcDbCircle
 10
20.222892014
 20
15.4990110627
 30
0.0
 40
0.1500000000000021
  0
CIRCLE
  5
394
330
1F
100
AcDbEntity
  8
0
  6
HIDDEN
 62
     7
370
     0
100
AcDbCircle
 10
14.222892014
 20
15.0990110627
 30
0.0
 40
0.1499999999999986
  0
CIRCLE
  5
395
330
1F
100
AcDbEntity
  8
0
  6
HIDDEN
 62
     7
370
     0
100
AcDbCircle
 10
14.622892014
 20
15.0990110627
 30
0.0
 40
0.1499999999999986
  0
CIRCLE
  5
396
330
1F
100
AcDbEntity
  8
0
  6
HIDDEN
 62
     7
370
     0
100
AcDbCircle
 10
15.022892014
 20
15.0990110627
 30
0.0
 40
0.1499999999999986
  0
CIRCLE
  5
397
330
1F
100
AcDbEntity
  8
0
  6
HIDDEN
 62
     7
370
     0
100
AcDbCircle
 10
16.222892014
 20
15.0990110627
 30
0.0
 40
0.1499999999999986
  0
CIRCLE
  5
398
330
1F
100
AcDbEntity
  8
0
  6
HIDDEN
 62
     7
370
     0
100
AcDbCircle
 10
15.422892014
 20
15.0990110627
 30
0.0
 40
0.1499999999999986
  0
CIRCLE
  5
399
330
1F
100
AcDbEntity
  8
0
  6
HIDDEN
 62
     7
370
     0
100
AcDbCircle
 10
15.822892014
 20
15.0990110627
 30
0.0
 40
0.1499999999999986
  0
CIRCLE
  5
39A
330
1F
100
AcDbEntity
  8
0
  6
HIDDEN
 62
     7
370
     0
100
AcDbCircle
 10
20.222892014
 20
15.0990110627
 30
0.0
 40
0.1499999999999986
  0
CIRCLE
  5
39B
330
1F
100
AcDbEntity
  8
0
  6
HIDDEN
 62
     7
370
     0
100
AcDbCircle
 10
16.622892014
 20
15.0990110627
 30
0.0
 40
0.1499999999999986
  0
CIRCLE
  5
39C
330
1F
100
AcDbEntity
  8
0
  6
HIDDEN
 62
     7
370
     0
100
AcDbCircle
 10
17.022892014
 20
15.0990110627
 30
0.0
 40
0.1499999999999986
  0
CIRCLE
  5
39D
330
1F
100
AcDbEntity
  8
0
  6
HIDDEN
 62
     7
370
     0
100
AcDbCircle
 10
19.822892014
 20
15.0990110627
 30
0.0
 40
0.1499999999999986
  0
LINE
  5
39E
330
1F
100
AcDbEntity
  8
0
  6
DOT2
 62
     7
370
     0
100
AcDbLine
 10
14.5698019778
 20
10.4865106652
 30
0.0
 11
19.3759819967
 21
10.4865106652
 31
0.0
  0
LINE
  5
39F
330
1F
100
AcDbEntity
  8
0
  6
DOT2
 62
     7
370
     0
100
AcDbLine
 10
19.3759819967
 20
25.7115108791
 30
0.0
 11
14.5698019778
 21
25.7115108791
 31
0.0
  0
LINE
  5
3A0
330
1F
100
AcDbEntity
  8
0
  6
DOT2
 62
     7
370
     0
100
AcDbLine
 10
24.5853920942
 20
10.4865106652
 30
0.0
 11
24.5853920942
 21
25.7115108791
 31
0.0
  0
ARC
  5
3A1
330
1F
100
AcDbEntity
  8
0
  6
HIDDEN
 62
     7
370
     0
100
AcDbCircle
 10
23.335392014
 20
24.4615110627
 30
0.0
 40
2.000000000000002
100
AcDbArc
 50
270.0
 51
318.5903778907
  0
ARC
  5
3A2
330
1F
100
AcDbEntity
  8
0
  6
HIDDEN
 62
     7
370
     0
100
AcDbCircle
 10
23.335392014
 20
24.4615110627
 30
0.0
 40
2.0
100
AcDbArc
 50
141.3178125465
 51
270.0
  0
ARC
  5
3A3
330
1F
100
AcDbEntity
  8
0
  6
HIDDEN
 62
     7
370
     0
100
AcDbCircle
 10
10.610392014
 20
11.7365110627
 30
0.0
 40
1.999999999999999
100
AcDbArc
 50
321.3178125465
 51
128.6821874535
  0
ARC
  5
3A4
330
1F
100
AcDbEntity
  8
0
  6
HIDDEN
 62
     7
370
     0
100
AcDbCircle
 10
23.335392014
 20
11.7365110627
 30
0.0
 40
2.000000000000002
100
AcDbArc
 50
41.4096221093
 51
218.6821874535
  0
ARC
  5
3A5
330
1F
100
AcDbEntity
  8
0
  6
HIDDEN
 62
     7
370
     0
100
AcDbCircle
 10
10.610392014
 20
24.4615110627
 30
0.0
 40
2.000000000000001
100
AcDbArc
 50
270.0
 51
38.6821874535
  0
ARC
  5
3A6
330
1F
100
AcDbEntity
  8
0
  6
HIDDEN
 62
     7
370
     0
100
AcDbCircle
 10
10.610392014
 20
24.4615110627
 30
0.0
 40
1.999999999999997
100
AcDbArc
 50
231.3178125465
 51
270.0
  0
CIRCLE
  5
3A7
330
1F
100
AcDbEntity
  8
0
  6
HIDDEN
 62
     7
370
     0
100
AcDbCircle
 10
16.972892014
 20
18.0990110627
 30
0.0
 40
1.0
  0
LINE
  5
3A8
330
1F
100
AcDbEntity
  8
0
  6
HIDDEN
 62
     7
370
     0
100
AcDbLine
 10
15.5586784249
 20
22.3416516921
 30
0.0
 11
12.1888194708
 21
25.7115108791
 31
0.0
  0
ARC
  5
3A9
330
1F
100
AcDbEntity
  8
0
  6
HIDDEN
 62
     7
370
     0
100
AcDbCircle
 10
16.972892014
 20
23.7558653122
 30
0.0
 40
2.0
100
AcDbArc
 50
225.0
 51
315.0
  0
LINE
  5
3AA
330
1F
100
AcDbEntity
  8
0
  6
HIDDEN
 62
     7
370
     0
100
AcDbLine
 10
21.756964853
 20
25.7115108791
 30
0.0
 11
18.3871055496
 21
22.3416516921
 31
0.0
  0
LINE
  5
3AB
330
1F
100
AcDbEntity
  8
0
  6
HIDDEN
 62
     7
370
     0
100
AcDbLine
 10
21.2155326744
 20
19.5132246256
 30
0.0
 11
23.2159486049
 21
21.5136407307
 31
0.0
  0
LINE
  5
3AC
330
1F
100
AcDbEntity
  8
0
  6
HIDDEN
 62
     7
370
     0
100
AcDbLine
 10
23.7432625153
 20
22.0409544083
 30
0.0
 11
24.7496056845
 21
23.0472973446
 31
0.0
  0
ARC
  5
3AD
330
1F
100
AcDbEntity
  8
0
  6
HIDDEN
 62
     7
370
     0
100
AcDbCircle
 10
22.6297462634
 20
18.0990110627
 30
0.0
 40
2.000000000000001
100
AcDbArc
 50
135.0
 51
225.0
  0
LINE
  5
3AE
330
1F
100
AcDbEntity
  8
0
  6
HIDDEN
 62
     7
370
     0
100
AcDbLine
 10
24.7496056845
 20
13.1507246653
 30
0.0
 11
21.2155326744
 21
16.6847974426
 31
0.0
  0
LINE
  5
3AF
330
1F
100
AcDbEntity
  8
0
  6
HIDDEN
 62
     7
370
     0
100
AcDbLine
 10
18.3871055496
 20
13.8563705507
 30
0.0
 11
21.756964853
 21
10.4865106652
 31
0.0
  0
ARC
  5
3B0
330
1F
100
AcDbEntity
  8
0
  6
HIDDEN
 62
     7
370
     0
100
AcDbCircle
 10
16.972892014
 20
12.4421568132
 30
0.0
 40
2.000000000000001
100
AcDbArc
 50
45.0
 51
135.0
  0
LINE
  5
3B1
330
1F
100
AcDbEntity
  8
0
  6
HIDDEN
 62
     7
370
     0
100
AcDbLine
 10
12.1888194708
 20
10.4865106652
 30
0.0
 11
15.5586784249
 21
13.8563705507
 31
0.0
  0
LINE
  5
3B2
330
1F
100
AcDbEntity
  8
0
  6
HIDDEN
 62
     7
370
     0
100
AcDbLine
 10
12.7302513001
 20
16.6847974426
 30
0.0
 11
9.3603918803
 21
13.3149382557
 31
0.0
  0
ARC
  5
3B3
330
1F
100
AcDbEntity
  8
0
  6
HIDDEN
 62
     7
370
     0
100
AcDbCircle
 10
11.3160377645
 20
18.0990110627
 30
0.0
 40
2.000000000000002
100
AcDbArc
 50
315.0
 51
45.0
  0
LINE
  5
3B4
330
1F
100
AcDbEntity
  8
0
  6
HIDDEN
 62
     7
370
     0
100
AcDbLine
 10
9.3603918803
 20
22.8830837543
 30
0.0
 11
12.7302513001
 21
19.5132246256
 31
0.0
  0
CIRCLE
  5
3B5
330
1F
100
AcDbEntity
  8
0
  6
HIDDEN
 62
     7
370
     0
100
AcDbCircle
 10
10.610392014
 20
24.4615110627
 30
0.0
 40
1.333500000000001
  0
CIRCLE
  5
3B6
330
1F
100
AcDbEntity
  8
0
  6
HIDDEN
 62
     7
370
     0
100
AcDbCircle
 10
10.610392014
 20
11.7365110627
 30
0.0
 40
1.333499999999999
  0
CIRCLE
  5
3B7
330
1F
100
AcDbEntity
  8
0
  6
HIDDEN
 62
     7
370
     0
100
AcDbCircle
 10
23.335392014
 20
11.7365110627
 30
0.0
 40
1.333499999999999
  0
CIRCLE
  5
3B8
330
1F
100
AcDbEntity
  8
0
  6
HIDDEN
 62
     7
370
     0
100
AcDbCircle
 10
23.335392014
 20
24.4615110627
 30
0.0
 40
1.333500000000001
  0
MTEXT
  5
3BA
330
1F
100
AcDbEntity
  8
LAYOUT
 62
     7
100
AcDbMText
 10
6.4253525089
 20
28.6569677523
 30
0.0
 40
0.5291666667
 41
0.0
 71
     1
 72
     1
  1
A1 Corner
  7
SLDTEXTSTYLE0
 73
     1
 44
1.0
  0
LEADER
  5
3C4
330
1F
100
AcDbEntity
  8
LAYOUT
 62
     7
100
AcDbLeader
  3
SLDDIMSTYLE0
 76
     3
 10
12.1546136441
 20
25.1153250519
 30
0.0
 10
10.8099474662
 20
28.3920251322
 30
0.0
 10
9.9028046091
 20
28.3920251322
 30
0.0
  0
ENDSEC
  0
SECTION
  2
OBJECTS
  0
DICTIONARY
  5
C
330
0
100
AcDbDictionary
281
     1
  3
ACAD_GROUP
350
D
  3
ACAD_LAYOUT
350
1A
  3
ACAD_MLINESTYLE
350
17
  3
ACAD_PLOTSETTINGS
350
19
  3
ACAD_PLOTSTYLENAME
350
E
  3
ACAD_SCALELIST
350
47
  0
DICTIONARY
  5
D
102
{ACAD_REACTORS
330
C
102
}
330
C
100
AcDbDictionary
281
     1
  0
DICTIONARY
  5
1A
102
{ACAD_REACTORS
330
C
102
}
330
C
100
AcDbDictionary
281
     1
  3
Layout1
350
1E
  3
Layout2
350
26
  3
Model
350
22
  0
DICTIONARY
  5
17
102
{ACAD_REACTORS
330
C
102
}
330
C
100
AcDbDictionary
281
     1
  3
Standard
350
18
  0
DICTIONARY
  5
19
102
{ACAD_REACTORS
330
C
102
}
330
C
100
AcDbDictionary
281
     1
  0
ACDBDICTIONARYWDFLT
  5
E
102
{ACAD_REACTORS
330
C
102
}
330
C
100
AcDbDictionary
281
     1
  3
Normal
350
F
100
AcDbDictionaryWithDefault
340
F
  0
DICTIONARY
  5
47
102
{ACAD_REACTORS
330
C
102
}
330
C
100
AcDbDictionary
281
     1
  3
A0
350
48
  3
A1
350
49
  3
A2
350
4A
  3
A3
350
4B
  3
A4
350
4C
  3
A5
350
4D
  3
A6
350
4E
  3
A7
350
4F
  3
A8
350
50
  3
A9
350
51
  3
B0
350
52
  3
B1
350
53
  3
B2
350
54
  3
B3
350
55
  3
B4
350
56
  3
B5
350
57
  3
B6
350
58
  3
B7
350
59
  3
B8
350
5A
  3
B9
350
5B
  3
C0
350
5C
  3
C1
350
5D
  3
C2
350
5E
  3
C3
350
5F
  3
C4
350
60
  3
C5
350
61
  3
C6
350
62
  3
C7
350
63
  3
C8
350
64
  3
C9
350
65
  3
D0
350
66
  3
D1
350
67
  3
D2
350
68
  0
LAYOUT
  5
1E
102
{ACAD_REACTORS
330
1A
102
}
330
1A
100
AcDbPlotSettings
  1

  2
none_device
  4

  6

 40
0.0
 41
0.0
 42
0.0
 43
0.0
 44
0.0
 45
0.0
 46
0.0
 47
0.0
 48
0.0
 49
0.0
140
0.0
141
0.0
142
1.0
143
1.0
 70
   688
 72
     1
 73
     0
 74
     5
  7

 75
    16
147
1.0
148
0.0
149
0.0
100
AcDbLayout
  1
Layout1
 70
     1
 71
     1
 10
0.0
 20
0.0
 11
420.0
 21
297.0
 12
0.0
 22
0.0
 32
0.0
 14
1.0000000000E+20
 24
1.0000000000E+20
 34
1.0000000000E+20
 15
-1.0000000000E+20
 25
-1.0000000000E+20
 35
-1.0000000000E+20
146
0.0
 13
0.0
 23
0.0
 33
0.0
 16
1.0
 26
0.0
 36
0.0
 17
0.0
 27
1.0
 37
0.0
 76
     0
330
1B
  0
LAYOUT
  5
26
102
{ACAD_REACTORS
330
1A
102
}
330
1A
100
AcDbPlotSettings
  1

  2
none_device
  4

  6

 40
0.0
 41
0.0
 42
0.0
 43
0.0
 44
0.0
 45
0.0
 46
0.0
 47
0.0
 48
0.0
 49
0.0
140
0.0
141
0.0
142
1.0
143
1.0
 70
   688
 72
     1
 73
     0
 74
     5
  7

 75
    16
147
1.0
148
0.0
149
0.0
100
AcDbLayout
  1
Layout2
 70
     1
 71
     2
 10
0.0
 20
0.0
 11
0.0
 21
0.0
 12
0.0
 22
0.0
 32
0.0
 14
0.0
 24
0.0
 34
0.0
 15
0.0
 25
0.0
 35
0.0
146
0.0
 13
0.0
 23
0.0
 33
0.0
 16
1.0
 26
0.0
 36
0.0
 17
0.0
 27
1.0
 37
0.0
 76
     0
330
23
  0
LAYOUT
  5
22
102
{ACAD_REACTORS
330
1A
102
}
330
1A
100
AcDbPlotSettings
  1

  2
none_device
  4
Letter_(8.50_x_11.00_Inches)
  6

 40
6.35
 41
6.35
 42
6.35000508
 43
6.35000508
 44
215.9
 45
279.4
 46
0.0
 47
0.0
 48
0.0
 49
0.0
140
0.0
141
0.0
142
1.0
143
1.0
 70
  1712
 72
     1
 73
     0
 74
     0
  7

 75
     0
147
1.0
148
0.0
149
0.0
100
AcDbLayout
  1
Model
 70
     1
 71
     0
 10
0.0
 20
0.0
 11
39.9142857143
 21
30.8428571429
 12
0.0
 22
0.0
 32
0.0
 14
0.0
 24
0.0
 34
0.0
 15
39.9142857143
 25
30.8428571429
 35
0.0
146
0.0
 13
0.0
 23
0.0
 33
0.0
 16
1.0
 26
0.0
 36
0.0
 17
0.0
 27
1.0
 37
0.0
 76
     0
330
1F
331
29
  0
MLINESTYLE
  5
18
102
{ACAD_REACTORS
330
17
102
}
330
17
100
AcDbMlineStyle
  2
Standard
 70
     0
  3

 62
   256
 51
90.0
 52
90.0
 71
     2
 49
0.5
 62
   256
  6
BYLAYER
 49
-0.5
 62
   256
  6
BYLAYER
  0
ACDBPLACEHOLDER
  5
F
102
{ACAD_REACTORS
330
E
102
}
330
E
  0
SCALE
  5
48
102
{ACAD_REACTORS
330
47
102
}
330
47
100
AcDbScale
 70
     0
300
1:1
140
1.0
141
1.0
290
     1
  0
SCALE
  5
49
102
{ACAD_REACTORS
330
47
102
}
330
47
100
AcDbScale
 70
     0
300
1:2
140
1.0
141
2.0
290
     0
  0
SCALE
  5
4A
102
{ACAD_REACTORS
330
47
102
}
330
47
100
AcDbScale
 70
     0
300
1:4
140
1.0
141
4.0
290
     0
  0
SCALE
  5
4B
102
{ACAD_REACTORS
330
47
102
}
330
47
100
AcDbScale
 70
     0
300
1:5
140
1.0
141
5.0
290
     0
  0
SCALE
  5
4C
102
{ACAD_REACTORS
330
47
102
}
330
47
100
AcDbScale
 70
     0
300
1:8
140
1.0
141
8.0
290
     0
  0
SCALE
  5
4D
102
{ACAD_REACTORS
330
47
102
}
330
47
100
AcDbScale
 70
     0
300
1:10
140
1.0
141
10.0
290
     0
  0
SCALE
  5
4E
102
{ACAD_REACTORS
330
47
102
}
330
47
100
AcDbScale
 70
     0
300
1:16
140
1.0
141
16.0
290
     0
  0
SCALE
  5
4F
102
{ACAD_REACTORS
330
47
102
}
330
47
100
AcDbScale
 70
     0
300
1:20
140
1.0
141
20.0
290
     0
  0
SCALE
  5
50
102
{ACAD_REACTORS
330
47
102
}
330
47
100
AcDbScale
 70
     0
300
1:30
140
1.0
141
30.0
290
     0
  0
SCALE
  5
51
102
{ACAD_REACTORS
330
47
102
}
330
47
100
AcDbScale
 70
     0
300
1:40
140
1.0
141
40.0
290
     0
  0
SCALE
  5
52
102
{ACAD_REACTORS
330
47
102
}
330
47
100
AcDbScale
 70
     0
300
1:50
140
1.0
141
50.0
290
     0
  0
SCALE
  5
53
102
{ACAD_REACTORS
330
47
102
}
330
47
100
AcDbScale
 70
     0
300
1:100
140
1.0
141
100.0
290
     0
  0
SCALE
  5
54
102
{ACAD_REACTORS
330
47
102
}
330
47
100
AcDbScale
 70
     0
300
2:1
140
2.0
141
1.0
290
     0
  0
SCALE
  5
55
102
{ACAD_REACTORS
330
47
102
}
330
47
100
AcDbScale
 70
     0
300
4:1
140
4.0
141
1.0
290
     0
  0
SCALE
  5
56
102
{ACAD_REACTORS
330
47
102
}
330
47
100
AcDbScale
 70
     0
300
8:1
140
8.0
141
1.0
290
     0
  0
SCALE
  5
57
102
{ACAD_REACTORS
330
47
102
}
330
47
100
AcDbScale
 70
     0
300
10:1
140
10.0
141
1.0
290
     0
  0
SCALE
  5
58
102
{ACAD_REACTORS
330
47
102
}
330
47
100
AcDbScale
 70
     0
300
100:1
140
100.0
141
1.0
290
     0
  0
SCALE
  5
59
102
{ACAD_REACTORS
330
47
102
}
330
47
100
AcDbScale
 70
     0
300
1/128" = 1'-0"
140
0.0078125
141
12.0
290
     0
  0
SCALE
  5
5A
102
{ACAD_REACTORS
330
47
102
}
330
47
100
AcDbScale
 70
     0
300
1/64" = 1'-0"
140
0.015625
141
12.0
290
     0
  0
SCALE
  5
5B
102
{ACAD_REACTORS
330
47
102
}
330
47
100
AcDbScale
 70
     0
300
1/32" = 1'-0"
140
0.03125
141
12.0
290
     0
  0
SCALE
  5
5C
102
{ACAD_REACTORS
330
47
102
}
330
47
100
AcDbScale
 70
     0
300
1/16" = 1'-0"
140
0.0625
141
12.0
290
     0
  0
SCALE
  5
5D
102
{ACAD_REACTORS
330
47
102
}
330
47
100
AcDbScale
 70
     0
300
3/32" = 1'-0"
140
0.09375
141
12.0
290
     0
  0
SCALE
  5
5E
102
{ACAD_REACTORS
330
47
102
}
330
47
100
AcDbScale
 70
     0
300
1/8" = 1'-0"
140
0.125
141
12.0
290
     0
  0
SCALE
  5
5F
102
{ACAD_REACTORS
330
47
102
}
330
47
100
AcDbScale
 70
     0
300
3/16" = 1'-0"
140
0.1875
141
12.0
290
     0
  0
SCALE
  5
60
102
{ACAD_REACTORS
330
47
102
}
330
47
100
AcDbScale
 70
     0
300
1/4" = 1'-0"
140
0.25
141
12.0
290
     0
  0
SCALE
  5
61
102
{ACAD_REACTORS
330
47
102
}
330
47
100
AcDbScale
 70
     0
300
3/8" = 1'-0"
140
0.375
141
12.0
290
     0
  0
SCALE
  5
62
102
{ACAD_REACTORS
330
47
102
}
330
47
100
AcDbScale
 70
     0
300
1/2" = 1'-0"
140
0.5
141
12.0
290
     0
  0
SCALE
  5
63
102
{ACAD_REACTORS
330
47
102
}
330
47
100
AcDbScale
 70
     0
300
3/4" = 1'-0"
140
0.75
141
12.0
290
     0
  0
SCALE
  5
64
102
{ACAD_REACTORS
330
47
102
}
330
47
100
AcDbScale
 70
     0
300
1" = 1'-0"
140
1.0
141
12.0
290
     0
  0
SCALE
  5
65
102
{ACAD_REACTORS
330
47
102
}
330
47
100
AcDbScale
 70
     0
300
1-1/2" = 1'-0"
140
1.5
141
12.0
290
     0
  0
SCALE
  5
66
102
{ACAD_REACTORS
330
47
102
}
330
47
100
AcDbScale
 70
     0
300
3" = 1'-0"
140
3.0
141
12.0
290
     0
  0
SCALE
  5
67
102
{ACAD_REACTORS
330
47
102
}
330
47
100
AcDbScale
 70
     0
300
6" = 1'-0"
140
6.0
141
12.0
290
     0
  0
SCALE
  5
68
102
{ACAD_REACTORS
330
47
102
}
330
47
100
AcDbScale
 70
     0
300
1'-0" = 1'-0"
140
12.0
141
12.0
290
     0
  0
ENDSEC
  0
EOF
