  0
SECTION
  2
HEADER
  9
$ACADVER
  1
AC1015
  9
$ACADMAINTVER
 70
     6
  9
$DWGCODEPAGE
  3
ANSI_1252
  9
$INSBASE
 10
0.0
 20
0.0
 30
0.0
  9
$EXTMIN
 10
0.0
 20
0.0
 30
0.0
  9
$EXTMAX
 10
93.1333333333
 20
71.9666666667
 30
0.0
  9
$LIMMIN
 10
0.0
 20
0.0
  9
$LIMMAX
 10
93.1333333333
 20
71.9666666667
  9
$ORTHOMODE
 70
     0
  9
$REGENMODE
 70
     1
  9
$FILLMODE
 70
     1
  9
$QTEXTMODE
 70
     0
  9
$MIRRTEXT
 70
     1
  9
$LTSCALE
 40
0.3333333333
  9
$ATTMODE
 70
     1
  9
$TEXTSIZE
 40
1.0583333333
  9
$TRACEWID
 40
1.0
  9
$TEXTSTYLE
  7
Standard
  9
$CLAYER
  8
0
  9
$CELTYPE
  6
ByLayer
  9
$CECOLOR
 62
   256
  9
$CELTSCALE
 40
1.0
  9
$DISPSILH
 70
     0
  9
$DIMSCALE
 40
1.0
  9
$DIMASZ
 40
0.7704956055
  9
$DIMEXO
 40
0.1666666667
  9
$DIMDLI
 40
3.75
  9
$DIMRND
 40
0.0
  9
$DIMDLE
 40
0.0
  9
$DIMEXE
 40
0.5
  9
$DIMTP
 40
0.0
  9
$DIMTM
 40
0.0
  9
$DIMTXT
 40
1.0583333333
  9
$DIMCEN
 40
2.5
  9
$DIMTSZ
 40
0.0
  9
$DIMTOL
 70
     0
  9
$DIMLIM
 70
     0
  9
$DIMTIH
 70
     1
  9
$DIMTOH
 70
     1
  9
$DIMSE1
 70
     0
  9
$DIMSE2
 70
     0
  9
$DIMTAD
 70
     0
  9
$DIMZIN
 70
     1
  9
$DIMBLK
  1

  9
$DIMASO
 70
     1
  9
$DIMSHO
 70
     1
  9
$DIMPOST
  1

  9
$DIMAPOST
  1

  9
$DIMALT
 70
     0
  9
$DIMALTD
 70
     3
  9
$DIMALTF
 40
0.0393700787
  9
$DIMLFAC
 40
1.0
  9
$DIMTOFL
 70
     1
  9
$DIMTVP
 40
0.0
  9
$DIMTIX
 70
     0
  9
$DIMSOXD
 70
     0
  9
$DIMSAH
 70
     0
  9
$DIMBLK1
  1

  9
$DIMBLK2
  1

  9
$DIMSTYLE
  2
ISO-25
  9
$DIMCLRD
 70
     0
  9
$DIMCLRE
 70
     0
  9
$DIMCLRT
 70
     0
  9
$DIMTFAC
 40
1.0
  9
$DIMGAP
 40
0.508
  9
$DIMJUST
 70
     0
  9
$DIMSD1
 70
     0
  9
$DIMSD2
 70
     0
  9
$DIMTOLJ
 70
     0
  9
$DIMTZIN
 70
     1
  9
$DIMALTZ
 70
     0
  9
$DIMALTTZ
 70
     0
  9
$DIMUPT
 70
     0
  9
$DIMDEC
 70
     3
  9
$DIMTDEC
 70
     3
  9
$DIMALTU
 70
     2
  9
$DIMALTTD
 70
     3
  9
$DIMTXSTY
  7
Standard
  9
$DIMAUNIT
 70
     0
  9
$DIMADEC
 70
     3
  9
$DIMALTRND
 40
0.0
  9
$DIMAZIN
 70
     0
  9
$DIMDSEP
 70
    44
  9
$DIMATFIT
 70
     3
  9
$DIMFRAC
 70
     0
  9
$DIMLDRBLK
  1

  9
$DIMLUNIT
 70
     2
  9
$DIMLWD
 70
    -2
  9
$DIMLWE
 70
    -2
  9
$DIMTMOVE
 70
     0
  9
$LUNITS
 70
     2
  9
$LUPREC
 70
     4
  9
$SKETCHINC
 40
1.0
  9
$FILLETRAD
 40
10.0
  9
$AUNITS
 70
     0
  9
$AUPREC
 70
     0
  9
$MENU
  1
.
  9
$ELEVATION
 40
0.0
  9
$PELEVATION
 40
0.0
  9
$THICKNESS
 40
0.0
  9
$LIMCHECK
 70
     0
  9
$CHAMFERA
 40
0.0
  9
$CHAMFERB
 40
0.0
  9
$CHAMFERC
 40
0.0
  9
$CHAMFERD
 40
0.0
  9
$SKPOLY
 70
     0
  9
$TDCREATE
 40
2457310.450892662
  9
$TDUCREATE
 40
2457310.659225995
  9
$TDUPDATE
 40
2457310.450895336
  9
$TDUUPDATE
 40
2457310.659228669
  9
$TDINDWG
 40
0.0000000116
  9
$TDUSRTIMER
 40
0.0000000116
  9
$USRTIMER
 70
     1
  9
$ANGBASE
 50
0.0
  9
$ANGDIR
 70
     0
  9
$PDMODE
 70
     0
  9
$PDSIZE
 40
-1.0
  9
$PLINEWID
 40
0.0
  9
$SPLFRAME
 70
     0
  9
$SPLINETYPE
 70
     6
  9
$SPLINESEGS
 70
     8
  9
$HANDSEED
  5
262
  9
$SURFTAB1
 70
     6
  9
$SURFTAB2
 70
     6
  9
$SURFTYPE
 70
     6
  9
$SURFU
 70
     6
  9
$SURFV
 70
     6
  9
$UCSBASE
  2

  9
$UCSNAME
  2

  9
$UCSORG
 10
0.0
 20
0.0
 30
0.0
  9
$UCSXDIR
 10
1.0
 20
0.0
 30
0.0
  9
$UCSYDIR
 10
0.0
 20
1.0
 30
0.0
  9
$UCSORTHOREF
  2

  9
$UCSORTHOVIEW
 70
     0
  9
$UCSORGTOP
 10
0.0
 20
0.0
 30
0.0
  9
$UCSORGBOTTOM
 10
0.0
 20
0.0
 30
0.0
  9
$UCSORGLEFT
 10
0.0
 20
0.0
 30
0.0
  9
$UCSORGRIGHT
 10
0.0
 20
0.0
 30
0.0
  9
$UCSORGFRONT
 10
0.0
 20
0.0
 30
0.0
  9
$UCSORGBACK
 10
0.0
 20
0.0
 30
0.0
  9
$PUCSBASE
  2

  9
$PUCSNAME
  2

  9
$PUCSORG
 10
0.0
 20
0.0
 30
0.0
  9
$PUCSXDIR
 10
1.0
 20
0.0
 30
0.0
  9
$PUCSYDIR
 10
0.0
 20
1.0
 30
0.0
  9
$PUCSORTHOREF
  2

  9
$PUCSORTHOVIEW
 70
     0
  9
$PUCSORGTOP
 10
0.0
 20
0.0
 30
0.0
  9
$PUCSORGBOTTOM
 10
0.0
 20
0.0
 30
0.0
  9
$PUCSORGLEFT
 10
0.0
 20
0.0
 30
0.0
  9
$PUCSORGRIGHT
 10
0.0
 20
0.0
 30
0.0
  9
$PUCSORGFRONT
 10
0.0
 20
0.0
 30
0.0
  9
$PUCSORGBACK
 10
0.0
 20
0.0
 30
0.0
  9
$USERI1
 70
     0
  9
$USERI2
 70
     0
  9
$USERI3
 70
     0
  9
$USERI4
 70
     0
  9
$USERI5
 70
     0
  9
$USERR1
 40
0.0
  9
$USERR2
 40
0.0
  9
$USERR3
 40
0.0
  9
$USERR4
 40
0.0
  9
$USERR5
 40
0.0
  9
$WORLDVIEW
 70
     1
  9
$SHADEDGE
 70
     3
  9
$SHADEDIF
 70
    70
  9
$TILEMODE
 70
     1
  9
$MAXACTVP
 70
    64
  9
$PINSBASE
 10
0.0
 20
0.0
 30
0.0
  9
$PLIMCHECK
 70
     0
  9
$PEXTMIN
 10
1.0000000000E+20
 20
1.0000000000E+20
 30
1.0000000000E+20
  9
$PEXTMAX
 10
-1.0000000000E+20
 20
-1.0000000000E+20
 30
-1.0000000000E+20
  9
$PLIMMIN
 10
0.0
 20
0.0
  9
$PLIMMAX
 10
420.0
 20
297.0
  9
$UNITMODE
 70
     0
  9
$VISRETAIN
 70
     1
  9
$PLINEGEN
 70
     0
  9
$PSLTSCALE
 70
     1
  9
$TREEDEPTH
 70
  3020
  9
$CMLSTYLE
  2
Standard
  9
$CMLJUST
 70
     0
  9
$CMLSCALE
 40
20.0
  9
$PROXYGRAPHICS
 70
     1
  9
$MEASUREMENT
 70
     1
  9
$CELWEIGHT
370
    -1
  9
$ENDCAPS
280
     0
  9
$JOINSTYLE
280
     0
  9
$LWDISPLAY
290
     1
  9
$INSUNITS
 70
     4
  9
$HYPERLINKBASE
  1

  9
$STYLESHEET
  1

  9
$XEDIT
290
     1
  9
$CEPSNTYPE
380
     0
  9
$PSTYLEMODE
290
     1
  9
$FINGERPRINTGUID
  2
{3DF93F7F-97B0-4142-8923-F0C0AC8E2465}
  9
$VERSIONGUID
  2
{FAEB1C32-E019-11D5-929B-00C0DF256EC4}
  9
$EXTNAMES
290
     1
  9
$PSVPSCALE
 40
0.0
  9
$OLESTARTUP
290
     0
  0
ENDSEC
  0
SECTION
  2
CLASSES
  0
CLASS
  1
ACDBDICTIONARYWDFLT
  2
AcDbDictionaryWithDefault
  3
ObjectDBX Classes
 90
        0
280
     0
281
     0
  0
CLASS
  1
VISUALSTYLE
  2
AcDbVisualStyle
  3
ObjectDBX Classes
 90
     4095
280
     0
281
     0
  0
CLASS
  1
MATERIAL
  2
AcDbMaterial
  3
ObjectDBX Classes
 90
     1153
280
     0
281
     0
  0
CLASS
  1
SCALE
  2
AcDbScale
  3
ObjectDBX Classes
 90
     1153
280
     0
281
     0
  0
CLASS
  1
SUN
  2
AcDbSun
  3
SCENEOE
 90
     1153
280
     0
281
     0
  0
CLASS
  1
ACDBPLACEHOLDER
  2
AcDbPlaceHolder
  3
ObjectDBX Classes
 90
        0
280
     0
281
     0
  0
CLASS
  1
LAYOUT
  2
AcDbLayout
  3
ObjectDBX Classes
 90
        0
280
     0
281
     0
  0
ENDSEC
  0
SECTION
  2
TABLES
  0
TABLE
  2
VPORT
  5
8
330
0
100
AcDbSymbolTable
 70
     1
  0
VPORT
  5
29
330
8
100
AcDbSymbolTableRecord
100
AcDbViewportTableRecord
  2
*Active
 70
     0
 10
0.0
 20
0.0
 11
1.0
 21
1.0
 12
46.5666666667
 22
35.9833333333
 13
0.0
 23
0.0
 14
10.0
 24
10.0
 15
10.0
 25
10.0
 16
0.0
 26
0.0
 36
1.0
 17
0.0
 27
0.0
 37
0.0
 40
71.9666666667
 41
1.2941176471
 42
50.0
 43
0.0
 44
0.0
 50
0.0
 51
0.0
 71
     0
 72
  2000
 73
     1
 74
     3
 75
     0
 76
     0
 77
     0
 78
     0
281
     0
 65
     1
110
0.0
120
0.0
130
0.0
111
1.0
121
0.0
131
0.0
112
0.0
122
1.0
132
0.0
 79
     0
146
0.0
  0
ENDTAB
  0
TABLE
  2
LTYPE
  5
5
330
0
100
AcDbSymbolTable
 70
     6
  0
LTYPE
  5
14
330
5
100
AcDbSymbolTableRecord
100
AcDbLinetypeTableRecord
  2
ByBlock
 70
     0
  3

 72
    65
 73
     0
 40
0.0
  0
LTYPE
  5
15
330
5
100
AcDbSymbolTableRecord
100
AcDbLinetypeTableRecord
  2
ByLayer
 70
     0
  3

 72
    65
 73
     0
 40
0.0
  0
LTYPE
  5
16
330
5
100
AcDbSymbolTableRecord
100
AcDbLinetypeTableRecord
  2
Continuous
 70
     0
  3
Solid line
 72
    65
 73
     0
 40
0.0
  0
LTYPE
  5
6A
330
5
100
AcDbSymbolTableRecord
100
AcDbLinetypeTableRecord
  2
HIDDEN
 70
     0
  3
Hidden __ __ __ __ __ __ __ __ __ __ __ __ __ __
 72
    65
 73
     2
 40
1.905
 49
1.27
 74
     0
 49
-0.635
 74
     0
  0
LTYPE
  5
6B
330
5
100
AcDbSymbolTableRecord
100
AcDbLinetypeTableRecord
  2
PHANTOM
 70
     0
  3
Phantom ______  __  __  ______  __  __  ______
 72
    65
 73
     6
 40
12.7
 49
6.35
 74
     0
 49
-1.27
 74
     0
 49
1.27
 74
     0
 49
-1.27
 74
     0
 49
1.27
 74
     0
 49
-1.27
 74
     0
  0
LTYPE
  5
6C
330
5
100
AcDbSymbolTableRecord
100
AcDbLinetypeTableRecord
  2
CENTER
 70
     0
  3
Center ____ _ ____ _ ____ _ ____ _ ____ _ ____
 72
    65
 73
     4
 40
10.16
 49
6.35
 74
     0
 49
-1.27
 74
     0
 49
1.27
 74
     0
 49
-1.27
 74
     0
  0
LTYPE
  5
6D
330
5
100
AcDbSymbolTableRecord
100
AcDbLinetypeTableRecord
  2
CENTERX2
 70
     0
  3
Center (2x) ________  __  ________  __  _____
 72
    65
 73
     4
 40
20.32
 49
12.7
 74
     0
 49
-2.54
 74
     0
 49
2.54
 74
     0
 49
-2.54
 74
     0
  0
LTYPE
  5
6E
330
5
100
AcDbSymbolTableRecord
100
AcDbLinetypeTableRecord
  2
DOT2
 70
     0
  3
Dot (.5x) ........................................
 72
    65
 73
     2
 40
0.635
 49
0.0
 74
     0
 49
-0.635
 74
     0
  0
ENDTAB
  0
TABLE
  2
LAYER
  5
2
330
0
100
AcDbSymbolTable
 70
     6
  0
LAYER
  5
10
330
2
100
AcDbSymbolTableRecord
100
AcDbLayerTableRecord
  2
0
 70
     0
 62
     7
  6
Continuous
370
    -3
390
F
  0
LAYER
  5
6F
330
2
100
AcDbSymbolTableRecord
100
AcDbLayerTableRecord
  2
FORMAT
 70
     0
 62
     7
  6
Continuous
370
    -3
390
F
  0
LAYER
  5
70
330
2
100
AcDbSymbolTableRecord
100
AcDbLayerTableRecord
  2
NONE
 70
     0
 62
   179
  6
Continuous
370
    -3
390
F
  0
LAYER
  5
71
330
2
100
AcDbSymbolTableRecord
100
AcDbLayerTableRecord
  2
DIMENSION
 70
     0
 62
   179
  6
Continuous
370
    -3
390
F
  0
LAYER
  5
72
330
2
100
AcDbSymbolTableRecord
100
AcDbLayerTableRecord
  2
PAGE_FRAME
 70
     0
 62
   179
  6
Continuous
370
    -3
390
F
  0
LAYER
  5
73
330
2
100
AcDbSymbolTableRecord
100
AcDbLayerTableRecord
  2
LAYOUT
 70
     0
 62
   179
  6
Continuous
370
    -3
390
F
  0
ENDTAB
  0
TABLE
  2
STYLE
  5
3
330
0
100
AcDbSymbolTable
 70
     1
  0
STYLE
  5
11
330
3
100
AcDbSymbolTableRecord
100
AcDbTextStyleTableRecord
  2
Standard
 70
     0
 40
0.0
 41
1.0
 50
0.0
 71
     0
 42
1.0583333333
  3
txt
  4

  0
ENDTAB
  0
TABLE
  2
VIEW
  5
6
330
0
100
AcDbSymbolTable
 70
     0
  0
ENDTAB
  0
TABLE
  2
UCS
  5
7
330
0
100
AcDbSymbolTable
 70
     0
  0
ENDTAB
  0
TABLE
  2
APPID
  5
9
330
0
100
AcDbSymbolTable
 70
     1
  0
APPID
  5
12
330
9
100
AcDbSymbolTableRecord
100
AcDbRegAppTableRecord
  2
ACAD
 70
     0
  0
ENDTAB
  0
TABLE
  2
DIMSTYLE
  5
A
330
0
100
AcDbSymbolTable
 70
     1
100
AcDbDimStyleTable
  0
DIMSTYLE
105
27
330
A
100
AcDbSymbolTableRecord
100
AcDbDimStyleTableRecord
  2
ISO-25
 70
     0
 41
2.5
 42
0.625
 43
3.75
 44
1.25
 73
     0
 74
     0
 77
     1
 78
     8
140
2.5
141
2.5
143
0.0393700787
147
0.625
171
     3
172
     1
178
     0
271
     2
272
     2
274
     3
278
    44
283
     0
284
     8
340
11
  0
ENDTAB
  0
TABLE
  2
BLOCK_RECORD
  5
1
330
0
100
AcDbSymbolTable
 70
     1
  0
BLOCK_RECORD
  5
1F
330
1
100
AcDbSymbolTableRecord
100
AcDbBlockTableRecord
  2
*Model_Space
340
22
  0
BLOCK_RECORD
  5
1B
330
1
100
AcDbSymbolTableRecord
100
AcDbBlockTableRecord
  2
*Paper_Space
340
1E
  0
BLOCK_RECORD
  5
23
330
1
100
AcDbSymbolTableRecord
100
AcDbBlockTableRecord
  2
*Paper_Space0
340
26
  0
ENDTAB
  0
ENDSEC
  0
SECTION
  2
BLOCKS
  0
BLOCK
  5
20
330
1F
100
AcDbEntity
  8
0
100
AcDbBlockBegin
  2
*Model_Space
 70
     0
 10
0.0
 20
0.0
 30
0.0
  3
*Model_Space
  1
*Model_Space
  0
ENDBLK
  5
21
330
1F
100
AcDbEntity
  8
0
100
AcDbBlockEnd
  0
BLOCK
  5
1C
330
1B
100
AcDbEntity
 67
     1
  8
0
100
AcDbBlockBegin
  2
*Paper_Space
 70
     0
 10
0.0
 20
0.0
 30
0.0
  3
*Paper_Space
  1
*Paper_Space
  0
ENDBLK
  5
1D
330
1B
100
AcDbEntity
 67
     1
  8
0
100
AcDbBlockEnd
  0
BLOCK
  5
24
330
23
100
AcDbEntity
  8
0
100
AcDbBlockBegin
  2
*Paper_Space0
 70
     0
 10
0.0
 20
0.0
 30
0.0
  3
*Paper_Space0
  1
*Paper_Space0
  0
ENDBLK
  5
25
330
23
100
AcDbEntity
  8
0
100
AcDbBlockEnd
  0
ENDSEC
  0
SECTION
  2
ENTITIES
  0
LINE
  5
74
330
1F
100
AcDbEntity
  8
0
  6
Continuous
 62
     7
370
    15
100
AcDbLine
 10
39.1955710324
 20
46.1721248034
 30
0.0
 11
40.4455707717
 21
46.1721248034
 31
0.0
  0
LINE
  5
75
330
1F
100
AcDbEntity
  8
0
  6
Continuous
 62
     7
370
    15
100
AcDbLine
 10
39.1955710324
 20
46.4721247594
 30
0.0
 11
39.1955710324
 21
46.1721248034
 31
0.0
  0
LINE
  5
76
330
1F
100
AcDbEntity
  8
0
  6
Continuous
 62
     7
370
    15
100
AcDbLine
 10
40.4455707717
 20
46.4721247594
 30
0.0
 11
39.1955710324
 21
46.4721247594
 31
0.0
  0
LINE
  5
77
330
1F
100
AcDbEntity
  8
0
  6
Continuous
 62
     7
370
    15
100
AcDbLine
 10
40.4455707717
 20
46.1721248034
 30
0.0
 11
40.4455707717
 21
46.4721247594
 31
0.0
  0
LINE
  5
78
330
1F
100
AcDbEntity
  8
0
  6
Continuous
 62
     7
370
    15
100
AcDbLine
 10
53.6705706577
 20
33.2471248734
 30
0.0
 11
53.3705707016
 21
33.2471248734
 31
0.0
  0
LINE
  5
79
330
1F
100
AcDbEntity
  8
0
  6
Continuous
 62
     7
370
    15
100
AcDbLine
 10
53.6705706577
 20
31.9971246685
 30
0.0
 11
53.6705706577
 21
33.2471248734
 31
0.0
  0
LINE
  5
7A
330
1F
100
AcDbEntity
  8
0
  6
Continuous
 62
     7
370
    15
100
AcDbLine
 10
53.3705707016
 20
31.9971246685
 30
0.0
 11
53.6705706577
 21
31.9971246685
 31
0.0
  0
LINE
  5
7B
330
1F
100
AcDbEntity
  8
0
  6
Continuous
 62
     7
370
    15
100
AcDbLine
 10
53.3705707016
 20
33.2471248734
 30
0.0
 11
53.3705707016
 21
31.9971246685
 31
0.0
  0
LINE
  5
7C
330
1F
100
AcDbEntity
  8
0
  6
Continuous
 62
     7
370
    15
100
AcDbLine
 10
41.3705705973
 20
47.3971250508
 30
0.0
 11
41.670571019
 21
47.3971250508
 31
0.0
  0
LINE
  5
7D
330
1F
100
AcDbEntity
  8
0
  6
Continuous
 62
     7
370
    15
100
AcDbLine
 10
41.3705705973
 20
48.6471252556
 30
0.0
 11
41.3705705973
 21
47.3971250508
 31
0.0
  0
LINE
  5
7E
330
1F
100
AcDbEntity
  8
0
  6
Continuous
 62
     7
370
    15
100
AcDbLine
 10
41.670571019
 20
48.6471252556
 30
0.0
 11
41.3705705973
 21
48.6471252556
 31
0.0
  0
LINE
  5
7F
330
1F
100
AcDbEntity
  8
0
  6
Continuous
 62
     7
370
    15
100
AcDbLine
 10
41.670571019
 20
47.3971250508
 30
0.0
 11
41.670571019
 21
48.6471252556
 31
0.0
  0
LINE
  5
80
330
1F
100
AcDbEntity
  8
0
  6
Continuous
 62
     7
370
    15
100
AcDbLine
 10
41.8705706793
 20
47.3971250508
 30
0.0
 11
42.1705706353
 21
47.3971250508
 31
0.0
  0
LINE
  5
81
330
1F
100
AcDbEntity
  8
0
  6
Continuous
 62
     7
370
    15
100
AcDbLine
 10
41.8705706793
 20
48.6471252556
 30
0.0
 11
41.8705706793
 21
47.3971250508
 31
0.0
  0
LINE
  5
82
330
1F
100
AcDbEntity
  8
0
  6
Continuous
 62
     7
370
    15
100
AcDbLine
 10
42.1705706353
 20
48.6471252556
 30
0.0
 11
41.8705706793
 21
48.6471252556
 31
0.0
  0
LINE
  5
83
330
1F
100
AcDbEntity
  8
0
  6
Continuous
 62
     7
370
    15
100
AcDbLine
 10
42.1705706353
 20
47.3971250508
 30
0.0
 11
42.1705706353
 21
48.6471252556
 31
0.0
  0
LINE
  5
84
330
1F
100
AcDbEntity
  8
0
  6
Continuous
 62
     7
370
    15
100
AcDbLine
 10
42.3705707612
 20
47.3971250508
 30
0.0
 11
42.6705707173
 21
47.3971250508
 31
0.0
  0
LINE
  5
85
330
1F
100
AcDbEntity
  8
0
  6
Continuous
 62
     7
370
    15
100
AcDbLine
 10
42.3705707612
 20
48.6471252556
 30
0.0
 11
42.3705707612
 21
47.3971250508
 31
0.0
  0
LINE
  5
86
330
1F
100
AcDbEntity
  8
0
  6
Continuous
 62
     7
370
    15
100
AcDbLine
 10
42.6705707173
 20
48.6471252556
 30
0.0
 11
42.3705707612
 21
48.6471252556
 31
0.0
  0
LINE
  5
87
330
1F
100
AcDbEntity
  8
0
  6
Continuous
 62
     7
370
    15
100
AcDbLine
 10
42.6705707173
 20
47.3971250508
 30
0.0
 11
42.6705707173
 21
48.6471252556
 31
0.0
  0
LINE
  5
88
330
1F
100
AcDbEntity
  8
0
  6
Continuous
 62
     7
370
    15
100
AcDbLine
 10
42.8705708432
 20
47.3971250508
 30
0.0
 11
43.1705707992
 21
47.3971250508
 31
0.0
  0
LINE
  5
89
330
1F
100
AcDbEntity
  8
0
  6
Continuous
 62
     7
370
    15
100
AcDbLine
 10
42.8705708432
 20
48.6471252556
 30
0.0
 11
42.8705708432
 21
47.3971250508
 31
0.0
  0
LINE
  5
8A
330
1F
100
AcDbEntity
  8
0
  6
Continuous
 62
     7
370
    15
100
AcDbLine
 10
43.1705707992
 20
48.6471252556
 30
0.0
 11
42.8705708432
 21
48.6471252556
 31
0.0
  0
LINE
  5
8B
330
1F
100
AcDbEntity
  8
0
  6
Continuous
 62
     7
370
    15
100
AcDbLine
 10
43.1705707992
 20
47.3971250508
 30
0.0
 11
43.1705707992
 21
48.6471252556
 31
0.0
  0
LINE
  5
8C
330
1F
100
AcDbEntity
  8
0
  6
Continuous
 62
     7
370
    15
100
AcDbLine
 10
43.3705709252
 20
47.3971250508
 30
0.0
 11
43.6705708812
 21
47.3971250508
 31
0.0
  0
LINE
  5
8D
330
1F
100
AcDbEntity
  8
0
  6
Continuous
 62
     7
370
    15
100
AcDbLine
 10
43.3705709252
 20
48.6471252556
 30
0.0
 11
43.3705709252
 21
47.3971250508
 31
0.0
  0
LINE
  5
8E
330
1F
100
AcDbEntity
  8
0
  6
Continuous
 62
     7
370
    15
100
AcDbLine
 10
43.6705708812
 20
48.6471252556
 30
0.0
 11
43.3705709252
 21
48.6471252556
 31
0.0
  0
LINE
  5
8F
330
1F
100
AcDbEntity
  8
0
  6
Continuous
 62
     7
370
    15
100
AcDbLine
 10
43.6705708812
 20
47.3971250508
 30
0.0
 11
43.6705708812
 21
48.6471252556
 31
0.0
  0
LINE
  5
90
330
1F
100
AcDbEntity
  8
0
  6
Continuous
 62
     7
370
    15
100
AcDbLine
 10
43.8705707743
 20
47.3971250508
 30
0.0
 11
44.1705707303
 21
47.3971250508
 31
0.0
  0
LINE
  5
91
330
1F
100
AcDbEntity
  8
0
  6
Continuous
 62
     7
370
    15
100
AcDbLine
 10
43.8705707743
 20
48.6471252556
 30
0.0
 11
43.8705707743
 21
47.3971250508
 31
0.0
  0
LINE
  5
92
330
1F
100
AcDbEntity
  8
0
  6
Continuous
 62
     7
370
    15
100
AcDbLine
 10
44.1705707303
 20
48.6471252556
 30
0.0
 11
43.8705707743
 21
48.6471252556
 31
0.0
  0
LINE
  5
93
330
1F
100
AcDbEntity
  8
0
  6
Continuous
 62
     7
370
    15
100
AcDbLine
 10
44.1705707303
 20
47.3971250508
 30
0.0
 11
44.1705707303
 21
48.6471252556
 31
0.0
  0
LINE
  5
94
330
1F
100
AcDbEntity
  8
0
  6
Continuous
 62
     7
370
    15
100
AcDbLine
 10
44.3705708562
 20
47.3971250508
 30
0.0
 11
44.6705708123
 21
47.3971250508
 31
0.0
  0
LINE
  5
95
330
1F
100
AcDbEntity
  8
0
  6
Continuous
 62
     7
370
    15
100
AcDbLine
 10
44.3705708562
 20
48.6471252556
 30
0.0
 11
44.3705708562
 21
47.3971250508
 31
0.0
  0
LINE
  5
96
330
1F
100
AcDbEntity
  8
0
  6
Continuous
 62
     7
370
    15
100
AcDbLine
 10
44.6705708123
 20
48.6471252556
 30
0.0
 11
44.3705708562
 21
48.6471252556
 31
0.0
  0
LINE
  5
97
330
1F
100
AcDbEntity
  8
0
  6
Continuous
 62
     7
370
    15
100
AcDbLine
 10
44.6705708123
 20
47.3971250508
 30
0.0
 11
44.6705708123
 21
48.6471252556
 31
0.0
  0
LINE
  5
98
330
1F
100
AcDbEntity
  8
0
  6
Continuous
 62
     7
370
    15
100
AcDbLine
 10
44.8705707054
 20
47.3971250508
 30
0.0
 11
45.1705708942
 21
47.3971250508
 31
0.0
  0
LINE
  5
99
330
1F
100
AcDbEntity
  8
0
  6
Continuous
 62
     7
370
    15
100
AcDbLine
 10
44.8705707054
 20
48.6471252556
 30
0.0
 11
44.8705707054
 21
47.3971250508
 31
0.0
  0
LINE
  5
9A
330
1F
100
AcDbEntity
  8
0
  6
Continuous
 62
     7
370
    15
100
AcDbLine
 10
45.1705708942
 20
48.6471252556
 30
0.0
 11
44.8705707054
 21
48.6471252556
 31
0.0
  0
LINE
  5
9B
330
1F
100
AcDbEntity
  8
0
  6
Continuous
 62
     7
370
    15
100
AcDbLine
 10
45.1705708942
 20
47.3971250508
 30
0.0
 11
45.1705708942
 21
48.6471252556
 31
0.0
  0
LINE
  5
9C
330
1F
100
AcDbEntity
  8
0
  6
Continuous
 62
     7
370
    15
100
AcDbLine
 10
45.3705707873
 20
47.3971250508
 30
0.0
 11
45.6705708598
 21
47.3971250508
 31
0.0
  0
LINE
  5
9D
330
1F
100
AcDbEntity
  8
0
  6
Continuous
 62
     7
370
    15
100
AcDbLine
 10
45.3705707873
 20
48.6471252556
 30
0.0
 11
45.3705707873
 21
47.3971250508
 31
0.0
  0
LINE
  5
9E
330
1F
100
AcDbEntity
  8
0
  6
Continuous
 62
     7
370
    15
100
AcDbLine
 10
45.6705708598
 20
48.6471252556
 30
0.0
 11
45.3705707873
 21
48.6471252556
 31
0.0
  0
LINE
  5
9F
330
1F
100
AcDbEntity
  8
0
  6
Continuous
 62
     7
370
    15
100
AcDbLine
 10
45.6705708598
 20
47.3971250508
 30
0.0
 11
45.6705708598
 21
48.6471252556
 31
0.0
  0
LINE
  5
A0
330
1F
100
AcDbEntity
  8
0
  6
Continuous
 62
     7
370
    15
100
AcDbLine
 10
45.8705708693
 20
47.3971250508
 30
0.0
 11
46.1705708253
 21
47.3971250508
 31
0.0
  0
LINE
  5
A1
330
1F
100
AcDbEntity
  8
0
  6
Continuous
 62
     7
370
    15
100
AcDbLine
 10
45.8705708693
 20
48.6471252556
 30
0.0
 11
45.8705708693
 21
47.3971250508
 31
0.0
  0
LINE
  5
A2
330
1F
100
AcDbEntity
  8
0
  6
Continuous
 62
     7
370
    15
100
AcDbLine
 10
46.1705708253
 20
48.6471252556
 30
0.0
 11
45.8705708693
 21
48.6471252556
 31
0.0
  0
LINE
  5
A3
330
1F
100
AcDbEntity
  8
0
  6
Continuous
 62
     7
370
    15
100
AcDbLine
 10
46.1705708253
 20
47.3971250508
 30
0.0
 11
46.1705708253
 21
48.6471252556
 31
0.0
  0
LINE
  5
A4
330
1F
100
AcDbEntity
  8
0
  6
Continuous
 62
     7
370
    15
100
AcDbLine
 10
46.3705708348
 20
47.3971250508
 30
0.0
 11
46.6705707909
 21
47.3971250508
 31
0.0
  0
LINE
  5
A5
330
1F
100
AcDbEntity
  8
0
  6
Continuous
 62
     7
370
    15
100
AcDbLine
 10
46.3705708348
 20
48.6471252556
 30
0.0
 11
46.3705708348
 21
47.3971250508
 31
0.0
  0
LINE
  5
A6
330
1F
100
AcDbEntity
  8
0
  6
Continuous
 62
     7
370
    15
100
AcDbLine
 10
46.6705707909
 20
48.6471252556
 30
0.0
 11
46.3705708348
 21
48.6471252556
 31
0.0
  0
LINE
  5
A7
330
1F
100
AcDbEntity
  8
0
  6
Continuous
 62
     7
370
    15
100
AcDbLine
 10
46.6705707909
 20
47.3971250508
 30
0.0
 11
46.6705707909
 21
48.6471252556
 31
0.0
  0
LINE
  5
A8
330
1F
100
AcDbEntity
  8
0
  6
Continuous
 62
     7
370
    15
100
AcDbLine
 10
46.8705708295
 20
47.3971250508
 30
0.0
 11
47.1705708219
 21
47.3971250508
 31
0.0
  0
LINE
  5
A9
330
1F
100
AcDbEntity
  8
0
  6
Continuous
 62
     7
370
    15
100
AcDbLine
 10
46.8705708295
 20
48.6471252556
 30
0.0
 11
46.8705708295
 21
47.3971250508
 31
0.0
  0
LINE
  5
AA
330
1F
100
AcDbEntity
  8
0
  6
Continuous
 62
     7
370
    15
100
AcDbLine
 10
47.1705708219
 20
48.6471252556
 30
0.0
 11
46.8705708295
 21
48.6471252556
 31
0.0
  0
LINE
  5
AB
330
1F
100
AcDbEntity
  8
0
  6
Continuous
 62
     7
370
    15
100
AcDbLine
 10
47.1705708219
 20
47.3971250508
 30
0.0
 11
47.1705708219
 21
48.6471252556
 31
0.0
  0
LINE
  5
AC
330
1F
100
AcDbEntity
  8
0
  6
Continuous
 62
     7
370
    15
100
AcDbLine
 10
47.3705708168
 20
47.3971250508
 30
0.0
 11
47.6705708092
 21
47.3971250508
 31
0.0
  0
LINE
  5
AD
330
1F
100
AcDbEntity
  8
0
  6
Continuous
 62
     7
370
    15
100
AcDbLine
 10
47.3705708168
 20
48.6471252556
 30
0.0
 11
47.3705708168
 21
47.3971250508
 31
0.0
  0
LINE
  5
AE
330
1F
100
AcDbEntity
  8
0
  6
Continuous
 62
     7
370
    15
100
AcDbLine
 10
47.6705708092
 20
48.6471252556
 30
0.0
 11
47.3705708168
 21
48.6471252556
 31
0.0
  0
LINE
  5
AF
330
1F
100
AcDbEntity
  8
0
  6
Continuous
 62
     7
370
    15
100
AcDbLine
 10
47.6705708092
 20
47.3971250508
 30
0.0
 11
47.6705708092
 21
48.6471252556
 31
0.0
  0
LINE
  5
B0
330
1F
100
AcDbEntity
  8
0
  6
Continuous
 62
     7
370
    15
100
AcDbLine
 10
47.8705708479
 20
47.3971250508
 30
0.0
 11
48.1705708039
 21
47.3971250508
 31
0.0
  0
LINE
  5
B1
330
1F
100
AcDbEntity
  8
0
  6
Continuous
 62
     7
370
    15
100
AcDbLine
 10
47.8705708479
 20
48.6471252556
 30
0.0
 11
47.8705708479
 21
47.3971250508
 31
0.0
  0
LINE
  5
B2
330
1F
100
AcDbEntity
  8
0
  6
Continuous
 62
     7
370
    15
100
AcDbLine
 10
48.1705708039
 20
48.6471252556
 30
0.0
 11
47.8705708479
 21
48.6471252556
 31
0.0
  0
LINE
  5
B3
330
1F
100
AcDbEntity
  8
0
  6
Continuous
 62
     7
370
    15
100
AcDbLine
 10
48.1705708039
 20
47.3971250508
 30
0.0
 11
48.1705708039
 21
48.6471252556
 31
0.0
  0
LINE
  5
B4
330
1F
100
AcDbEntity
  8
0
  6
Continuous
 62
     7
370
    15
100
AcDbLine
 10
48.3705708134
 20
47.3971250508
 30
0.0
 11
48.6705707694
 21
47.3971250508
 31
0.0
  0
LINE
  5
B5
330
1F
100
AcDbEntity
  8
0
  6
Continuous
 62
     7
370
    15
100
AcDbLine
 10
48.3705708134
 20
48.6471252556
 30
0.0
 11
48.3705708134
 21
47.3971250508
 31
0.0
  0
LINE
  5
B6
330
1F
100
AcDbEntity
  8
0
  6
Continuous
 62
     7
370
    15
100
AcDbLine
 10
48.6705707694
 20
48.6471252556
 30
0.0
 11
48.3705708134
 21
48.6471252556
 31
0.0
  0
LINE
  5
B7
330
1F
100
AcDbEntity
  8
0
  6
Continuous
 62
     7
370
    15
100
AcDbLine
 10
48.6705707694
 20
47.3971250508
 30
0.0
 11
48.6705707694
 21
48.6471252556
 31
0.0
  0
LINE
  5
B8
330
1F
100
AcDbEntity
  8
0
  6
Continuous
 62
     7
370
    15
100
AcDbLine
 10
48.8705707789
 20
47.3971250508
 30
0.0
 11
49.1705708514
 21
47.3971250508
 31
0.0
  0
LINE
  5
B9
330
1F
100
AcDbEntity
  8
0
  6
Continuous
 62
     7
370
    15
100
AcDbLine
 10
48.8705707789
 20
48.6471252556
 30
0.0
 11
48.8705707789
 21
47.3971250508
 31
0.0
  0
LINE
  5
BA
330
1F
100
AcDbEntity
  8
0
  6
Continuous
 62
     7
370
    15
100
AcDbLine
 10
49.1705708514
 20
48.6471252556
 30
0.0
 11
48.8705707789
 21
48.6471252556
 31
0.0
  0
LINE
  5
BB
330
1F
100
AcDbEntity
  8
0
  6
Continuous
 62
     7
370
    15
100
AcDbLine
 10
49.1705708514
 20
47.3971250508
 30
0.0
 11
49.1705708514
 21
48.6471252556
 31
0.0
  0
LINE
  5
BC
330
1F
100
AcDbEntity
  8
0
  6
Continuous
 62
     7
370
    15
100
AcDbLine
 10
49.3705707445
 20
47.3971250508
 30
0.0
 11
49.6705709333
 21
47.3971250508
 31
0.0
  0
LINE
  5
BD
330
1F
100
AcDbEntity
  8
0
  6
Continuous
 62
     7
370
    15
100
AcDbLine
 10
49.3705707445
 20
48.6471252556
 30
0.0
 11
49.3705707445
 21
47.3971250508
 31
0.0
  0
LINE
  5
BE
330
1F
100
AcDbEntity
  8
0
  6
Continuous
 62
     7
370
    15
100
AcDbLine
 10
49.6705709333
 20
48.6471252556
 30
0.0
 11
49.3705707445
 21
48.6471252556
 31
0.0
  0
LINE
  5
BF
330
1F
100
AcDbEntity
  8
0
  6
Continuous
 62
     7
370
    15
100
AcDbLine
 10
49.6705709333
 20
47.3971250508
 30
0.0
 11
49.6705709333
 21
48.6471252556
 31
0.0
  0
LINE
  5
C0
330
1F
100
AcDbEntity
  8
0
  6
Continuous
 62
     7
370
    15
100
AcDbLine
 10
49.8705708264
 20
47.3971250508
 30
0.0
 11
50.1705707825
 21
47.3971250508
 31
0.0
  0
LINE
  5
C1
330
1F
100
AcDbEntity
  8
0
  6
Continuous
 62
     7
370
    15
100
AcDbLine
 10
49.8705708264
 20
48.6471252556
 30
0.0
 11
49.8705708264
 21
47.3971250508
 31
0.0
  0
LINE
  5
C2
330
1F
100
AcDbEntity
  8
0
  6
Continuous
 62
     7
370
    15
100
AcDbLine
 10
50.1705707825
 20
48.6471252556
 30
0.0
 11
49.8705708264
 21
48.6471252556
 31
0.0
  0
LINE
  5
C3
330
1F
100
AcDbEntity
  8
0
  6
Continuous
 62
     7
370
    15
100
AcDbLine
 10
50.1705707825
 20
47.3971250508
 30
0.0
 11
50.1705707825
 21
48.6471252556
 31
0.0
  0
LINE
  5
C4
330
1F
100
AcDbEntity
  8
0
  6
Continuous
 62
     7
370
    15
100
AcDbLine
 10
50.3705709084
 20
47.3971250508
 30
0.0
 11
50.6705708644
 21
47.3971250508
 31
0.0
  0
LINE
  5
C5
330
1F
100
AcDbEntity
  8
0
  6
Continuous
 62
     7
370
    15
100
AcDbLine
 10
50.3705709084
 20
48.6471252556
 30
0.0
 11
50.3705709084
 21
47.3971250508
 31
0.0
  0
LINE
  5
C6
330
1F
100
AcDbEntity
  8
0
  6
Continuous
 62
     7
370
    15
100
AcDbLine
 10
50.6705708644
 20
48.6471252556
 30
0.0
 11
50.3705709084
 21
48.6471252556
 31
0.0
  0
LINE
  5
C7
330
1F
100
AcDbEntity
  8
0
  6
Continuous
 62
     7
370
    15
100
AcDbLine
 10
50.6705708644
 20
47.3971250508
 30
0.0
 11
50.6705708644
 21
48.6471252556
 31
0.0
  0
LINE
  5
C8
330
1F
100
AcDbEntity
  8
0
  6
Continuous
 62
     7
370
    15
100
AcDbLine
 10
50.8705707575
 20
47.3971250508
 30
0.0
 11
51.1705707136
 21
47.3971250508
 31
0.0
  0
LINE
  5
C9
330
1F
100
AcDbEntity
  8
0
  6
Continuous
 62
     7
370
    15
100
AcDbLine
 10
50.8705707575
 20
48.6471252556
 30
0.0
 11
50.8705707575
 21
47.3971250508
 31
0.0
  0
LINE
  5
CA
330
1F
100
AcDbEntity
  8
0
  6
Continuous
 62
     7
370
    15
100
AcDbLine
 10
51.1705707136
 20
48.6471252556
 30
0.0
 11
50.8705707575
 21
48.6471252556
 31
0.0
  0
LINE
  5
CB
330
1F
100
AcDbEntity
  8
0
  6
Continuous
 62
     7
370
    15
100
AcDbLine
 10
51.1705707136
 20
47.3971250508
 30
0.0
 11
51.1705707136
 21
48.6471252556
 31
0.0
  0
LINE
  5
CC
330
1F
100
AcDbEntity
  8
0
  6
Continuous
 62
     7
370
    15
100
AcDbLine
 10
51.3705708395
 20
47.3971250508
 30
0.0
 11
51.6705707955
 21
47.3971250508
 31
0.0
  0
LINE
  5
CD
330
1F
100
AcDbEntity
  8
0
  6
Continuous
 62
     7
370
    15
100
AcDbLine
 10
51.3705708395
 20
48.6471252556
 30
0.0
 11
51.3705708395
 21
47.3971250508
 31
0.0
  0
LINE
  5
CE
330
1F
100
AcDbEntity
  8
0
  6
Continuous
 62
     7
370
    15
100
AcDbLine
 10
51.6705707955
 20
48.6471252556
 30
0.0
 11
51.3705708395
 21
48.6471252556
 31
0.0
  0
LINE
  5
CF
330
1F
100
AcDbEntity
  8
0
  6
Continuous
 62
     7
370
    15
100
AcDbLine
 10
51.6705707955
 20
47.3971250508
 30
0.0
 11
51.6705707955
 21
48.6471252556
 31
0.0
  0
LINE
  5
D0
330
1F
100
AcDbEntity
  8
0
  6
Continuous
 62
     7
370
    15
100
AcDbLine
 10
51.8705709214
 20
47.3971250508
 30
0.0
 11
52.1705708775
 21
47.3971250508
 31
0.0
  0
LINE
  5
D1
330
1F
100
AcDbEntity
  8
0
  6
Continuous
 62
     7
370
    15
100
AcDbLine
 10
51.8705709214
 20
48.6471252556
 30
0.0
 11
51.8705709214
 21
47.3971250508
 31
0.0
  0
LINE
  5
D2
330
1F
100
AcDbEntity
  8
0
  6
Continuous
 62
     7
370
    15
100
AcDbLine
 10
52.1705708775
 20
48.6471252556
 30
0.0
 11
51.8705709214
 21
48.6471252556
 31
0.0
  0
LINE
  5
D3
330
1F
100
AcDbEntity
  8
0
  6
Continuous
 62
     7
370
    15
100
AcDbLine
 10
52.1705708775
 20
47.3971250508
 30
0.0
 11
52.1705708775
 21
48.6471252556
 31
0.0
  0
LINE
  5
D4
330
1F
100
AcDbEntity
  8
0
  6
Continuous
 62
     7
370
    15
100
AcDbLine
 10
52.3705710034
 20
47.3971250508
 30
0.0
 11
52.6705709594
 21
47.3971250508
 31
0.0
  0
LINE
  5
D5
330
1F
100
AcDbEntity
  8
0
  6
Continuous
 62
     7
370
    15
100
AcDbLine
 10
52.3705710034
 20
48.6471252556
 30
0.0
 11
52.3705710034
 21
47.3971250508
 31
0.0
  0
LINE
  5
D6
330
1F
100
AcDbEntity
  8
0
  6
Continuous
 62
     7
370
    15
100
AcDbLine
 10
52.6705709594
 20
48.6471252556
 30
0.0
 11
52.3705710034
 21
48.6471252556
 31
0.0
  0
LINE
  5
D7
330
1F
100
AcDbEntity
  8
0
  6
Continuous
 62
     7
370
    15
100
AcDbLine
 10
52.6705709594
 20
47.3971250508
 30
0.0
 11
52.6705709594
 21
48.6471252556
 31
0.0
  0
LINE
  5
D8
330
1F
100
AcDbEntity
  8
0
  6
Continuous
 62
     7
370
    15
100
AcDbLine
 10
52.8705706197
 20
47.3971250508
 30
0.0
 11
53.1705710414
 21
47.3971250508
 31
0.0
  0
LINE
  5
D9
330
1F
100
AcDbEntity
  8
0
  6
Continuous
 62
     7
370
    15
100
AcDbLine
 10
52.8705706197
 20
48.6471252556
 30
0.0
 11
52.8705706197
 21
47.3971250508
 31
0.0
  0
LINE
  5
DA
330
1F
100
AcDbEntity
  8
0
  6
Continuous
 62
     7
370
    15
100
AcDbLine
 10
53.1705710414
 20
48.6471252556
 30
0.0
 11
52.8705706197
 21
48.6471252556
 31
0.0
  0
LINE
  5
DB
330
1F
100
AcDbEntity
  8
0
  6
Continuous
 62
     7
370
    15
100
AcDbLine
 10
53.1705710414
 20
47.3971250508
 30
0.0
 11
53.1705710414
 21
48.6471252556
 31
0.0
  0
LINE
  5
DC
330
1F
100
AcDbEntity
  8
0
  6
Continuous
 62
     7
370
    15
100
AcDbLine
 10
53.3705707016
 20
47.3971250508
 30
0.0
 11
53.6705706577
 21
47.3971250508
 31
0.0
  0
LINE
  5
DD
330
1F
100
AcDbEntity
  8
0
  6
Continuous
 62
     7
370
    15
100
AcDbLine
 10
53.3705707016
 20
48.6471252556
 30
0.0
 11
53.3705707016
 21
47.3971250508
 31
0.0
  0
LINE
  5
DE
330
1F
100
AcDbEntity
  8
0
  6
Continuous
 62
     7
370
    15
100
AcDbLine
 10
53.6705706577
 20
48.6471252556
 30
0.0
 11
53.3705707016
 21
48.6471252556
 31
0.0
  0
LINE
  5
DF
330
1F
100
AcDbEntity
  8
0
  6
Continuous
 62
     7
370
    15
100
AcDbLine
 10
53.6705706577
 20
47.3971250508
 30
0.0
 11
53.6705706577
 21
48.6471252556
 31
0.0
  0
LINE
  5
E0
330
1F
100
AcDbEntity
  8
0
  6
Continuous
 62
     7
370
    15
100
AcDbLine
 10
40.4455707717
 20
34.1721251647
 30
0.0
 11
40.4455707717
 21
34.4721251208
 31
0.0
  0
LINE
  5
E1
330
1F
100
AcDbEntity
  8
0
  6
Continuous
 62
     7
370
    15
100
AcDbLine
 10
39.1955710324
 20
34.1721251647
 30
0.0
 11
40.4455707717
 21
34.1721251647
 31
0.0
  0
LINE
  5
E2
330
1F
100
AcDbEntity
  8
0
  6
Continuous
 62
     7
370
    15
100
AcDbLine
 10
39.1955710324
 20
34.4721251208
 30
0.0
 11
39.1955710324
 21
34.1721251647
 31
0.0
  0
LINE
  5
E3
330
1F
100
AcDbEntity
  8
0
  6
Continuous
 62
     7
370
    15
100
AcDbLine
 10
40.4455707717
 20
34.4721251208
 30
0.0
 11
39.1955710324
 21
34.4721251208
 31
0.0
  0
LINE
  5
E4
330
1F
100
AcDbEntity
  8
0
  6
Continuous
 62
     7
370
    15
100
AcDbLine
 10
40.4455707717
 20
34.672124781
 30
0.0
 11
40.4455707717
 21
34.9721247371
 31
0.0
  0
LINE
  5
E5
330
1F
100
AcDbEntity
  8
0
  6
Continuous
 62
     7
370
    15
100
AcDbLine
 10
39.1955710324
 20
34.672124781
 30
0.0
 11
40.4455707717
 21
34.672124781
 31
0.0
  0
LINE
  5
E6
330
1F
100
AcDbEntity
  8
0
  6
Continuous
 62
     7
370
    15
100
AcDbLine
 10
39.1955710324
 20
34.9721247371
 30
0.0
 11
39.1955710324
 21
34.672124781
 31
0.0
  0
LINE
  5
E7
330
1F
100
AcDbEntity
  8
0
  6
Continuous
 62
     7
370
    15
100
AcDbLine
 10
40.4455707717
 20
34.9721247371
 30
0.0
 11
39.1955710324
 21
34.9721247371
 31
0.0
  0
LINE
  5
E8
330
1F
100
AcDbEntity
  8
0
  6
Continuous
 62
     7
370
    15
100
AcDbLine
 10
40.4455707717
 20
35.172124863
 30
0.0
 11
40.4455707717
 21
35.472124819
 31
0.0
  0
LINE
  5
E9
330
1F
100
AcDbEntity
  8
0
  6
Continuous
 62
     7
370
    15
100
AcDbLine
 10
39.1955710324
 20
35.172124863
 30
0.0
 11
40.4455707717
 21
35.172124863
 31
0.0
  0
LINE
  5
EA
330
1F
100
AcDbEntity
  8
0
  6
Continuous
 62
     7
370
    15
100
AcDbLine
 10
39.1955710324
 20
35.472124819
 30
0.0
 11
39.1955710324
 21
35.172124863
 31
0.0
  0
LINE
  5
EB
330
1F
100
AcDbEntity
  8
0
  6
Continuous
 62
     7
370
    15
100
AcDbLine
 10
40.4455707717
 20
35.472124819
 30
0.0
 11
39.1955710324
 21
35.472124819
 31
0.0
  0
LINE
  5
EC
330
1F
100
AcDbEntity
  8
0
  6
Continuous
 62
     7
370
    15
100
AcDbLine
 10
40.4455707717
 20
35.672124945
 30
0.0
 11
40.4455707717
 21
35.972124901
 31
0.0
  0
LINE
  5
ED
330
1F
100
AcDbEntity
  8
0
  6
Continuous
 62
     7
370
    15
100
AcDbLine
 10
39.1955710324
 20
35.672124945
 30
0.0
 11
40.4455707717
 21
35.672124945
 31
0.0
  0
LINE
  5
EE
330
1F
100
AcDbEntity
  8
0
  6
Continuous
 62
     7
370
    15
100
AcDbLine
 10
39.1955710324
 20
35.972124901
 30
0.0
 11
39.1955710324
 21
35.672124945
 31
0.0
  0
LINE
  5
EF
330
1F
100
AcDbEntity
  8
0
  6
Continuous
 62
     7
370
    15
100
AcDbLine
 10
40.4455707717
 20
35.972124901
 30
0.0
 11
39.1955710324
 21
35.972124901
 31
0.0
  0
LINE
  5
F0
330
1F
100
AcDbEntity
  8
0
  6
Continuous
 62
     7
370
    15
100
AcDbLine
 10
40.4455707717
 20
36.1721250269
 30
0.0
 11
40.4455707717
 21
36.472124983
 31
0.0
  0
LINE
  5
F1
330
1F
100
AcDbEntity
  8
0
  6
Continuous
 62
     7
370
    15
100
AcDbLine
 10
39.1955710324
 20
36.1721250269
 30
0.0
 11
40.4455707717
 21
36.1721250269
 31
0.0
  0
LINE
  5
F2
330
1F
100
AcDbEntity
  8
0
  6
Continuous
 62
     7
370
    15
100
AcDbLine
 10
39.1955710324
 20
36.472124983
 30
0.0
 11
39.1955710324
 21
36.1721250269
 31
0.0
  0
LINE
  5
F3
330
1F
100
AcDbEntity
  8
0
  6
Continuous
 62
     7
370
    15
100
AcDbLine
 10
40.4455707717
 20
36.472124983
 30
0.0
 11
39.1955710324
 21
36.472124983
 31
0.0
  0
LINE
  5
F4
330
1F
100
AcDbEntity
  8
0
  6
Continuous
 62
     7
370
    15
100
AcDbLine
 10
40.4455707717
 20
36.672124876
 30
0.0
 11
40.4455707717
 21
36.9721250649
 31
0.0
  0
LINE
  5
F5
330
1F
100
AcDbEntity
  8
0
  6
Continuous
 62
     7
370
    15
100
AcDbLine
 10
39.1955710324
 20
36.672124876
 30
0.0
 11
40.4455707717
 21
36.672124876
 31
0.0
  0
LINE
  5
F6
330
1F
100
AcDbEntity
  8
0
  6
Continuous
 62
     7
370
    15
100
AcDbLine
 10
39.1955710324
 20
36.9721250649
 30
0.0
 11
39.1955710324
 21
36.672124876
 31
0.0
  0
LINE
  5
F7
330
1F
100
AcDbEntity
  8
0
  6
Continuous
 62
     7
370
    15
100
AcDbLine
 10
40.4455707717
 20
36.9721250649
 30
0.0
 11
39.1955710324
 21
36.9721250649
 31
0.0
  0
LINE
  5
F8
330
1F
100
AcDbEntity
  8
0
  6
Continuous
 62
     7
370
    15
100
AcDbLine
 10
40.4455707717
 20
37.172124958
 30
0.0
 11
40.4455707717
 21
37.472124914
 31
0.0
  0
LINE
  5
F9
330
1F
100
AcDbEntity
  8
0
  6
Continuous
 62
     7
370
    15
100
AcDbLine
 10
39.1955710324
 20
37.172124958
 30
0.0
 11
40.4455707717
 21
37.172124958
 31
0.0
  0
LINE
  5
FA
330
1F
100
AcDbEntity
  8
0
  6
Continuous
 62
     7
370
    15
100
AcDbLine
 10
39.1955710324
 20
37.472124914
 30
0.0
 11
39.1955710324
 21
37.172124958
 31
0.0
  0
LINE
  5
FB
330
1F
100
AcDbEntity
  8
0
  6
Continuous
 62
     7
370
    15
100
AcDbLine
 10
40.4455707717
 20
37.472124914
 30
0.0
 11
39.1955710324
 21
37.472124914
 31
0.0
  0
LINE
  5
FC
330
1F
100
AcDbEntity
  8
0
  6
Continuous
 62
     7
370
    15
100
AcDbLine
 10
40.4455707717
 20
37.6721250399
 30
0.0
 11
40.4455707717
 21
37.972124996
 31
0.0
  0
LINE
  5
FD
330
1F
100
AcDbEntity
  8
0
  6
Continuous
 62
     7
370
    15
100
AcDbLine
 10
39.1955710324
 20
37.6721250399
 30
0.0
 11
40.4455707717
 21
37.6721250399
 31
0.0
  0
LINE
  5
FE
330
1F
100
AcDbEntity
  8
0
  6
Continuous
 62
     7
370
    15
100
AcDbLine
 10
39.1955710324
 20
37.972124996
 30
0.0
 11
39.1955710324
 21
37.6721250399
 31
0.0
  0
LINE
  5
FF
330
1F
100
AcDbEntity
  8
0
  6
Continuous
 62
     7
370
    15
100
AcDbLine
 10
40.4455707717
 20
37.972124996
 30
0.0
 11
39.1955710324
 21
37.972124996
 31
0.0
  0
LINE
  5
100
330
1F
100
AcDbEntity
  8
0
  6
Continuous
 62
     7
370
    15
100
AcDbLine
 10
40.4455707717
 20
38.1721248891
 30
0.0
 11
40.4455707717
 21
38.4721249615
 31
0.0
  0
LINE
  5
101
330
1F
100
AcDbEntity
  8
0
  6
Continuous
 62
     7
370
    15
100
AcDbLine
 10
39.1955710324
 20
38.1721248891
 30
0.0
 11
40.4455707717
 21
38.1721248891
 31
0.0
  0
LINE
  5
102
330
1F
100
AcDbEntity
  8
0
  6
Continuous
 62
     7
370
    15
100
AcDbLine
 10
39.1955710324
 20
38.4721249615
 30
0.0
 11
39.1955710324
 21
38.1721248891
 31
0.0
  0
LINE
  5
103
330
1F
100
AcDbEntity
  8
0
  6
Continuous
 62
     7
370
    15
100
AcDbLine
 10
40.4455707717
 20
38.4721249615
 30
0.0
 11
39.1955710324
 21
38.4721249615
 31
0.0
  0
LINE
  5
104
330
1F
100
AcDbEntity
  8
0
  6
Continuous
 62
     7
370
    15
100
AcDbLine
 10
40.4455707717
 20
38.672124971
 30
0.0
 11
40.4455707717
 21
38.9721249271
 31
0.0
  0
LINE
  5
105
330
1F
100
AcDbEntity
  8
0
  6
Continuous
 62
     7
370
    15
100
AcDbLine
 10
39.1955710324
 20
38.672124971
 30
0.0
 11
40.4455707717
 21
38.672124971
 31
0.0
  0
LINE
  5
106
330
1F
100
AcDbEntity
  8
0
  6
Continuous
 62
     7
370
    15
100
AcDbLine
 10
39.1955710324
 20
38.9721249271
 30
0.0
 11
39.1955710324
 21
38.672124971
 31
0.0
  0
LINE
  5
107
330
1F
100
AcDbEntity
  8
0
  6
Continuous
 62
     7
370
    15
100
AcDbLine
 10
40.4455707717
 20
38.9721249271
 30
0.0
 11
39.1955710324
 21
38.9721249271
 31
0.0
  0
LINE
  5
108
330
1F
100
AcDbEntity
  8
0
  6
Continuous
 62
     7
370
    15
100
AcDbLine
 10
40.4455707717
 20
39.1721249366
 30
0.0
 11
40.4455707717
 21
39.4721249508
 31
0.0
  0
LINE
  5
109
330
1F
100
AcDbEntity
  8
0
  6
Continuous
 62
     7
370
    15
100
AcDbLine
 10
39.1955710324
 20
39.1721249366
 30
0.0
 11
40.4455707717
 21
39.1721249366
 31
0.0
  0
LINE
  5
10A
330
1F
100
AcDbEntity
  8
0
  6
Continuous
 62
     7
370
    15
100
AcDbLine
 10
39.1955710324
 20
39.4721249508
 30
0.0
 11
39.1955710324
 21
39.1721249366
 31
0.0
  0
LINE
  5
10B
330
1F
100
AcDbEntity
  8
0
  6
Continuous
 62
     7
370
    15
100
AcDbLine
 10
40.4455707717
 20
39.4721249508
 30
0.0
 11
39.1955710324
 21
39.4721249508
 31
0.0
  0
LINE
  5
10C
330
1F
100
AcDbEntity
  8
0
  6
Continuous
 62
     7
370
    15
100
AcDbLine
 10
40.4455707717
 20
39.6721249603
 30
0.0
 11
40.4455707717
 21
39.9721249746
 31
0.0
  0
LINE
  5
10D
330
1F
100
AcDbEntity
  8
0
  6
Continuous
 62
     7
370
    15
100
AcDbLine
 10
39.1955710324
 20
39.6721249603
 30
0.0
 11
40.4455707717
 21
39.6721249603
 31
0.0
  0
LINE
  5
10E
330
1F
100
AcDbEntity
  8
0
  6
Continuous
 62
     7
370
    15
100
AcDbLine
 10
39.1955710324
 20
39.9721249746
 30
0.0
 11
39.1955710324
 21
39.6721249603
 31
0.0
  0
LINE
  5
10F
330
1F
100
AcDbEntity
  8
0
  6
Continuous
 62
     7
370
    15
100
AcDbLine
 10
40.4455707717
 20
39.9721249746
 30
0.0
 11
39.1955710324
 21
39.9721249746
 31
0.0
  0
LINE
  5
110
330
1F
100
AcDbEntity
  8
0
  6
Continuous
 62
     7
370
    15
100
AcDbLine
 10
40.4455707717
 20
40.172124955
 30
0.0
 11
40.4455707717
 21
40.4721249692
 31
0.0
  0
LINE
  5
111
330
1F
100
AcDbEntity
  8
0
  6
Continuous
 62
     7
370
    15
100
AcDbLine
 10
39.1955710324
 20
40.172124955
 30
0.0
 11
40.4455707717
 21
40.172124955
 31
0.0
  0
LINE
  5
112
330
1F
100
AcDbEntity
  8
0
  6
Continuous
 62
     7
370
    15
100
AcDbLine
 10
39.1955710324
 20
40.4721249692
 30
0.0
 11
39.1955710324
 21
40.172124955
 31
0.0
  0
LINE
  5
113
330
1F
100
AcDbEntity
  8
0
  6
Continuous
 62
     7
370
    15
100
AcDbLine
 10
40.4455707717
 20
40.4721249692
 30
0.0
 11
39.1955710324
 21
40.4721249692
 31
0.0
  0
LINE
  5
114
330
1F
100
AcDbEntity
  8
0
  6
Continuous
 62
     7
370
    15
100
AcDbLine
 10
40.4455707717
 20
40.6721249496
 30
0.0
 11
40.4455707717
 21
40.9721249639
 31
0.0
  0
LINE
  5
115
330
1F
100
AcDbEntity
  8
0
  6
Continuous
 62
     7
370
    15
100
AcDbLine
 10
39.1955710324
 20
40.6721249496
 30
0.0
 11
40.4455707717
 21
40.6721249496
 31
0.0
  0
LINE
  5
116
330
1F
100
AcDbEntity
  8
0
  6
Continuous
 62
     7
370
    15
100
AcDbLine
 10
39.1955710324
 20
40.9721249639
 30
0.0
 11
39.1955710324
 21
40.6721249496
 31
0.0
  0
LINE
  5
117
330
1F
100
AcDbEntity
  8
0
  6
Continuous
 62
     7
370
    15
100
AcDbLine
 10
40.4455707717
 20
40.9721249639
 30
0.0
 11
39.1955710324
 21
40.9721249639
 31
0.0
  0
LINE
  5
118
330
1F
100
AcDbEntity
  8
0
  6
Continuous
 62
     7
370
    15
100
AcDbLine
 10
40.4455707717
 20
41.1721249734
 30
0.0
 11
40.4455707717
 21
41.4721249876
 31
0.0
  0
LINE
  5
119
330
1F
100
AcDbEntity
  8
0
  6
Continuous
 62
     7
370
    15
100
AcDbLine
 10
39.1955710324
 20
41.1721249734
 30
0.0
 11
40.4455707717
 21
41.1721249734
 31
0.0
  0
LINE
  5
11A
330
1F
100
AcDbEntity
  8
0
  6
Continuous
 62
     7
370
    15
100
AcDbLine
 10
39.1955710324
 20
41.4721249876
 30
0.0
 11
39.1955710324
 21
41.1721249734
 31
0.0
  0
LINE
  5
11B
330
1F
100
AcDbEntity
  8
0
  6
Continuous
 62
     7
370
    15
100
AcDbLine
 10
40.4455707717
 20
41.4721249876
 30
0.0
 11
39.1955710324
 21
41.4721249876
 31
0.0
  0
LINE
  5
11C
330
1F
100
AcDbEntity
  8
0
  6
Continuous
 62
     7
370
    15
100
AcDbLine
 10
40.4455707717
 20
41.6721249971
 30
0.0
 11
40.4455707717
 21
41.9721249531
 31
0.0
  0
LINE
  5
11D
330
1F
100
AcDbEntity
  8
0
  6
Continuous
 62
     7
370
    15
100
AcDbLine
 10
39.1955710324
 20
41.6721249971
 30
0.0
 11
40.4455707717
 21
41.6721249971
 31
0.0
  0
LINE
  5
11E
330
1F
100
AcDbEntity
  8
0
  6
Continuous
 62
     7
370
    15
100
AcDbLine
 10
39.1955710324
 20
41.9721249531
 30
0.0
 11
39.1955710324
 21
41.6721249971
 31
0.0
  0
LINE
  5
11F
330
1F
100
AcDbEntity
  8
0
  6
Continuous
 62
     7
370
    15
100
AcDbLine
 10
40.4455707717
 20
41.9721249531
 30
0.0
 11
39.1955710324
 21
41.9721249531
 31
0.0
  0
LINE
  5
120
330
1F
100
AcDbEntity
  8
0
  6
Continuous
 62
     7
370
    15
100
AcDbLine
 10
40.4455707717
 20
42.1721249626
 30
0.0
 11
40.4455707717
 21
42.4721250351
 31
0.0
  0
LINE
  5
121
330
1F
100
AcDbEntity
  8
0
  6
Continuous
 62
     7
370
    15
100
AcDbLine
 10
39.1955710324
 20
42.1721249626
 30
0.0
 11
40.4455707717
 21
42.1721249626
 31
0.0
  0
LINE
  5
122
330
1F
100
AcDbEntity
  8
0
  6
Continuous
 62
     7
370
    15
100
AcDbLine
 10
39.1955710324
 20
42.4721250351
 30
0.0
 11
39.1955710324
 21
42.1721249626
 31
0.0
  0
LINE
  5
123
330
1F
100
AcDbEntity
  8
0
  6
Continuous
 62
     7
370
    15
100
AcDbLine
 10
40.4455707717
 20
42.4721250351
 30
0.0
 11
39.1955710324
 21
42.4721250351
 31
0.0
  0
LINE
  5
124
330
1F
100
AcDbEntity
  8
0
  6
Continuous
 62
     7
370
    15
100
AcDbLine
 10
40.4455707717
 20
42.6721249282
 30
0.0
 11
40.4455707717
 21
42.9721248842
 31
0.0
  0
LINE
  5
125
330
1F
100
AcDbEntity
  8
0
  6
Continuous
 62
     7
370
    15
100
AcDbLine
 10
39.1955710324
 20
42.6721249282
 30
0.0
 11
40.4455707717
 21
42.6721249282
 31
0.0
  0
LINE
  5
126
330
1F
100
AcDbEntity
  8
0
  6
Continuous
 62
     7
370
    15
100
AcDbLine
 10
39.1955710324
 20
42.9721248842
 30
0.0
 11
39.1955710324
 21
42.6721249282
 31
0.0
  0
LINE
  5
127
330
1F
100
AcDbEntity
  8
0
  6
Continuous
 62
     7
370
    15
100
AcDbLine
 10
40.4455707717
 20
42.9721248842
 30
0.0
 11
39.1955710324
 21
42.9721248842
 31
0.0
  0
LINE
  5
128
330
1F
100
AcDbEntity
  8
0
  6
Continuous
 62
     7
370
    15
100
AcDbLine
 10
40.4455707717
 20
43.1721250101
 30
0.0
 11
40.4455707717
 21
43.4721249662
 31
0.0
  0
LINE
  5
129
330
1F
100
AcDbEntity
  8
0
  6
Continuous
 62
     7
370
    15
100
AcDbLine
 10
39.1955710324
 20
43.1721250101
 30
0.0
 11
40.4455707717
 21
43.1721250101
 31
0.0
  0
LINE
  5
12A
330
1F
100
AcDbEntity
  8
0
  6
Continuous
 62
     7
370
    15
100
AcDbLine
 10
39.1955710324
 20
43.4721249662
 30
0.0
 11
39.1955710324
 21
43.1721250101
 31
0.0
  0
LINE
  5
12B
330
1F
100
AcDbEntity
  8
0
  6
Continuous
 62
     7
370
    15
100
AcDbLine
 10
40.4455707717
 20
43.4721249662
 30
0.0
 11
39.1955710324
 21
43.4721249662
 31
0.0
  0
LINE
  5
12C
330
1F
100
AcDbEntity
  8
0
  6
Continuous
 62
     7
370
    15
100
AcDbLine
 10
40.4455707717
 20
43.6721248593
 30
0.0
 11
40.4455707717
 21
43.9721250481
 31
0.0
  0
LINE
  5
12D
330
1F
100
AcDbEntity
  8
0
  6
Continuous
 62
     7
370
    15
100
AcDbLine
 10
39.1955710324
 20
43.6721248593
 30
0.0
 11
40.4455707717
 21
43.6721248593
 31
0.0
  0
LINE
  5
12E
330
1F
100
AcDbEntity
  8
0
  6
Continuous
 62
     7
370
    15
100
AcDbLine
 10
39.1955710324
 20
43.9721250481
 30
0.0
 11
39.1955710324
 21
43.6721248593
 31
0.0
  0
LINE
  5
12F
330
1F
100
AcDbEntity
  8
0
  6
Continuous
 62
     7
370
    15
100
AcDbLine
 10
40.4455707717
 20
43.9721250481
 30
0.0
 11
39.1955710324
 21
43.9721250481
 31
0.0
  0
LINE
  5
130
330
1F
100
AcDbEntity
  8
0
  6
Continuous
 62
     7
370
    15
100
AcDbLine
 10
40.4455707717
 20
44.1721249412
 30
0.0
 11
40.4455707717
 21
44.4721248973
 31
0.0
  0
LINE
  5
131
330
1F
100
AcDbEntity
  8
0
  6
Continuous
 62
     7
370
    15
100
AcDbLine
 10
39.1955710324
 20
44.1721249412
 30
0.0
 11
40.4455707717
 21
44.1721249412
 31
0.0
  0
LINE
  5
132
330
1F
100
AcDbEntity
  8
0
  6
Continuous
 62
     7
370
    15
100
AcDbLine
 10
39.1955710324
 20
44.4721248973
 30
0.0
 11
39.1955710324
 21
44.1721249412
 31
0.0
  0
LINE
  5
133
330
1F
100
AcDbEntity
  8
0
  6
Continuous
 62
     7
370
    15
100
AcDbLine
 10
40.4455707717
 20
44.4721248973
 30
0.0
 11
39.1955710324
 21
44.4721248973
 31
0.0
  0
LINE
  5
134
330
1F
100
AcDbEntity
  8
0
  6
Continuous
 62
     7
370
    15
100
AcDbLine
 10
40.4455707717
 20
44.6721250232
 30
0.0
 11
40.4455707717
 21
44.9721249792
 31
0.0
  0
LINE
  5
135
330
1F
100
AcDbEntity
  8
0
  6
Continuous
 62
     7
370
    15
100
AcDbLine
 10
39.1955710324
 20
44.6721250232
 30
0.0
 11
40.4455707717
 21
44.6721250232
 31
0.0
  0
LINE
  5
136
330
1F
100
AcDbEntity
  8
0
  6
Continuous
 62
     7
370
    15
100
AcDbLine
 10
39.1955710324
 20
44.9721249792
 30
0.0
 11
39.1955710324
 21
44.6721250232
 31
0.0
  0
LINE
  5
137
330
1F
100
AcDbEntity
  8
0
  6
Continuous
 62
     7
370
    15
100
AcDbLine
 10
40.4455707717
 20
44.9721249792
 30
0.0
 11
39.1955710324
 21
44.9721249792
 31
0.0
  0
LINE
  5
138
330
1F
100
AcDbEntity
  8
0
  6
Continuous
 62
     7
370
    15
100
AcDbLine
 10
40.4455707717
 20
45.1721251051
 30
0.0
 11
40.4455707717
 21
45.4721250612
 31
0.0
  0
LINE
  5
139
330
1F
100
AcDbEntity
  8
0
  6
Continuous
 62
     7
370
    15
100
AcDbLine
 10
39.1955710324
 20
45.1721251051
 30
0.0
 11
40.4455707717
 21
45.1721251051
 31
0.0
  0
LINE
  5
13A
330
1F
100
AcDbEntity
  8
0
  6
Continuous
 62
     7
370
    15
100
AcDbLine
 10
39.1955710324
 20
45.4721250612
 30
0.0
 11
39.1955710324
 21
45.1721251051
 31
0.0
  0
LINE
  5
13B
330
1F
100
AcDbEntity
  8
0
  6
Continuous
 62
     7
370
    15
100
AcDbLine
 10
40.4455707717
 20
45.4721250612
 30
0.0
 11
39.1955710324
 21
45.4721250612
 31
0.0
  0
LINE
  5
13C
330
1F
100
AcDbEntity
  8
0
  6
Continuous
 62
     7
370
    15
100
AcDbLine
 10
40.4455707717
 20
45.6721251871
 30
0.0
 11
40.4455707717
 21
45.9721251431
 31
0.0
  0
LINE
  5
13D
330
1F
100
AcDbEntity
  8
0
  6
Continuous
 62
     7
370
    15
100
AcDbLine
 10
39.1955710324
 20
45.6721251871
 30
0.0
 11
40.4455707717
 21
45.6721251871
 31
0.0
  0
LINE
  5
13E
330
1F
100
AcDbEntity
  8
0
  6
Continuous
 62
     7
370
    15
100
AcDbLine
 10
39.1955710324
 20
45.9721251431
 30
0.0
 11
39.1955710324
 21
45.6721251871
 31
0.0
  0
LINE
  5
13F
330
1F
100
AcDbEntity
  8
0
  6
Continuous
 62
     7
370
    15
100
AcDbLine
 10
40.4455707717
 20
45.9721251431
 30
0.0
 11
39.1955710324
 21
45.9721251431
 31
0.0
  0
LINE
  5
140
330
1F
100
AcDbEntity
  8
0
  6
Continuous
 62
     7
370
    15
100
AcDbLine
 10
55.8455706882
 20
46.1721248034
 30
0.0
 11
55.8455706882
 21
46.4721247594
 31
0.0
  0
LINE
  5
141
330
1F
100
AcDbEntity
  8
0
  6
Continuous
 62
     7
370
    15
100
AcDbLine
 10
54.595570949
 20
46.1721248034
 30
0.0
 11
55.8455706882
 21
46.1721248034
 31
0.0
  0
LINE
  5
142
330
1F
100
AcDbEntity
  8
0
  6
Continuous
 62
     7
370
    15
100
AcDbLine
 10
54.595570949
 20
46.4721247594
 30
0.0
 11
54.595570949
 21
46.1721248034
 31
0.0
  0
LINE
  5
143
330
1F
100
AcDbEntity
  8
0
  6
Continuous
 62
     7
370
    15
100
AcDbLine
 10
55.8455706882
 20
46.4721247594
 30
0.0
 11
54.595570949
 21
46.4721247594
 31
0.0
  0
LINE
  5
144
330
1F
100
AcDbEntity
  8
0
  6
Continuous
 62
     7
370
    15
100
AcDbLine
 10
54.595570949
 20
45.9721251431
 30
0.0
 11
54.595570949
 21
45.6721251871
 31
0.0
  0
LINE
  5
145
330
1F
100
AcDbEntity
  8
0
  6
Continuous
 62
     7
370
    15
100
AcDbLine
 10
55.8455706882
 20
45.9721251431
 30
0.0
 11
54.595570949
 21
45.9721251431
 31
0.0
  0
LINE
  5
146
330
1F
100
AcDbEntity
  8
0
  6
Continuous
 62
     7
370
    15
100
AcDbLine
 10
55.8455706882
 20
45.6721251871
 30
0.0
 11
55.8455706882
 21
45.9721251431
 31
0.0
  0
LINE
  5
147
330
1F
100
AcDbEntity
  8
0
  6
Continuous
 62
     7
370
    15
100
AcDbLine
 10
54.595570949
 20
45.6721251871
 30
0.0
 11
55.8455706882
 21
45.6721251871
 31
0.0
  0
LINE
  5
148
330
1F
100
AcDbEntity
  8
0
  6
Continuous
 62
     7
370
    15
100
AcDbLine
 10
53.1705710414
 20
33.2471248734
 30
0.0
 11
52.8705706197
 21
33.2471248734
 31
0.0
  0
LINE
  5
149
330
1F
100
AcDbEntity
  8
0
  6
Continuous
 62
     7
370
    15
100
AcDbLine
 10
53.1705710414
 20
31.9971246685
 30
0.0
 11
53.1705710414
 21
33.2471248734
 31
0.0
  0
LINE
  5
14A
330
1F
100
AcDbEntity
  8
0
  6
Continuous
 62
     7
370
    15
100
AcDbLine
 10
52.8705706197
 20
31.9971246685
 30
0.0
 11
53.1705710414
 21
31.9971246685
 31
0.0
  0
LINE
  5
14B
330
1F
100
AcDbEntity
  8
0
  6
Continuous
 62
     7
370
    15
100
AcDbLine
 10
52.8705706197
 20
33.2471248734
 30
0.0
 11
52.8705706197
 21
31.9971246685
 31
0.0
  0
LINE
  5
14C
330
1F
100
AcDbEntity
  8
0
  6
Continuous
 62
     7
370
    15
100
AcDbLine
 10
52.6705709594
 20
33.2471248734
 30
0.0
 11
52.3705710034
 21
33.2471248734
 31
0.0
  0
LINE
  5
14D
330
1F
100
AcDbEntity
  8
0
  6
Continuous
 62
     7
370
    15
100
AcDbLine
 10
52.6705709594
 20
31.9971246685
 30
0.0
 11
52.6705709594
 21
33.2471248734
 31
0.0
  0
LINE
  5
14E
330
1F
100
AcDbEntity
  8
0
  6
Continuous
 62
     7
370
    15
100
AcDbLine
 10
52.3705710034
 20
31.9971246685
 30
0.0
 11
52.6705709594
 21
31.9971246685
 31
0.0
  0
LINE
  5
14F
330
1F
100
AcDbEntity
  8
0
  6
Continuous
 62
     7
370
    15
100
AcDbLine
 10
52.3705710034
 20
33.2471248734
 30
0.0
 11
52.3705710034
 21
31.9971246685
 31
0.0
  0
LINE
  5
150
330
1F
100
AcDbEntity
  8
0
  6
Continuous
 62
     7
370
    15
100
AcDbLine
 10
52.1705708775
 20
33.2471248734
 30
0.0
 11
51.8705709214
 21
33.2471248734
 31
0.0
  0
LINE
  5
151
330
1F
100
AcDbEntity
  8
0
  6
Continuous
 62
     7
370
    15
100
AcDbLine
 10
52.1705708775
 20
31.9971246685
 30
0.0
 11
52.1705708775
 21
33.2471248734
 31
0.0
  0
LINE
  5
152
330
1F
100
AcDbEntity
  8
0
  6
Continuous
 62
     7
370
    15
100
AcDbLine
 10
51.8705709214
 20
31.9971246685
 30
0.0
 11
52.1705708775
 21
31.9971246685
 31
0.0
  0
LINE
  5
153
330
1F
100
AcDbEntity
  8
0
  6
Continuous
 62
     7
370
    15
100
AcDbLine
 10
51.8705709214
 20
33.2471248734
 30
0.0
 11
51.8705709214
 21
31.9971246685
 31
0.0
  0
LINE
  5
154
330
1F
100
AcDbEntity
  8
0
  6
Continuous
 62
     7
370
    15
100
AcDbLine
 10
51.6705707955
 20
33.2471248734
 30
0.0
 11
51.3705708395
 21
33.2471248734
 31
0.0
  0
LINE
  5
155
330
1F
100
AcDbEntity
  8
0
  6
Continuous
 62
     7
370
    15
100
AcDbLine
 10
51.6705707955
 20
31.9971246685
 30
0.0
 11
51.6705707955
 21
33.2471248734
 31
0.0
  0
LINE
  5
156
330
1F
100
AcDbEntity
  8
0
  6
Continuous
 62
     7
370
    15
100
AcDbLine
 10
51.3705708395
 20
31.9971246685
 30
0.0
 11
51.6705707955
 21
31.9971246685
 31
0.0
  0
LINE
  5
157
330
1F
100
AcDbEntity
  8
0
  6
Continuous
 62
     7
370
    15
100
AcDbLine
 10
51.3705708395
 20
33.2471248734
 30
0.0
 11
51.3705708395
 21
31.9971246685
 31
0.0
  0
LINE
  5
158
330
1F
100
AcDbEntity
  8
0
  6
Continuous
 62
     7
370
    15
100
AcDbLine
 10
51.1705707136
 20
33.2471248734
 30
0.0
 11
50.8705707575
 21
33.2471248734
 31
0.0
  0
LINE
  5
159
330
1F
100
AcDbEntity
  8
0
  6
Continuous
 62
     7
370
    15
100
AcDbLine
 10
51.1705707136
 20
31.9971246685
 30
0.0
 11
51.1705707136
 21
33.2471248734
 31
0.0
  0
LINE
  5
15A
330
1F
100
AcDbEntity
  8
0
  6
Continuous
 62
     7
370
    15
100
AcDbLine
 10
50.8705707575
 20
31.9971246685
 30
0.0
 11
51.1705707136
 21
31.9971246685
 31
0.0
  0
LINE
  5
15B
330
1F
100
AcDbEntity
  8
0
  6
Continuous
 62
     7
370
    15
100
AcDbLine
 10
50.8705707575
 20
33.2471248734
 30
0.0
 11
50.8705707575
 21
31.9971246685
 31
0.0
  0
LINE
  5
15C
330
1F
100
AcDbEntity
  8
0
  6
Continuous
 62
     7
370
    15
100
AcDbLine
 10
50.6705708644
 20
33.2471248734
 30
0.0
 11
50.3705709084
 21
33.2471248734
 31
0.0
  0
LINE
  5
15D
330
1F
100
AcDbEntity
  8
0
  6
Continuous
 62
     7
370
    15
100
AcDbLine
 10
50.6705708644
 20
31.9971246685
 30
0.0
 11
50.6705708644
 21
33.2471248734
 31
0.0
  0
LINE
  5
15E
330
1F
100
AcDbEntity
  8
0
  6
Continuous
 62
     7
370
    15
100
AcDbLine
 10
50.3705709084
 20
31.9971246685
 30
0.0
 11
50.6705708644
 21
31.9971246685
 31
0.0
  0
LINE
  5
15F
330
1F
100
AcDbEntity
  8
0
  6
Continuous
 62
     7
370
    15
100
AcDbLine
 10
50.3705709084
 20
33.2471248734
 30
0.0
 11
50.3705709084
 21
31.9971246685
 31
0.0
  0
LINE
  5
160
330
1F
100
AcDbEntity
  8
0
  6
Continuous
 62
     7
370
    15
100
AcDbLine
 10
50.1705707825
 20
33.2471248734
 30
0.0
 11
49.8705708264
 21
33.2471248734
 31
0.0
  0
LINE
  5
161
330
1F
100
AcDbEntity
  8
0
  6
Continuous
 62
     7
370
    15
100
AcDbLine
 10
50.1705707825
 20
31.9971246685
 30
0.0
 11
50.1705707825
 21
33.2471248734
 31
0.0
  0
LINE
  5
162
330
1F
100
AcDbEntity
  8
0
  6
Continuous
 62
     7
370
    15
100
AcDbLine
 10
49.8705708264
 20
31.9971246685
 30
0.0
 11
50.1705707825
 21
31.9971246685
 31
0.0
  0
LINE
  5
163
330
1F
100
AcDbEntity
  8
0
  6
Continuous
 62
     7
370
    15
100
AcDbLine
 10
49.8705708264
 20
33.2471248734
 30
0.0
 11
49.8705708264
 21
31.9971246685
 31
0.0
  0
LINE
  5
164
330
1F
100
AcDbEntity
  8
0
  6
Continuous
 62
     7
370
    15
100
AcDbLine
 10
49.6705709333
 20
33.2471248734
 30
0.0
 11
49.3705707445
 21
33.2471248734
 31
0.0
  0
LINE
  5
165
330
1F
100
AcDbEntity
  8
0
  6
Continuous
 62
     7
370
    15
100
AcDbLine
 10
49.6705709333
 20
31.9971246685
 30
0.0
 11
49.6705709333
 21
33.2471248734
 31
0.0
  0
LINE
  5
166
330
1F
100
AcDbEntity
  8
0
  6
Continuous
 62
     7
370
    15
100
AcDbLine
 10
49.3705707445
 20
31.9971246685
 30
0.0
 11
49.6705709333
 21
31.9971246685
 31
0.0
  0
LINE
  5
167
330
1F
100
AcDbEntity
  8
0
  6
Continuous
 62
     7
370
    15
100
AcDbLine
 10
49.3705707445
 20
33.2471248734
 30
0.0
 11
49.3705707445
 21
31.9971246685
 31
0.0
  0
LINE
  5
168
330
1F
100
AcDbEntity
  8
0
  6
Continuous
 62
     7
370
    15
100
AcDbLine
 10
49.1705708514
 20
33.2471248734
 30
0.0
 11
48.8705707789
 21
33.2471248734
 31
0.0
  0
LINE
  5
169
330
1F
100
AcDbEntity
  8
0
  6
Continuous
 62
     7
370
    15
100
AcDbLine
 10
49.1705708514
 20
31.9971246685
 30
0.0
 11
49.1705708514
 21
33.2471248734
 31
0.0
  0
LINE
  5
16A
330
1F
100
AcDbEntity
  8
0
  6
Continuous
 62
     7
370
    15
100
AcDbLine
 10
48.8705707789
 20
31.9971246685
 30
0.0
 11
49.1705708514
 21
31.9971246685
 31
0.0
  0
LINE
  5
16B
330
1F
100
AcDbEntity
  8
0
  6
Continuous
 62
     7
370
    15
100
AcDbLine
 10
48.8705707789
 20
33.2471248734
 30
0.0
 11
48.8705707789
 21
31.9971246685
 31
0.0
  0
LINE
  5
16C
330
1F
100
AcDbEntity
  8
0
  6
Continuous
 62
     7
370
    15
100
AcDbLine
 10
48.6705707694
 20
33.2471248734
 30
0.0
 11
48.3705708134
 21
33.2471248734
 31
0.0
  0
LINE
  5
16D
330
1F
100
AcDbEntity
  8
0
  6
Continuous
 62
     7
370
    15
100
AcDbLine
 10
48.6705707694
 20
31.9971246685
 30
0.0
 11
48.6705707694
 21
33.2471248734
 31
0.0
  0
LINE
  5
16E
330
1F
100
AcDbEntity
  8
0
  6
Continuous
 62
     7
370
    15
100
AcDbLine
 10
48.3705708134
 20
31.9971246685
 30
0.0
 11
48.6705707694
 21
31.9971246685
 31
0.0
  0
LINE
  5
16F
330
1F
100
AcDbEntity
  8
0
  6
Continuous
 62
     7
370
    15
100
AcDbLine
 10
48.3705708134
 20
33.2471248734
 30
0.0
 11
48.3705708134
 21
31.9971246685
 31
0.0
  0
LINE
  5
170
330
1F
100
AcDbEntity
  8
0
  6
Continuous
 62
     7
370
    15
100
AcDbLine
 10
48.1705708039
 20
33.2471248734
 30
0.0
 11
47.8705708479
 21
33.2471248734
 31
0.0
  0
LINE
  5
171
330
1F
100
AcDbEntity
  8
0
  6
Continuous
 62
     7
370
    15
100
AcDbLine
 10
48.1705708039
 20
31.9971246685
 30
0.0
 11
48.1705708039
 21
33.2471248734
 31
0.0
  0
LINE
  5
172
330
1F
100
AcDbEntity
  8
0
  6
Continuous
 62
     7
370
    15
100
AcDbLine
 10
47.8705708479
 20
31.9971246685
 30
0.0
 11
48.1705708039
 21
31.9971246685
 31
0.0
  0
LINE
  5
173
330
1F
100
AcDbEntity
  8
0
  6
Continuous
 62
     7
370
    15
100
AcDbLine
 10
47.8705708479
 20
33.2471248734
 30
0.0
 11
47.8705708479
 21
31.9971246685
 31
0.0
  0
LINE
  5
174
330
1F
100
AcDbEntity
  8
0
  6
Continuous
 62
     7
370
    15
100
AcDbLine
 10
47.6705708092
 20
33.2471248734
 30
0.0
 11
47.3705708168
 21
33.2471248734
 31
0.0
  0
LINE
  5
175
330
1F
100
AcDbEntity
  8
0
  6
Continuous
 62
     7
370
    15
100
AcDbLine
 10
47.6705708092
 20
31.9971246685
 30
0.0
 11
47.6705708092
 21
33.2471248734
 31
0.0
  0
LINE
  5
176
330
1F
100
AcDbEntity
  8
0
  6
Continuous
 62
     7
370
    15
100
AcDbLine
 10
47.3705708168
 20
31.9971246685
 30
0.0
 11
47.6705708092
 21
31.9971246685
 31
0.0
  0
LINE
  5
177
330
1F
100
AcDbEntity
  8
0
  6
Continuous
 62
     7
370
    15
100
AcDbLine
 10
47.3705708168
 20
33.2471248734
 30
0.0
 11
47.3705708168
 21
31.9971246685
 31
0.0
  0
LINE
  5
178
330
1F
100
AcDbEntity
  8
0
  6
Continuous
 62
     7
370
    15
100
AcDbLine
 10
47.1705708219
 20
33.2471248734
 30
0.0
 11
46.8705708295
 21
33.2471248734
 31
0.0
  0
LINE
  5
179
330
1F
100
AcDbEntity
  8
0
  6
Continuous
 62
     7
370
    15
100
AcDbLine
 10
47.1705708219
 20
31.9971246685
 30
0.0
 11
47.1705708219
 21
33.2471248734
 31
0.0
  0
LINE
  5
17A
330
1F
100
AcDbEntity
  8
0
  6
Continuous
 62
     7
370
    15
100
AcDbLine
 10
46.8705708295
 20
31.9971246685
 30
0.0
 11
47.1705708219
 21
31.9971246685
 31
0.0
  0
LINE
  5
17B
330
1F
100
AcDbEntity
  8
0
  6
Continuous
 62
     7
370
    15
100
AcDbLine
 10
46.8705708295
 20
33.2471248734
 30
0.0
 11
46.8705708295
 21
31.9971246685
 31
0.0
  0
LINE
  5
17C
330
1F
100
AcDbEntity
  8
0
  6
Continuous
 62
     7
370
    15
100
AcDbLine
 10
46.6705707909
 20
33.2471248734
 30
0.0
 11
46.3705708348
 21
33.2471248734
 31
0.0
  0
LINE
  5
17D
330
1F
100
AcDbEntity
  8
0
  6
Continuous
 62
     7
370
    15
100
AcDbLine
 10
46.6705707909
 20
31.9971246685
 30
0.0
 11
46.6705707909
 21
33.2471248734
 31
0.0
  0
LINE
  5
17E
330
1F
100
AcDbEntity
  8
0
  6
Continuous
 62
     7
370
    15
100
AcDbLine
 10
46.3705708348
 20
31.9971246685
 30
0.0
 11
46.6705707909
 21
31.9971246685
 31
0.0
  0
LINE
  5
17F
330
1F
100
AcDbEntity
  8
0
  6
Continuous
 62
     7
370
    15
100
AcDbLine
 10
46.3705708348
 20
33.2471248734
 30
0.0
 11
46.3705708348
 21
31.9971246685
 31
0.0
  0
LINE
  5
180
330
1F
100
AcDbEntity
  8
0
  6
Continuous
 62
     7
370
    15
100
AcDbLine
 10
46.1705708253
 20
33.2471248734
 30
0.0
 11
45.8705708693
 21
33.2471248734
 31
0.0
  0
LINE
  5
181
330
1F
100
AcDbEntity
  8
0
  6
Continuous
 62
     7
370
    15
100
AcDbLine
 10
46.1705708253
 20
31.9971246685
 30
0.0
 11
46.1705708253
 21
33.2471248734
 31
0.0
  0
LINE
  5
182
330
1F
100
AcDbEntity
  8
0
  6
Continuous
 62
     7
370
    15
100
AcDbLine
 10
45.8705708693
 20
31.9971246685
 30
0.0
 11
46.1705708253
 21
31.9971246685
 31
0.0
  0
LINE
  5
183
330
1F
100
AcDbEntity
  8
0
  6
Continuous
 62
     7
370
    15
100
AcDbLine
 10
45.8705708693
 20
33.2471248734
 30
0.0
 11
45.8705708693
 21
31.9971246685
 31
0.0
  0
LINE
  5
184
330
1F
100
AcDbEntity
  8
0
  6
Continuous
 62
     7
370
    15
100
AcDbLine
 10
45.6705708598
 20
33.2471248734
 30
0.0
 11
45.3705707873
 21
33.2471248734
 31
0.0
  0
LINE
  5
185
330
1F
100
AcDbEntity
  8
0
  6
Continuous
 62
     7
370
    15
100
AcDbLine
 10
45.6705708598
 20
31.9971246685
 30
0.0
 11
45.6705708598
 21
33.2471248734
 31
0.0
  0
LINE
  5
186
330
1F
100
AcDbEntity
  8
0
  6
Continuous
 62
     7
370
    15
100
AcDbLine
 10
45.3705707873
 20
31.9971246685
 30
0.0
 11
45.6705708598
 21
31.9971246685
 31
0.0
  0
LINE
  5
187
330
1F
100
AcDbEntity
  8
0
  6
Continuous
 62
     7
370
    15
100
AcDbLine
 10
45.3705707873
 20
33.2471248734
 30
0.0
 11
45.3705707873
 21
31.9971246685
 31
0.0
  0
LINE
  5
188
330
1F
100
AcDbEntity
  8
0
  6
Continuous
 62
     7
370
    15
100
AcDbLine
 10
45.1705708942
 20
33.2471248734
 30
0.0
 11
44.8705707054
 21
33.2471248734
 31
0.0
  0
LINE
  5
189
330
1F
100
AcDbEntity
  8
0
  6
Continuous
 62
     7
370
    15
100
AcDbLine
 10
45.1705708942
 20
31.9971246685
 30
0.0
 11
45.1705708942
 21
33.2471248734
 31
0.0
  0
LINE
  5
18A
330
1F
100
AcDbEntity
  8
0
  6
Continuous
 62
     7
370
    15
100
AcDbLine
 10
44.8705707054
 20
31.9971246685
 30
0.0
 11
45.1705708942
 21
31.9971246685
 31
0.0
  0
LINE
  5
18B
330
1F
100
AcDbEntity
  8
0
  6
Continuous
 62
     7
370
    15
100
AcDbLine
 10
44.8705707054
 20
33.2471248734
 30
0.0
 11
44.8705707054
 21
31.9971246685
 31
0.0
  0
LINE
  5
18C
330
1F
100
AcDbEntity
  8
0
  6
Continuous
 62
     7
370
    15
100
AcDbLine
 10
44.6705708123
 20
33.2471248734
 30
0.0
 11
44.3705708562
 21
33.2471248734
 31
0.0
  0
LINE
  5
18D
330
1F
100
AcDbEntity
  8
0
  6
Continuous
 62
     7
370
    15
100
AcDbLine
 10
44.6705708123
 20
31.9971246685
 30
0.0
 11
44.6705708123
 21
33.2471248734
 31
0.0
  0
LINE
  5
18E
330
1F
100
AcDbEntity
  8
0
  6
Continuous
 62
     7
370
    15
100
AcDbLine
 10
44.3705708562
 20
31.9971246685
 30
0.0
 11
44.6705708123
 21
31.9971246685
 31
0.0
  0
LINE
  5
18F
330
1F
100
AcDbEntity
  8
0
  6
Continuous
 62
     7
370
    15
100
AcDbLine
 10
44.3705708562
 20
33.2471248734
 30
0.0
 11
44.3705708562
 21
31.9971246685
 31
0.0
  0
LINE
  5
190
330
1F
100
AcDbEntity
  8
0
  6
Continuous
 62
     7
370
    15
100
AcDbLine
 10
44.1705707303
 20
33.2471248734
 30
0.0
 11
43.8705707743
 21
33.2471248734
 31
0.0
  0
LINE
  5
191
330
1F
100
AcDbEntity
  8
0
  6
Continuous
 62
     7
370
    15
100
AcDbLine
 10
44.1705707303
 20
31.9971246685
 30
0.0
 11
44.1705707303
 21
33.2471248734
 31
0.0
  0
LINE
  5
192
330
1F
100
AcDbEntity
  8
0
  6
Continuous
 62
     7
370
    15
100
AcDbLine
 10
43.8705707743
 20
31.9971246685
 30
0.0
 11
44.1705707303
 21
31.9971246685
 31
0.0
  0
LINE
  5
193
330
1F
100
AcDbEntity
  8
0
  6
Continuous
 62
     7
370
    15
100
AcDbLine
 10
43.8705707743
 20
33.2471248734
 30
0.0
 11
43.8705707743
 21
31.9971246685
 31
0.0
  0
LINE
  5
194
330
1F
100
AcDbEntity
  8
0
  6
Continuous
 62
     7
370
    15
100
AcDbLine
 10
43.6705708812
 20
33.2471248734
 30
0.0
 11
43.3705709252
 21
33.2471248734
 31
0.0
  0
LINE
  5
195
330
1F
100
AcDbEntity
  8
0
  6
Continuous
 62
     7
370
    15
100
AcDbLine
 10
43.6705708812
 20
31.9971246685
 30
0.0
 11
43.6705708812
 21
33.2471248734
 31
0.0
  0
LINE
  5
196
330
1F
100
AcDbEntity
  8
0
  6
Continuous
 62
     7
370
    15
100
AcDbLine
 10
43.3705709252
 20
31.9971246685
 30
0.0
 11
43.6705708812
 21
31.9971246685
 31
0.0
  0
LINE
  5
197
330
1F
100
AcDbEntity
  8
0
  6
Continuous
 62
     7
370
    15
100
AcDbLine
 10
43.3705709252
 20
33.2471248734
 30
0.0
 11
43.3705709252
 21
31.9971246685
 31
0.0
  0
LINE
  5
198
330
1F
100
AcDbEntity
  8
0
  6
Continuous
 62
     7
370
    15
100
AcDbLine
 10
43.1705707992
 20
33.2471248734
 30
0.0
 11
42.8705708432
 21
33.2471248734
 31
0.0
  0
LINE
  5
199
330
1F
100
AcDbEntity
  8
0
  6
Continuous
 62
     7
370
    15
100
AcDbLine
 10
43.1705707992
 20
31.9971246685
 30
0.0
 11
43.1705707992
 21
33.2471248734
 31
0.0
  0
LINE
  5
19A
330
1F
100
AcDbEntity
  8
0
  6
Continuous
 62
     7
370
    15
100
AcDbLine
 10
42.8705708432
 20
31.9971246685
 30
0.0
 11
43.1705707992
 21
31.9971246685
 31
0.0
  0
LINE
  5
19B
330
1F
100
AcDbEntity
  8
0
  6
Continuous
 62
     7
370
    15
100
AcDbLine
 10
42.8705708432
 20
33.2471248734
 30
0.0
 11
42.8705708432
 21
31.9971246685
 31
0.0
  0
LINE
  5
19C
330
1F
100
AcDbEntity
  8
0
  6
Continuous
 62
     7
370
    15
100
AcDbLine
 10
42.6705707173
 20
33.2471248734
 30
0.0
 11
42.3705707612
 21
33.2471248734
 31
0.0
  0
LINE
  5
19D
330
1F
100
AcDbEntity
  8
0
  6
Continuous
 62
     7
370
    15
100
AcDbLine
 10
42.6705707173
 20
31.9971246685
 30
0.0
 11
42.6705707173
 21
33.2471248734
 31
0.0
  0
LINE
  5
19E
330
1F
100
AcDbEntity
  8
0
  6
Continuous
 62
     7
370
    15
100
AcDbLine
 10
42.3705707612
 20
31.9971246685
 30
0.0
 11
42.6705707173
 21
31.9971246685
 31
0.0
  0
LINE
  5
19F
330
1F
100
AcDbEntity
  8
0
  6
Continuous
 62
     7
370
    15
100
AcDbLine
 10
42.3705707612
 20
33.2471248734
 30
0.0
 11
42.3705707612
 21
31.9971246685
 31
0.0
  0
LINE
  5
1A0
330
1F
100
AcDbEntity
  8
0
  6
Continuous
 62
     7
370
    15
100
AcDbLine
 10
42.1705706353
 20
33.2471248734
 30
0.0
 11
41.8705706793
 21
33.2471248734
 31
0.0
  0
LINE
  5
1A1
330
1F
100
AcDbEntity
  8
0
  6
Continuous
 62
     7
370
    15
100
AcDbLine
 10
42.1705706353
 20
31.9971246685
 30
0.0
 11
42.1705706353
 21
33.2471248734
 31
0.0
  0
LINE
  5
1A2
330
1F
100
AcDbEntity
  8
0
  6
Continuous
 62
     7
370
    15
100
AcDbLine
 10
41.8705706793
 20
31.9971246685
 30
0.0
 11
42.1705706353
 21
31.9971246685
 31
0.0
  0
LINE
  5
1A3
330
1F
100
AcDbEntity
  8
0
  6
Continuous
 62
     7
370
    15
100
AcDbLine
 10
41.8705706793
 20
33.2471248734
 30
0.0
 11
41.8705706793
 21
31.9971246685
 31
0.0
  0
LINE
  5
1A4
330
1F
100
AcDbEntity
  8
0
  6
Continuous
 62
     7
370
    15
100
AcDbLine
 10
41.670571019
 20
33.2471248734
 30
0.0
 11
41.3705705973
 21
33.2471248734
 31
0.0
  0
LINE
  5
1A5
330
1F
100
AcDbEntity
  8
0
  6
Continuous
 62
     7
370
    15
100
AcDbLine
 10
41.670571019
 20
31.9971246685
 30
0.0
 11
41.670571019
 21
33.2471248734
 31
0.0
  0
LINE
  5
1A6
330
1F
100
AcDbEntity
  8
0
  6
Continuous
 62
     7
370
    15
100
AcDbLine
 10
41.3705705973
 20
31.9971246685
 30
0.0
 11
41.670571019
 21
31.9971246685
 31
0.0
  0
LINE
  5
1A7
330
1F
100
AcDbEntity
  8
0
  6
Continuous
 62
     7
370
    15
100
AcDbLine
 10
41.3705705973
 20
33.2471248734
 30
0.0
 11
41.3705705973
 21
31.9971246685
 31
0.0
  0
LINE
  5
1A8
330
1F
100
AcDbEntity
  8
0
  6
Continuous
 62
     7
370
    15
100
AcDbLine
 10
54.595570949
 20
39.6721249603
 30
0.0
 11
55.8455706882
 21
39.6721249603
 31
0.0
  0
LINE
  5
1A9
330
1F
100
AcDbEntity
  8
0
  6
Continuous
 62
     7
370
    15
100
AcDbLine
 10
54.595570949
 20
39.9721249746
 30
0.0
 11
54.595570949
 21
39.6721249603
 31
0.0
  0
LINE
  5
1AA
330
1F
100
AcDbEntity
  8
0
  6
Continuous
 62
     7
370
    15
100
AcDbLine
 10
55.8455706882
 20
39.9721249746
 30
0.0
 11
54.595570949
 21
39.9721249746
 31
0.0
  0
LINE
  5
1AB
330
1F
100
AcDbEntity
  8
0
  6
Continuous
 62
     7
370
    15
100
AcDbLine
 10
55.8455706882
 20
39.6721249603
 30
0.0
 11
55.8455706882
 21
39.9721249746
 31
0.0
  0
LINE
  5
1AC
330
1F
100
AcDbEntity
  8
0
  6
Continuous
 62
     7
370
    15
100
AcDbLine
 10
54.595570949
 20
39.4721249508
 30
0.0
 11
54.595570949
 21
39.1721249366
 31
0.0
  0
LINE
  5
1AD
330
1F
100
AcDbEntity
  8
0
  6
Continuous
 62
     7
370
    15
100
AcDbLine
 10
55.8455706882
 20
39.4721249508
 30
0.0
 11
54.595570949
 21
39.4721249508
 31
0.0
  0
LINE
  5
1AE
330
1F
100
AcDbEntity
  8
0
  6
Continuous
 62
     7
370
    15
100
AcDbLine
 10
55.8455706882
 20
39.1721249366
 30
0.0
 11
55.8455706882
 21
39.4721249508
 31
0.0
  0
LINE
  5
1AF
330
1F
100
AcDbEntity
  8
0
  6
Continuous
 62
     7
370
    15
100
AcDbLine
 10
54.595570949
 20
39.1721249366
 30
0.0
 11
55.8455706882
 21
39.1721249366
 31
0.0
  0
LINE
  5
1B0
330
1F
100
AcDbEntity
  8
0
  6
Continuous
 62
     7
370
    15
100
AcDbLine
 10
54.595570949
 20
45.4721250612
 30
0.0
 11
54.595570949
 21
45.1721251051
 31
0.0
  0
LINE
  5
1B1
330
1F
100
AcDbEntity
  8
0
  6
Continuous
 62
     7
370
    15
100
AcDbLine
 10
55.8455706882
 20
45.4721250612
 30
0.0
 11
54.595570949
 21
45.4721250612
 31
0.0
  0
LINE
  5
1B2
330
1F
100
AcDbEntity
  8
0
  6
Continuous
 62
     7
370
    15
100
AcDbLine
 10
55.8455706882
 20
45.1721251051
 30
0.0
 11
55.8455706882
 21
45.4721250612
 31
0.0
  0
LINE
  5
1B3
330
1F
100
AcDbEntity
  8
0
  6
Continuous
 62
     7
370
    15
100
AcDbLine
 10
54.595570949
 20
45.1721251051
 30
0.0
 11
55.8455706882
 21
45.1721251051
 31
0.0
  0
LINE
  5
1B4
330
1F
100
AcDbEntity
  8
0
  6
Continuous
 62
     7
370
    15
100
AcDbLine
 10
54.595570949
 20
44.9721249792
 30
0.0
 11
54.595570949
 21
44.6721250232
 31
0.0
  0
LINE
  5
1B5
330
1F
100
AcDbEntity
  8
0
  6
Continuous
 62
     7
370
    15
100
AcDbLine
 10
55.8455706882
 20
44.9721249792
 30
0.0
 11
54.595570949
 21
44.9721249792
 31
0.0
  0
LINE
  5
1B6
330
1F
100
AcDbEntity
  8
0
  6
Continuous
 62
     7
370
    15
100
AcDbLine
 10
55.8455706882
 20
44.6721250232
 30
0.0
 11
55.8455706882
 21
44.9721249792
 31
0.0
  0
LINE
  5
1B7
330
1F
100
AcDbEntity
  8
0
  6
Continuous
 62
     7
370
    15
100
AcDbLine
 10
54.595570949
 20
44.6721250232
 30
0.0
 11
55.8455706882
 21
44.6721250232
 31
0.0
  0
LINE
  5
1B8
330
1F
100
AcDbEntity
  8
0
  6
Continuous
 62
     7
370
    15
100
AcDbLine
 10
54.595570949
 20
44.4721248973
 30
0.0
 11
54.595570949
 21
44.1721249412
 31
0.0
  0
LINE
  5
1B9
330
1F
100
AcDbEntity
  8
0
  6
Continuous
 62
     7
370
    15
100
AcDbLine
 10
55.8455706882
 20
44.4721248973
 30
0.0
 11
54.595570949
 21
44.4721248973
 31
0.0
  0
LINE
  5
1BA
330
1F
100
AcDbEntity
  8
0
  6
Continuous
 62
     7
370
    15
100
AcDbLine
 10
55.8455706882
 20
44.1721249412
 30
0.0
 11
55.8455706882
 21
44.4721248973
 31
0.0
  0
LINE
  5
1BB
330
1F
100
AcDbEntity
  8
0
  6
Continuous
 62
     7
370
    15
100
AcDbLine
 10
54.595570949
 20
44.1721249412
 30
0.0
 11
55.8455706882
 21
44.1721249412
 31
0.0
  0
LINE
  5
1BC
330
1F
100
AcDbEntity
  8
0
  6
Continuous
 62
     7
370
    15
100
AcDbLine
 10
54.595570949
 20
43.9721250481
 30
0.0
 11
54.595570949
 21
43.6721248593
 31
0.0
  0
LINE
  5
1BD
330
1F
100
AcDbEntity
  8
0
  6
Continuous
 62
     7
370
    15
100
AcDbLine
 10
55.8455706882
 20
43.9721250481
 30
0.0
 11
54.595570949
 21
43.9721250481
 31
0.0
  0
LINE
  5
1BE
330
1F
100
AcDbEntity
  8
0
  6
Continuous
 62
     7
370
    15
100
AcDbLine
 10
55.8455706882
 20
43.6721248593
 30
0.0
 11
55.8455706882
 21
43.9721250481
 31
0.0
  0
LINE
  5
1BF
330
1F
100
AcDbEntity
  8
0
  6
Continuous
 62
     7
370
    15
100
AcDbLine
 10
54.595570949
 20
43.6721248593
 30
0.0
 11
55.8455706882
 21
43.6721248593
 31
0.0
  0
LINE
  5
1C0
330
1F
100
AcDbEntity
  8
0
  6
Continuous
 62
     7
370
    15
100
AcDbLine
 10
54.595570949
 20
43.4721249662
 30
0.0
 11
54.595570949
 21
43.1721250101
 31
0.0
  0
LINE
  5
1C1
330
1F
100
AcDbEntity
  8
0
  6
Continuous
 62
     7
370
    15
100
AcDbLine
 10
55.8455706882
 20
43.4721249662
 30
0.0
 11
54.595570949
 21
43.4721249662
 31
0.0
  0
LINE
  5
1C2
330
1F
100
AcDbEntity
  8
0
  6
Continuous
 62
     7
370
    15
100
AcDbLine
 10
55.8455706882
 20
43.1721250101
 30
0.0
 11
55.8455706882
 21
43.4721249662
 31
0.0
  0
LINE
  5
1C3
330
1F
100
AcDbEntity
  8
0
  6
Continuous
 62
     7
370
    15
100
AcDbLine
 10
54.595570949
 20
43.1721250101
 30
0.0
 11
55.8455706882
 21
43.1721250101
 31
0.0
  0
LINE
  5
1C4
330
1F
100
AcDbEntity
  8
0
  6
Continuous
 62
     7
370
    15
100
AcDbLine
 10
54.595570949
 20
42.9721248842
 30
0.0
 11
54.595570949
 21
42.6721249282
 31
0.0
  0
LINE
  5
1C5
330
1F
100
AcDbEntity
  8
0
  6
Continuous
 62
     7
370
    15
100
AcDbLine
 10
55.8455706882
 20
42.9721248842
 30
0.0
 11
54.595570949
 21
42.9721248842
 31
0.0
  0
LINE
  5
1C6
330
1F
100
AcDbEntity
  8
0
  6
Continuous
 62
     7
370
    15
100
AcDbLine
 10
55.8455706882
 20
42.6721249282
 30
0.0
 11
55.8455706882
 21
42.9721248842
 31
0.0
  0
LINE
  5
1C7
330
1F
100
AcDbEntity
  8
0
  6
Continuous
 62
     7
370
    15
100
AcDbLine
 10
54.595570949
 20
42.6721249282
 30
0.0
 11
55.8455706882
 21
42.6721249282
 31
0.0
  0
LINE
  5
1C8
330
1F
100
AcDbEntity
  8
0
  6
Continuous
 62
     7
370
    15
100
AcDbLine
 10
54.595570949
 20
42.4721250351
 30
0.0
 11
54.595570949
 21
42.1721249626
 31
0.0
  0
LINE
  5
1C9
330
1F
100
AcDbEntity
  8
0
  6
Continuous
 62
     7
370
    15
100
AcDbLine
 10
55.8455706882
 20
42.4721250351
 30
0.0
 11
54.595570949
 21
42.4721250351
 31
0.0
  0
LINE
  5
1CA
330
1F
100
AcDbEntity
  8
0
  6
Continuous
 62
     7
370
    15
100
AcDbLine
 10
55.8455706882
 20
42.1721249626
 30
0.0
 11
55.8455706882
 21
42.4721250351
 31
0.0
  0
LINE
  5
1CB
330
1F
100
AcDbEntity
  8
0
  6
Continuous
 62
     7
370
    15
100
AcDbLine
 10
54.595570949
 20
42.1721249626
 30
0.0
 11
55.8455706882
 21
42.1721249626
 31
0.0
  0
LINE
  5
1CC
330
1F
100
AcDbEntity
  8
0
  6
Continuous
 62
     7
370
    15
100
AcDbLine
 10
54.595570949
 20
41.9721249531
 30
0.0
 11
54.595570949
 21
41.6721249971
 31
0.0
  0
LINE
  5
1CD
330
1F
100
AcDbEntity
  8
0
  6
Continuous
 62
     7
370
    15
100
AcDbLine
 10
55.8455706882
 20
41.9721249531
 30
0.0
 11
54.595570949
 21
41.9721249531
 31
0.0
  0
LINE
  5
1CE
330
1F
100
AcDbEntity
  8
0
  6
Continuous
 62
     7
370
    15
100
AcDbLine
 10
55.8455706882
 20
41.6721249971
 30
0.0
 11
55.8455706882
 21
41.9721249531
 31
0.0
  0
LINE
  5
1CF
330
1F
100
AcDbEntity
  8
0
  6
Continuous
 62
     7
370
    15
100
AcDbLine
 10
54.595570949
 20
41.6721249971
 30
0.0
 11
55.8455706882
 21
41.6721249971
 31
0.0
  0
LINE
  5
1D0
330
1F
100
AcDbEntity
  8
0
  6
Continuous
 62
     7
370
    15
100
AcDbLine
 10
54.595570949
 20
41.4721249876
 30
0.0
 11
54.595570949
 21
41.1721249734
 31
0.0
  0
LINE
  5
1D1
330
1F
100
AcDbEntity
  8
0
  6
Continuous
 62
     7
370
    15
100
AcDbLine
 10
55.8455706882
 20
41.4721249876
 30
0.0
 11
54.595570949
 21
41.4721249876
 31
0.0
  0
LINE
  5
1D2
330
1F
100
AcDbEntity
  8
0
  6
Continuous
 62
     7
370
    15
100
AcDbLine
 10
55.8455706882
 20
41.1721249734
 30
0.0
 11
55.8455706882
 21
41.4721249876
 31
0.0
  0
LINE
  5
1D3
330
1F
100
AcDbEntity
  8
0
  6
Continuous
 62
     7
370
    15
100
AcDbLine
 10
54.595570949
 20
41.1721249734
 30
0.0
 11
55.8455706882
 21
41.1721249734
 31
0.0
  0
LINE
  5
1D4
330
1F
100
AcDbEntity
  8
0
  6
Continuous
 62
     7
370
    15
100
AcDbLine
 10
54.595570949
 20
40.9721249639
 30
0.0
 11
54.595570949
 21
40.6721249496
 31
0.0
  0
LINE
  5
1D5
330
1F
100
AcDbEntity
  8
0
  6
Continuous
 62
     7
370
    15
100
AcDbLine
 10
55.8455706882
 20
40.9721249639
 30
0.0
 11
54.595570949
 21
40.9721249639
 31
0.0
  0
LINE
  5
1D6
330
1F
100
AcDbEntity
  8
0
  6
Continuous
 62
     7
370
    15
100
AcDbLine
 10
55.8455706882
 20
40.6721249496
 30
0.0
 11
55.8455706882
 21
40.9721249639
 31
0.0
  0
LINE
  5
1D7
330
1F
100
AcDbEntity
  8
0
  6
Continuous
 62
     7
370
    15
100
AcDbLine
 10
54.595570949
 20
40.6721249496
 30
0.0
 11
55.8455706882
 21
40.6721249496
 31
0.0
  0
LINE
  5
1D8
330
1F
100
AcDbEntity
  8
0
  6
Continuous
 62
     7
370
    15
100
AcDbLine
 10
54.595570949
 20
40.4721249692
 30
0.0
 11
54.595570949
 21
40.172124955
 31
0.0
  0
LINE
  5
1D9
330
1F
100
AcDbEntity
  8
0
  6
Continuous
 62
     7
370
    15
100
AcDbLine
 10
55.8455706882
 20
40.4721249692
 30
0.0
 11
54.595570949
 21
40.4721249692
 31
0.0
  0
LINE
  5
1DA
330
1F
100
AcDbEntity
  8
0
  6
Continuous
 62
     7
370
    15
100
AcDbLine
 10
55.8455706882
 20
40.172124955
 30
0.0
 11
55.8455706882
 21
40.4721249692
 31
0.0
  0
LINE
  5
1DB
330
1F
100
AcDbEntity
  8
0
  6
Continuous
 62
     7
370
    15
100
AcDbLine
 10
54.595570949
 20
40.172124955
 30
0.0
 11
55.8455706882
 21
40.172124955
 31
0.0
  0
LINE
  5
1DC
330
1F
100
AcDbEntity
  8
0
  6
Continuous
 62
     7
370
    15
100
AcDbLine
 10
55.8455706882
 20
36.9721250649
 30
0.0
 11
54.595570949
 21
36.9721250649
 31
0.0
  0
LINE
  5
1DD
330
1F
100
AcDbEntity
  8
0
  6
Continuous
 62
     7
370
    15
100
AcDbLine
 10
55.8455706882
 20
36.672124876
 30
0.0
 11
55.8455706882
 21
36.9721250649
 31
0.0
  0
LINE
  5
1DE
330
1F
100
AcDbEntity
  8
0
  6
Continuous
 62
     7
370
    15
100
AcDbLine
 10
54.595570949
 20
36.672124876
 30
0.0
 11
55.8455706882
 21
36.672124876
 31
0.0
  0
LINE
  5
1DF
330
1F
100
AcDbEntity
  8
0
  6
Continuous
 62
     7
370
    15
100
AcDbLine
 10
54.595570949
 20
36.9721250649
 30
0.0
 11
54.595570949
 21
36.672124876
 31
0.0
  0
LINE
  5
1E0
330
1F
100
AcDbEntity
  8
0
  6
Continuous
 62
     7
370
    15
100
AcDbLine
 10
54.595570949
 20
36.472124983
 30
0.0
 11
54.595570949
 21
36.1721250269
 31
0.0
  0
LINE
  5
1E1
330
1F
100
AcDbEntity
  8
0
  6
Continuous
 62
     7
370
    15
100
AcDbLine
 10
55.8455706882
 20
36.472124983
 30
0.0
 11
54.595570949
 21
36.472124983
 31
0.0
  0
LINE
  5
1E2
330
1F
100
AcDbEntity
  8
0
  6
Continuous
 62
     7
370
    15
100
AcDbLine
 10
55.8455706882
 20
36.1721250269
 30
0.0
 11
55.8455706882
 21
36.472124983
 31
0.0
  0
LINE
  5
1E3
330
1F
100
AcDbEntity
  8
0
  6
Continuous
 62
     7
370
    15
100
AcDbLine
 10
54.595570949
 20
36.1721250269
 30
0.0
 11
55.8455706882
 21
36.1721250269
 31
0.0
  0
LINE
  5
1E4
330
1F
100
AcDbEntity
  8
0
  6
Continuous
 62
     7
370
    15
100
AcDbLine
 10
54.595570949
 20
38.9721249271
 30
0.0
 11
54.595570949
 21
38.672124971
 31
0.0
  0
LINE
  5
1E5
330
1F
100
AcDbEntity
  8
0
  6
Continuous
 62
     7
370
    15
100
AcDbLine
 10
55.8455706882
 20
38.9721249271
 30
0.0
 11
54.595570949
 21
38.9721249271
 31
0.0
  0
LINE
  5
1E6
330
1F
100
AcDbEntity
  8
0
  6
Continuous
 62
     7
370
    15
100
AcDbLine
 10
55.8455706882
 20
38.672124971
 30
0.0
 11
55.8455706882
 21
38.9721249271
 31
0.0
  0
LINE
  5
1E7
330
1F
100
AcDbEntity
  8
0
  6
Continuous
 62
     7
370
    15
100
AcDbLine
 10
54.595570949
 20
38.672124971
 30
0.0
 11
55.8455706882
 21
38.672124971
 31
0.0
  0
LINE
  5
1E8
330
1F
100
AcDbEntity
  8
0
  6
Continuous
 62
     7
370
    15
100
AcDbLine
 10
54.595570949
 20
38.4721249615
 30
0.0
 11
54.595570949
 21
38.1721248891
 31
0.0
  0
LINE
  5
1E9
330
1F
100
AcDbEntity
  8
0
  6
Continuous
 62
     7
370
    15
100
AcDbLine
 10
55.8455706882
 20
38.4721249615
 30
0.0
 11
54.595570949
 21
38.4721249615
 31
0.0
  0
LINE
  5
1EA
330
1F
100
AcDbEntity
  8
0
  6
Continuous
 62
     7
370
    15
100
AcDbLine
 10
55.8455706882
 20
38.1721248891
 30
0.0
 11
55.8455706882
 21
38.4721249615
 31
0.0
  0
LINE
  5
1EB
330
1F
100
AcDbEntity
  8
0
  6
Continuous
 62
     7
370
    15
100
AcDbLine
 10
54.595570949
 20
38.1721248891
 30
0.0
 11
55.8455706882
 21
38.1721248891
 31
0.0
  0
LINE
  5
1EC
330
1F
100
AcDbEntity
  8
0
  6
Continuous
 62
     7
370
    15
100
AcDbLine
 10
54.595570949
 20
37.972124996
 30
0.0
 11
54.595570949
 21
37.6721250399
 31
0.0
  0
LINE
  5
1ED
330
1F
100
AcDbEntity
  8
0
  6
Continuous
 62
     7
370
    15
100
AcDbLine
 10
55.8455706882
 20
37.972124996
 30
0.0
 11
54.595570949
 21
37.972124996
 31
0.0
  0
LINE
  5
1EE
330
1F
100
AcDbEntity
  8
0
  6
Continuous
 62
     7
370
    15
100
AcDbLine
 10
55.8455706882
 20
37.6721250399
 30
0.0
 11
55.8455706882
 21
37.972124996
 31
0.0
  0
LINE
  5
1EF
330
1F
100
AcDbEntity
  8
0
  6
Continuous
 62
     7
370
    15
100
AcDbLine
 10
54.595570949
 20
37.6721250399
 30
0.0
 11
55.8455706882
 21
37.6721250399
 31
0.0
  0
LINE
  5
1F0
330
1F
100
AcDbEntity
  8
0
  6
Continuous
 62
     7
370
    15
100
AcDbLine
 10
54.595570949
 20
37.472124914
 30
0.0
 11
54.595570949
 21
37.172124958
 31
0.0
  0
LINE
  5
1F1
330
1F
100
AcDbEntity
  8
0
  6
Continuous
 62
     7
370
    15
100
AcDbLine
 10
55.8455706882
 20
37.472124914
 30
0.0
 11
54.595570949
 21
37.472124914
 31
0.0
  0
LINE
  5
1F2
330
1F
100
AcDbEntity
  8
0
  6
Continuous
 62
     7
370
    15
100
AcDbLine
 10
55.8455706882
 20
37.172124958
 30
0.0
 11
55.8455706882
 21
37.472124914
 31
0.0
  0
LINE
  5
1F3
330
1F
100
AcDbEntity
  8
0
  6
Continuous
 62
     7
370
    15
100
AcDbLine
 10
54.595570949
 20
37.172124958
 30
0.0
 11
55.8455706882
 21
37.172124958
 31
0.0
  0
LINE
  5
1F4
330
1F
100
AcDbEntity
  8
0
  6
Continuous
 62
     7
370
    15
100
AcDbLine
 10
54.595570949
 20
35.472124819
 30
0.0
 11
54.595570949
 21
35.172124863
 31
0.0
  0
LINE
  5
1F5
330
1F
100
AcDbEntity
  8
0
  6
Continuous
 62
     7
370
    15
100
AcDbLine
 10
55.8455706882
 20
35.472124819
 30
0.0
 11
54.595570949
 21
35.472124819
 31
0.0
  0
LINE
  5
1F6
330
1F
100
AcDbEntity
  8
0
  6
Continuous
 62
     7
370
    15
100
AcDbLine
 10
55.8455706882
 20
35.172124863
 30
0.0
 11
55.8455706882
 21
35.472124819
 31
0.0
  0
LINE
  5
1F7
330
1F
100
AcDbEntity
  8
0
  6
Continuous
 62
     7
370
    15
100
AcDbLine
 10
54.595570949
 20
35.172124863
 30
0.0
 11
55.8455706882
 21
35.172124863
 31
0.0
  0
LINE
  5
1F8
330
1F
100
AcDbEntity
  8
0
  6
Continuous
 62
     7
370
    15
100
AcDbLine
 10
54.595570949
 20
34.9721247371
 30
0.0
 11
54.595570949
 21
34.672124781
 31
0.0
  0
LINE
  5
1F9
330
1F
100
AcDbEntity
  8
0
  6
Continuous
 62
     7
370
    15
100
AcDbLine
 10
55.8455706882
 20
34.9721247371
 30
0.0
 11
54.595570949
 21
34.9721247371
 31
0.0
  0
LINE
  5
1FA
330
1F
100
AcDbEntity
  8
0
  6
Continuous
 62
     7
370
    15
100
AcDbLine
 10
55.8455706882
 20
34.672124781
 30
0.0
 11
55.8455706882
 21
34.9721247371
 31
0.0
  0
LINE
  5
1FB
330
1F
100
AcDbEntity
  8
0
  6
Continuous
 62
     7
370
    15
100
AcDbLine
 10
54.595570949
 20
34.672124781
 30
0.0
 11
55.8455706882
 21
34.672124781
 31
0.0
  0
LINE
  5
1FC
330
1F
100
AcDbEntity
  8
0
  6
Continuous
 62
     7
370
    15
100
AcDbLine
 10
54.595570949
 20
35.972124901
 30
0.0
 11
54.595570949
 21
35.672124945
 31
0.0
  0
LINE
  5
1FD
330
1F
100
AcDbEntity
  8
0
  6
Continuous
 62
     7
370
    15
100
AcDbLine
 10
55.8455706882
 20
35.972124901
 30
0.0
 11
54.595570949
 21
35.972124901
 31
0.0
  0
LINE
  5
1FE
330
1F
100
AcDbEntity
  8
0
  6
Continuous
 62
     7
370
    15
100
AcDbLine
 10
55.8455706882
 20
35.672124945
 30
0.0
 11
55.8455706882
 21
35.972124901
 31
0.0
  0
LINE
  5
1FF
330
1F
100
AcDbEntity
  8
0
  6
Continuous
 62
     7
370
    15
100
AcDbLine
 10
54.595570949
 20
35.672124945
 30
0.0
 11
55.8455706882
 21
35.672124945
 31
0.0
  0
LINE
  5
200
330
1F
100
AcDbEntity
  8
0
  6
Continuous
 62
     7
370
    15
100
AcDbLine
 10
54.595570949
 20
34.4721251208
 30
0.0
 11
54.595570949
 21
34.1721251647
 31
0.0
  0
LINE
  5
201
330
1F
100
AcDbEntity
  8
0
  6
Continuous
 62
     7
370
    15
100
AcDbLine
 10
55.8455706882
 20
34.4721251208
 30
0.0
 11
54.595570949
 21
34.4721251208
 31
0.0
  0
LINE
  5
202
330
1F
100
AcDbEntity
  8
0
  6
Continuous
 62
     7
370
    15
100
AcDbLine
 10
55.8455706882
 20
34.1721251647
 30
0.0
 11
55.8455706882
 21
34.4721251208
 31
0.0
  0
LINE
  5
203
330
1F
100
AcDbEntity
  8
0
  6
Continuous
 62
     7
370
    15
100
AcDbLine
 10
54.595570949
 20
34.1721251647
 30
0.0
 11
55.8455706882
 21
34.1721251647
 31
0.0
  0
LINE
  5
204
330
1F
100
AcDbEntity
  8
0
  6
Continuous
 62
     7
370
    15
100
AcDbLine
 10
44.5205708343
 20
37.322124936
 30
0.0
 11
50.5205708864
 21
37.322124936
 31
0.0
  0
LINE
  5
205
330
1F
100
AcDbEntity
  8
0
  6
Continuous
 62
     7
370
    15
100
AcDbLine
 10
50.5205708864
 20
37.322124936
 30
0.0
 11
50.5205708864
 21
43.3221249882
 31
0.0
  0
LINE
  5
206
330
1F
100
AcDbEntity
  8
0
  6
Continuous
 62
     7
370
    15
100
AcDbLine
 10
44.5205708343
 20
43.3221249882
 30
0.0
 11
44.5205708343
 21
37.322124936
 31
0.0
  0
LINE
  5
207
330
1F
100
AcDbEntity
  8
0
  6
Continuous
 62
     7
370
    15
100
AcDbLine
 10
50.5205708864
 20
43.3221249882
 30
0.0
 11
44.5205708343
 21
43.3221249882
 31
0.0
  0
LINE
  5
208
330
1F
100
AcDbEntity
  8
0
  6
Continuous
 62
     7
370
    15
100
AcDbLine
 10
35.6580707553
 20
28.709624898
 30
0.0
 11
58.8830708834
 21
28.709624898
 31
0.0
  0
LINE
  5
209
330
1F
100
AcDbEntity
  8
0
  6
Continuous
 62
     7
370
    15
100
AcDbLine
 10
35.6580707553
 20
51.9346250262
 30
0.0
 11
35.6580707553
 21
28.709624898
 31
0.0
  0
LINE
  5
20A
330
1F
100
AcDbEntity
  8
0
  6
Continuous
 62
     7
370
    15
100
AcDbLine
 10
58.8830708834
 20
51.9346250262
 30
0.0
 11
35.6580707553
 21
51.9346250262
 31
0.0
  0
LINE
  5
20B
330
1F
100
AcDbEntity
  8
0
  6
Continuous
 62
     7
370
    15
100
AcDbLine
 10
58.8830708834
 20
28.709624898
 30
0.0
 11
58.8830708834
 21
51.9346250262
 31
0.0
  0
CIRCLE
  5
20C
330
1F
100
AcDbEntity
  8
0
  6
Continuous
 62
     7
370
    15
100
AcDbCircle
 10
36.9080708194
 20
50.6846249621
 30
0.0
 40
0.8500000000000014
  0
CIRCLE
  5
20D
330
1F
100
AcDbEntity
  8
0
  6
Continuous
 62
     7
370
    15
100
AcDbCircle
 10
57.6330708194
 20
50.6846249621
 30
0.0
 40
0.8499999999999872
  0
CIRCLE
  5
20E
330
1F
100
AcDbEntity
  8
0
  6
Continuous
 62
     7
370
    15
100
AcDbCircle
 10
57.6330708194
 20
29.9596249621
 30
0.0
 40
0.8500000000000014
  0
CIRCLE
  5
20F
330
1F
100
AcDbEntity
  8
0
  6
Continuous
 62
     7
370
    15
100
AcDbCircle
 10
36.9080708194
 20
29.9596249621
 30
0.0
 40
0.8499999999999979
  0
CIRCLE
  5
210
330
1F
100
AcDbEntity
  8
0
  6
Continuous
 62
     7
370
    15
100
AcDbCircle
 10
57.6330708194
 20
48.1446249621
 30
0.0
 40
0.4250000000000043
  0
CIRCLE
  5
211
330
1F
100
AcDbEntity
  8
0
  6
Continuous
 62
     7
370
    15
100
AcDbCircle
 10
39.4480708194
 20
29.9596249621
 30
0.0
 40
0.4249999999999865
  0
LINE
  5
212
330
1F
100
AcDbEntity
  8
LAYOUT
 62
     7
100
AcDbLine
 10
35.6580708194
 20
28.7096249621
 30
0.0
 11
35.6580708194
 21
37.784409454
 31
0.0
  0
LINE
  5
213
330
1F
100
AcDbEntity
  8
LAYOUT
 62
     7
100
AcDbLine
 10
35.6580708194
 20
37.784409454
 30
0.0
 11
35.6487530539
 21
38.020671537
 31
0.0
  0
LINE
  5
214
330
1F
100
AcDbEntity
  8
LAYOUT
 62
     7
100
AcDbLine
 10
35.6487530539
 20
38.020671537
 30
0.0
 11
35.6121565892
 21
38.3072643712
 31
0.0
  0
LINE
  5
215
330
1F
100
AcDbEntity
  8
LAYOUT
 62
     7
100
AcDbLine
 10
35.6121565892
 20
38.3072643712
 30
0.0
 11
35.5500660413
 21
38.5821334892
 31
0.0
  0
LINE
  5
216
330
1F
100
AcDbEntity
  8
LAYOUT
 62
     7
100
AcDbLine
 10
35.5500660413
 20
38.5821334892
 30
0.0
 11
35.4762101289
 21
38.8130448763
 31
0.0
  0
LINE
  5
217
330
1F
100
AcDbEntity
  8
LAYOUT
 62
     7
100
AcDbLine
 10
35.4762101289
 20
38.8130448763
 30
0.0
 11
35.3695221251
 21
39.0681663689
 31
0.0
  0
LINE
  5
218
330
1F
100
AcDbEntity
  8
LAYOUT
 62
     7
100
AcDbLine
 10
35.3695221251
 20
39.0681663689
 30
0.0
 11
35.1306651956
 21
39.5200468808
 31
0.0
  0
LINE
  5
219
330
1F
100
AcDbEntity
  8
LAYOUT
 62
     7
100
AcDbLine
 10
35.1306651956
 20
39.5200468808
 30
0.0
 11
35.0428783231
 21
39.7533042945
 31
0.0
  0
LINE
  5
21A
330
1F
100
AcDbEntity
  8
LAYOUT
 62
     7
100
AcDbLine
 10
35.0428783231
 20
39.7533042945
 30
0.0
 11
34.9878336556
 21
39.9827295657
 31
0.0
  0
LINE
  5
21B
330
1F
100
AcDbEntity
  8
LAYOUT
 62
     7
100
AcDbLine
 10
34.9878336556
 20
39.9827295657
 30
0.0
 11
34.9613281443
 21
40.2094619375
 31
0.0
  0
LINE
  5
21C
330
1F
100
AcDbEntity
  8
LAYOUT
 62
     7
100
AcDbLine
 10
34.9613281443
 20
40.2094619375
 30
0.0
 11
34.9640079108
 21
40.4741756359
 31
0.0
  0
LINE
  5
21D
330
1F
100
AcDbEntity
  8
LAYOUT
 62
     7
100
AcDbLine
 10
34.9640079108
 20
40.4741756359
 30
0.0
 11
35.0153559894
 21
40.791305708
 31
0.0
  0
LINE
  5
21E
330
1F
100
AcDbEntity
  8
LAYOUT
 62
     7
100
AcDbLine
 10
35.0153559894
 20
40.791305708
 30
0.0
 11
35.0977299977
 21
41.0468084168
 31
0.0
  0
LINE
  5
21F
330
1F
100
AcDbEntity
  8
LAYOUT
 62
     7
100
AcDbLine
 10
35.0977299977
 20
41.0468084168
 30
0.0
 11
35.2193101659
 21
41.2971057082
 31
0.0
  0
LINE
  5
220
330
1F
100
AcDbEntity
  8
LAYOUT
 62
     7
100
AcDbLine
 10
35.2193101659
 20
41.2971057082
 30
0.0
 11
35.3219890986
 21
41.4801523164
 31
0.0
  0
LINE
  5
221
330
1F
100
AcDbEntity
  8
LAYOUT
 62
     7
100
AcDbLine
 10
35.3219890986
 20
41.4801523164
 30
0.0
 11
35.422866127
 21
41.6954063128
 31
0.0
  0
LINE
  5
222
330
1F
100
AcDbEntity
  8
LAYOUT
 62
     7
100
AcDbLine
 10
35.422866127
 20
41.6954063128
 30
0.0
 11
35.5207590343
 21
41.9626135289
 31
0.0
  0
LINE
  5
223
330
1F
100
AcDbEntity
  8
LAYOUT
 62
     7
100
AcDbLine
 10
35.5207590343
 20
41.9626135289
 30
0.0
 11
35.5969181867
 21
42.2571994894
 31
0.0
  0
LINE
  5
224
330
1F
100
AcDbEntity
  8
LAYOUT
 62
     7
100
AcDbLine
 10
35.5969181867
 20
42.2571994894
 30
0.0
 11
35.6478119686
 21
42.6119536811
 31
0.0
  0
LINE
  5
225
330
1F
100
AcDbEntity
  8
LAYOUT
 62
     7
100
AcDbLine
 10
35.6478119686
 20
42.6119536811
 30
0.0
 11
35.6571699599
 21
42.7863262169
 31
0.0
  0
LINE
  5
226
330
1F
100
AcDbEntity
  8
LAYOUT
 62
     7
100
AcDbLine
 10
35.6571699599
 20
42.7863262169
 30
0.0
 11
35.6580708194
 21
51.9346249621
 31
0.0
  0
LINE
  5
227
330
1F
100
AcDbEntity
  8
LAYOUT
 62
     7
100
AcDbLine
 10
35.6580708194
 20
51.9346249621
 30
0.0
 11
44.7328553113
 21
51.9346249621
 31
0.0
  0
LINE
  5
228
330
1F
100
AcDbEntity
  8
LAYOUT
 62
     7
100
AcDbLine
 10
44.7328553113
 20
51.9346249621
 30
0.0
 11
44.9691173942
 21
51.9439427275
 31
0.0
  0
LINE
  5
229
330
1F
100
AcDbEntity
  8
LAYOUT
 62
     7
100
AcDbLine
 10
44.9691173942
 20
51.9439427275
 30
0.0
 11
45.4354440613
 21
52.0180569364
 31
0.0
  0
LINE
  5
22A
330
1F
100
AcDbEntity
  8
LAYOUT
 62
     7
100
AcDbLine
 10
45.4354440613
 20
52.0180569364
 30
0.0
 11
45.8532277835
 21
52.1516830792
 31
0.0
  0
LINE
  5
22B
330
1F
100
AcDbEntity
  8
LAYOUT
 62
     7
100
AcDbLine
 10
45.8532277835
 20
52.1516830792
 30
0.0
 11
46.4020460875
 21
52.4305243836
 31
0.0
  0
LINE
  5
22C
330
1F
100
AcDbEntity
  8
LAYOUT
 62
     7
100
AcDbLine
 10
46.4020460875
 20
52.4305243836
 30
0.0
 11
46.7724816272
 21
52.5699385054
 31
0.0
  0
LINE
  5
22D
330
1F
100
AcDbEntity
  8
LAYOUT
 62
     7
100
AcDbLine
 10
46.7724816272
 20
52.5699385054
 30
0.0
 11
47.0839460956
 21
52.6256739601
 31
0.0
  0
LINE
  5
22E
330
1F
100
AcDbEntity
  8
LAYOUT
 62
     7
100
AcDbLine
 10
47.0839460956
 20
52.6256739601
 30
0.0
 11
47.4571955431
 21
52.6256739601
 31
0.0
  0
LINE
  5
22F
330
1F
100
AcDbEntity
  8
LAYOUT
 62
     7
100
AcDbLine
 10
47.4571955431
 20
52.6256739601
 30
0.0
 11
47.8651379389
 21
52.5417706054
 31
0.0
  0
LINE
  5
230
330
1F
100
AcDbEntity
  8
LAYOUT
 62
     7
100
AcDbLine
 10
47.8651379389
 20
52.5417706054
 30
0.0
 11
48.0827273297
 21
52.4574480787
 31
0.0
  0
LINE
  5
231
330
1F
100
AcDbEntity
  8
LAYOUT
 62
     7
100
AcDbLine
 10
48.0827273297
 20
52.4574480787
 30
0.0
 11
48.3189362004
 21
52.3304290787
 31
0.0
  0
LINE
  5
232
330
1F
100
AcDbEntity
  8
LAYOUT
 62
     7
100
AcDbLine
 10
48.3189362004
 20
52.3304290787
 30
0.0
 11
48.6163806596
 21
52.1815610546
 31
0.0
  0
LINE
  5
233
330
1F
100
AcDbEntity
  8
LAYOUT
 62
     7
100
AcDbLine
 10
48.6163806596
 20
52.1815610546
 30
0.0
 11
48.8337543414
 21
52.0973221217
 31
0.0
  0
LINE
  5
234
330
1F
100
AcDbEntity
  8
LAYOUT
 62
     7
100
AcDbLine
 10
48.8337543414
 20
52.0973221217
 30
0.0
 11
49.0105622922
 21
52.0426297402
 31
0.0
  0
LINE
  5
235
330
1F
100
AcDbEntity
  8
LAYOUT
 62
     7
100
AcDbLine
 10
49.0105622922
 20
52.0426297402
 30
0.0
 11
49.2828354822
 21
51.980999832
 31
0.0
  0
LINE
  5
236
330
1F
100
AcDbEntity
  8
LAYOUT
 62
     7
100
AcDbLine
 10
49.2828354822
 20
51.980999832
 30
0.0
 11
49.6098769574
 21
51.9411931987
 31
0.0
  0
LINE
  5
237
330
1F
100
AcDbEntity
  8
LAYOUT
 62
     7
100
AcDbLine
 10
49.6098769574
 20
51.9411931987
 30
0.0
 11
49.8082863274
 21
51.9346249621
 31
0.0
  0
LINE
  5
238
330
1F
100
AcDbEntity
  8
LAYOUT
 62
     7
100
AcDbLine
 10
49.8082863274
 20
51.9346249621
 30
0.0
 11
58.8830708194
 21
51.9346249621
 31
0.0
  0
LINE
  5
239
330
1F
100
AcDbEntity
  8
LAYOUT
 62
     7
100
AcDbLine
 10
58.8830708194
 20
51.9346249621
 30
0.0
 11
58.8830708194
 21
42.8598404702
 31
0.0
  0
LINE
  5
23A
330
1F
100
AcDbEntity
  8
LAYOUT
 62
     7
100
AcDbLine
 10
58.8830708194
 20
42.8598404702
 30
0.0
 11
58.8933296701
 21
42.6119536811
 31
0.0
  0
LINE
  5
23B
330
1F
100
AcDbEntity
  8
LAYOUT
 62
     7
100
AcDbLine
 10
58.8933296701
 20
42.6119536811
 30
0.0
 11
58.9269747365
 21
42.3484737241
 31
0.0
  0
LINE
  5
23C
330
1F
100
AcDbEntity
  8
LAYOUT
 62
     7
100
AcDbLine
 10
58.9269747365
 20
42.3484737241
 30
0.0
 11
58.9910755974
 21
42.062116435
 31
0.0
  0
LINE
  5
23D
330
1F
100
AcDbEntity
  8
LAYOUT
 62
     7
100
AcDbLine
 10
58.9910755974
 20
42.062116435
 30
0.0
 11
59.1182755117
 21
41.6954063128
 31
0.0
  0
LINE
  5
23E
330
1F
100
AcDbEntity
  8
LAYOUT
 62
     7
100
AcDbLine
 10
59.1182755117
 20
41.6954063128
 30
0.0
 11
59.3073132436
 21
41.3218310713
 31
0.0
  0
LINE
  5
23F
330
1F
100
AcDbEntity
  8
LAYOUT
 62
     7
100
AcDbLine
 10
59.3073132436
 20
41.3218310713
 30
0.0
 11
59.5205654337
 21
40.8118841692
 31
0.0
  0
LINE
  5
240
330
1F
100
AcDbEntity
  8
LAYOUT
 62
     7
100
AcDbLine
 10
59.5205654337
 20
40.8118841692
 30
0.0
 11
59.5830708194
 21
40.3221249621
 31
0.0
  0
LINE
  5
241
330
1F
100
AcDbEntity
  8
LAYOUT
 62
     7
100
AcDbLine
 10
59.5830708194
 20
40.3221249621
 30
0.0
 11
59.5718706475
 21
40.1134260725
 31
0.0
  0
LINE
  5
242
330
1F
100
AcDbEntity
  8
LAYOUT
 62
     7
100
AcDbLine
 10
59.5718706475
 20
40.1134260725
 30
0.0
 11
59.4968615245
 21
39.7487278854
 31
0.0
  0
LINE
  5
243
330
1F
100
AcDbEntity
  8
LAYOUT
 62
     7
100
AcDbLine
 10
59.4968615245
 20
39.7487278854
 30
0.0
 11
59.3711616165
 21
39.4380772367
 31
0.0
  0
LINE
  5
244
330
1F
100
AcDbEntity
  8
LAYOUT
 62
     7
100
AcDbLine
 10
59.3711616165
 20
39.4380772367
 30
0.0
 11
59.2127943777
 21
39.1517513004
 31
0.0
  0
LINE
  5
245
330
1F
100
AcDbEntity
  8
LAYOUT
 62
     7
100
AcDbLine
 10
59.2127943777
 20
39.1517513004
 30
0.0
 11
59.1236954084
 21
38.9616296293
 31
0.0
  0
LINE
  5
246
330
1F
100
AcDbEntity
  8
LAYOUT
 62
     7
100
AcDbLine
 10
59.1236954084
 20
38.9616296293
 30
0.0
 11
59.0510006475
 21
38.774045014
 31
0.0
  0
LINE
  5
247
330
1F
100
AcDbEntity
  8
LAYOUT
 62
     7
100
AcDbLine
 10
59.0510006475
 20
38.774045014
 30
0.0
 11
58.9910755974
 21
38.5821334892
 31
0.0
  0
LINE
  5
248
330
1F
100
AcDbEntity
  8
LAYOUT
 62
     7
100
AcDbLine
 10
58.9910755974
 20
38.5821334892
 30
0.0
 11
58.9452429423
 21
38.3920008994
 31
0.0
  0
LINE
  5
249
330
1F
100
AcDbEntity
  8
LAYOUT
 62
     7
100
AcDbLine
 10
58.9452429423
 20
38.3920008994
 30
0.0
 11
58.9409543537
 21
38.3708825585
 31
0.0
  0
LINE
  5
24A
330
1F
100
AcDbEntity
  8
LAYOUT
 62
     7
100
AcDbLine
 10
58.9409543537
 20
38.3708825585
 30
0.0
 11
58.9269747365
 21
38.2957762001
 31
0.0
  0
LINE
  5
24B
330
1F
100
AcDbEntity
  8
LAYOUT
 62
     7
100
AcDbLine
 10
58.9269747365
 20
38.2957762001
 30
0.0
 11
58.9143672793
 21
38.2166122901
 31
0.0
  0
LINE
  5
24C
330
1F
100
AcDbEntity
  8
LAYOUT
 62
     7
100
AcDbLine
 10
58.9143672793
 20
38.2166122901
 30
0.0
 11
58.8943786495
 21
38.0446384184
 31
0.0
  0
LINE
  5
24D
330
1F
100
AcDbEntity
  8
LAYOUT
 62
     7
100
AcDbLine
 10
58.8943786495
 20
38.0446384184
 30
0.0
 11
58.8834045357
 21
37.8291552526
 31
0.0
  0
LINE
  5
24E
330
1F
100
AcDbEntity
  8
LAYOUT
 62
     7
100
AcDbLine
 10
58.8834045357
 20
37.8291552526
 30
0.0
 11
58.8830708194
 21
28.7096249621
 31
0.0
  0
LINE
  5
24F
330
1F
100
AcDbEntity
  8
LAYOUT
 62
     7
100
AcDbLine
 10
58.8830708194
 20
28.7096249621
 30
0.0
 11
49.5504224158
 21
28.6985221171
 31
0.0
  0
LINE
  5
250
330
1F
100
AcDbEntity
  8
LAYOUT
 62
     7
100
AcDbLine
 10
49.5504224158
 20
28.6985221171
 30
0.0
 11
49.0105622922
 21
28.601620184
 31
0.0
  0
LINE
  5
251
330
1F
100
AcDbEntity
  8
LAYOUT
 62
     7
100
AcDbLine
 10
49.0105622922
 20
28.601620184
 30
0.0
 11
48.6438521701
 21
28.4744202697
 31
0.0
  0
LINE
  5
252
330
1F
100
AcDbEntity
  8
LAYOUT
 62
     7
100
AcDbLine
 10
48.6438521701
 20
28.4744202697
 30
0.0
 11
48.2702769286
 21
28.2853825378
 31
0.0
  0
LINE
  5
253
330
1F
100
AcDbEntity
  8
LAYOUT
 62
     7
100
AcDbLine
 10
48.2702769286
 20
28.2853825378
 30
0.0
 11
47.8651379389
 21
28.1024793188
 31
0.0
  0
LINE
  5
254
330
1F
100
AcDbEntity
  8
LAYOUT
 62
     7
100
AcDbLine
 10
47.8651379389
 20
28.1024793188
 30
0.0
 11
47.3590053493
 21
28.0116312932
 31
0.0
  0
LINE
  5
255
330
1F
100
AcDbEntity
  8
LAYOUT
 62
     7
100
AcDbLine
 10
47.3590053493
 20
28.0116312932
 30
0.0
 11
47.2705708194
 21
28.0096249621
 31
0.0
  0
LINE
  5
256
330
1F
100
AcDbEntity
  8
LAYOUT
 62
     7
100
AcDbLine
 10
47.2705708194
 20
28.0096249621
 30
0.0
 11
46.8233136454
 21
28.061609941
 31
0.0
  0
LINE
  5
257
330
1F
100
AcDbEntity
  8
LAYOUT
 62
     7
100
AcDbLine
 10
46.8233136454
 20
28.061609941
 30
0.0
 11
46.4020460875
 21
28.2137255405
 31
0.0
  0
LINE
  5
258
330
1F
100
AcDbEntity
  8
LAYOUT
 62
     7
100
AcDbLine
 10
46.4020460875
 20
28.2137255405
 30
0.0
 11
46.1001971577
 21
28.3799014038
 31
0.0
  0
LINE
  5
259
330
1F
100
AcDbEntity
  8
LAYOUT
 62
     7
100
AcDbLine
 10
46.1001971577
 20
28.3799014038
 30
0.0
 11
45.7329454203
 21
28.5380202269
 31
0.0
  0
LINE
  5
25A
330
1F
100
AcDbEntity
  8
LAYOUT
 62
     7
100
AcDbLine
 10
45.7329454203
 20
28.5380202269
 30
0.0
 11
45.5305793465
 21
28.601620184
 31
0.0
  0
LINE
  5
25B
330
1F
100
AcDbEntity
  8
LAYOUT
 62
     7
100
AcDbLine
 10
45.5305793465
 20
28.601620184
 30
0.0
 11
45.1263789333
 21
28.6837028291
 31
0.0
  0
LINE
  5
25C
330
1F
100
AcDbEntity
  8
LAYOUT
 62
     7
100
AcDbLine
 10
45.1263789333
 20
28.6837028291
 30
0.0
 11
44.8509863527
 21
28.707298236
 31
0.0
  0
LINE
  5
25D
330
1F
100
AcDbEntity
  8
LAYOUT
 62
     7
100
AcDbLine
 10
44.8509863527
 20
28.707298236
 30
0.0
 11
35.6580708194
 21
28.7096249621
 31
0.0
  0
LINE
  5
25E
330
1F
100
AcDbEntity
  8
LAYOUT
  6
CENTERX2
 62
     9
100
AcDbLine
 10
36.9080708194
 20
50.6846249621
 30
0.0
 11
57.6330708194
 21
50.6846249621
 31
0.0
  0
LINE
  5
25F
330
1F
100
AcDbEntity
  8
LAYOUT
  6
CENTERX2
 62
     9
100
AcDbLine
 10
36.9080708194
 20
50.6846249621
 30
0.0
 11
36.9080708194
 21
29.9596249621
 31
0.0
  0
LINE
  5
260
330
1F
100
AcDbEntity
  8
LAYOUT
  6
CENTERX2
 62
     9
100
AcDbLine
 10
36.9080708194
 20
29.9596249621
 30
0.0
 11
57.6330708194
 21
29.9596249621
 31
0.0
  0
LINE
  5
261
330
1F
100
AcDbEntity
  8
LAYOUT
  6
CENTERX2
 62
     9
100
AcDbLine
 10
57.6330708194
 20
50.6846249621
 30
0.0
 11
57.6330708194
 21
29.9596249621
 31
0.0
  0
ENDSEC
  0
SECTION
  2
OBJECTS
  0
DICTIONARY
  5
C
330
0
100
AcDbDictionary
281
     1
  3
ACAD_GROUP
350
D
  3
ACAD_LAYOUT
350
1A
  3
ACAD_MLINESTYLE
350
17
  3
ACAD_PLOTSETTINGS
350
19
  3
ACAD_PLOTSTYLENAME
350
E
  3
ACAD_SCALELIST
350
47
  0
DICTIONARY
  5
D
102
{ACAD_REACTORS
330
C
102
}
330
C
100
AcDbDictionary
281
     1
  0
DICTIONARY
  5
1A
102
{ACAD_REACTORS
330
C
102
}
330
C
100
AcDbDictionary
281
     1
  3
Layout1
350
1E
  3
Layout2
350
26
  3
Model
350
22
  0
DICTIONARY
  5
17
102
{ACAD_REACTORS
330
C
102
}
330
C
100
AcDbDictionary
281
     1
  3
Standard
350
18
  0
DICTIONARY
  5
19
102
{ACAD_REACTORS
330
C
102
}
330
C
100
AcDbDictionary
281
     1
  0
ACDBDICTIONARYWDFLT
  5
E
102
{ACAD_REACTORS
330
C
102
}
330
C
100
AcDbDictionary
281
     1
  3
Normal
350
F
100
AcDbDictionaryWithDefault
340
F
  0
DICTIONARY
  5
47
102
{ACAD_REACTORS
330
C
102
}
330
C
100
AcDbDictionary
281
     1
  3
A0
350
48
  3
A1
350
49
  3
A2
350
4A
  3
A3
350
4B
  3
A4
350
4C
  3
A5
350
4D
  3
A6
350
4E
  3
A7
350
4F
  3
A8
350
50
  3
A9
350
51
  3
B0
350
52
  3
B1
350
53
  3
B2
350
54
  3
B3
350
55
  3
B4
350
56
  3
B5
350
57
  3
B6
350
58
  3
B7
350
59
  3
B8
350
5A
  3
B9
350
5B
  3
C0
350
5C
  3
C1
350
5D
  3
C2
350
5E
  3
C3
350
5F
  3
C4
350
60
  3
C5
350
61
  3
C6
350
62
  3
C7
350
63
  3
C8
350
64
  3
C9
350
65
  3
D0
350
66
  3
D1
350
67
  3
D2
350
68
  0
LAYOUT
  5
1E
102
{ACAD_REACTORS
330
1A
102
}
330
1A
100
AcDbPlotSettings
  1

  2
none_device
  4

  6

 40
0.0
 41
0.0
 42
0.0
 43
0.0
 44
0.0
 45
0.0
 46
0.0
 47
0.0
 48
0.0
 49
0.0
140
0.0
141
0.0
142
1.0
143
1.0
 70
   688
 72
     1
 73
     0
 74
     5
  7

 75
    16
147
1.0
148
0.0
149
0.0
100
AcDbLayout
  1
Layout1
 70
     1
 71
     1
 10
0.0
 20
0.0
 11
420.0
 21
297.0
 12
0.0
 22
0.0
 32
0.0
 14
1.0000000000E+20
 24
1.0000000000E+20
 34
1.0000000000E+20
 15
-1.0000000000E+20
 25
-1.0000000000E+20
 35
-1.0000000000E+20
146
0.0
 13
0.0
 23
0.0
 33
0.0
 16
1.0
 26
0.0
 36
0.0
 17
0.0
 27
1.0
 37
0.0
 76
     0
330
1B
  0
LAYOUT
  5
26
102
{ACAD_REACTORS
330
1A
102
}
330
1A
100
AcDbPlotSettings
  1

  2
none_device
  4

  6

 40
0.0
 41
0.0
 42
0.0
 43
0.0
 44
0.0
 45
0.0
 46
0.0
 47
0.0
 48
0.0
 49
0.0
140
0.0
141
0.0
142
1.0
143
1.0
 70
   688
 72
     1
 73
     0
 74
     5
  7

 75
    16
147
1.0
148
0.0
149
0.0
100
AcDbLayout
  1
Layout2
 70
     1
 71
     2
 10
0.0
 20
0.0
 11
0.0
 21
0.0
 12
0.0
 22
0.0
 32
0.0
 14
0.0
 24
0.0
 34
0.0
 15
0.0
 25
0.0
 35
0.0
146
0.0
 13
0.0
 23
0.0
 33
0.0
 16
1.0
 26
0.0
 36
0.0
 17
0.0
 27
1.0
 37
0.0
 76
     0
330
23
  0
LAYOUT
  5
22
102
{ACAD_REACTORS
330
1A
102
}
330
1A
100
AcDbPlotSettings
  1

  2
none_device
  4
Letter_(8.50_x_11.00_Inches)
  6

 40
6.35
 41
6.35
 42
6.35000508
 43
6.35000508
 44
215.9
 45
279.4
 46
0.0
 47
0.0
 48
0.0
 49
0.0
140
0.0
141
0.0
142
1.0
143
1.0
 70
  1712
 72
     1
 73
     0
 74
     0
  7

 75
     0
147
1.0
148
0.0
149
0.0
100
AcDbLayout
  1
Model
 70
     1
 71
     0
 10
0.0
 20
0.0
 11
93.1333333333
 21
71.9666666667
 12
0.0
 22
0.0
 32
0.0
 14
0.0
 24
0.0
 34
0.0
 15
93.1333333333
 25
71.9666666667
 35
0.0
146
0.0
 13
0.0
 23
0.0
 33
0.0
 16
1.0
 26
0.0
 36
0.0
 17
0.0
 27
1.0
 37
0.0
 76
     0
330
1F
331
29
  0
MLINESTYLE
  5
18
102
{ACAD_REACTORS
330
17
102
}
330
17
100
AcDbMlineStyle
  2
Standard
 70
     0
  3

 62
   256
 51
90.0
 52
90.0
 71
     2
 49
0.5
 62
   256
  6
BYLAYER
 49
-0.5
 62
   256
  6
BYLAYER
  0
ACDBPLACEHOLDER
  5
F
102
{ACAD_REACTORS
330
E
102
}
330
E
  0
SCALE
  5
48
102
{ACAD_REACTORS
330
47
102
}
330
47
100
AcDbScale
 70
     0
300
1:1
140
1.0
141
1.0
290
     1
  0
SCALE
  5
49
102
{ACAD_REACTORS
330
47
102
}
330
47
100
AcDbScale
 70
     0
300
1:2
140
1.0
141
2.0
290
     0
  0
SCALE
  5
4A
102
{ACAD_REACTORS
330
47
102
}
330
47
100
AcDbScale
 70
     0
300
1:4
140
1.0
141
4.0
290
     0
  0
SCALE
  5
4B
102
{ACAD_REACTORS
330
47
102
}
330
47
100
AcDbScale
 70
     0
300
1:5
140
1.0
141
5.0
290
     0
  0
SCALE
  5
4C
102
{ACAD_REACTORS
330
47
102
}
330
47
100
AcDbScale
 70
     0
300
1:8
140
1.0
141
8.0
290
     0
  0
SCALE
  5
4D
102
{ACAD_REACTORS
330
47
102
}
330
47
100
AcDbScale
 70
     0
300
1:10
140
1.0
141
10.0
290
     0
  0
SCALE
  5
4E
102
{ACAD_REACTORS
330
47
102
}
330
47
100
AcDbScale
 70
     0
300
1:16
140
1.0
141
16.0
290
     0
  0
SCALE
  5
4F
102
{ACAD_REACTORS
330
47
102
}
330
47
100
AcDbScale
 70
     0
300
1:20
140
1.0
141
20.0
290
     0
  0
SCALE
  5
50
102
{ACAD_REACTORS
330
47
102
}
330
47
100
AcDbScale
 70
     0
300
1:30
140
1.0
141
30.0
290
     0
  0
SCALE
  5
51
102
{ACAD_REACTORS
330
47
102
}
330
47
100
AcDbScale
 70
     0
300
1:40
140
1.0
141
40.0
290
     0
  0
SCALE
  5
52
102
{ACAD_REACTORS
330
47
102
}
330
47
100
AcDbScale
 70
     0
300
1:50
140
1.0
141
50.0
290
     0
  0
SCALE
  5
53
102
{ACAD_REACTORS
330
47
102
}
330
47
100
AcDbScale
 70
     0
300
1:100
140
1.0
141
100.0
290
     0
  0
SCALE
  5
54
102
{ACAD_REACTORS
330
47
102
}
330
47
100
AcDbScale
 70
     0
300
2:1
140
2.0
141
1.0
290
     0
  0
SCALE
  5
55
102
{ACAD_REACTORS
330
47
102
}
330
47
100
AcDbScale
 70
     0
300
4:1
140
4.0
141
1.0
290
     0
  0
SCALE
  5
56
102
{ACAD_REACTORS
330
47
102
}
330
47
100
AcDbScale
 70
     0
300
8:1
140
8.0
141
1.0
290
     0
  0
SCALE
  5
57
102
{ACAD_REACTORS
330
47
102
}
330
47
100
AcDbScale
 70
     0
300
10:1
140
10.0
141
1.0
290
     0
  0
SCALE
  5
58
102
{ACAD_REACTORS
330
47
102
}
330
47
100
AcDbScale
 70
     0
300
100:1
140
100.0
141
1.0
290
     0
  0
SCALE
  5
59
102
{ACAD_REACTORS
330
47
102
}
330
47
100
AcDbScale
 70
     0
300
1/128" = 1'-0"
140
0.0078125
141
12.0
290
     0
  0
SCALE
  5
5A
102
{ACAD_REACTORS
330
47
102
}
330
47
100
AcDbScale
 70
     0
300
1/64" = 1'-0"
140
0.015625
141
12.0
290
     0
  0
SCALE
  5
5B
102
{ACAD_REACTORS
330
47
102
}
330
47
100
AcDbScale
 70
     0
300
1/32" = 1'-0"
140
0.03125
141
12.0
290
     0
  0
SCALE
  5
5C
102
{ACAD_REACTORS
330
47
102
}
330
47
100
AcDbScale
 70
     0
300
1/16" = 1'-0"
140
0.0625
141
12.0
290
     0
  0
SCALE
  5
5D
102
{ACAD_REACTORS
330
47
102
}
330
47
100
AcDbScale
 70
     0
300
3/32" = 1'-0"
140
0.09375
141
12.0
290
     0
  0
SCALE
  5
5E
102
{ACAD_REACTORS
330
47
102
}
330
47
100
AcDbScale
 70
     0
300
1/8" = 1'-0"
140
0.125
141
12.0
290
     0
  0
SCALE
  5
5F
102
{ACAD_REACTORS
330
47
102
}
330
47
100
AcDbScale
 70
     0
300
3/16" = 1'-0"
140
0.1875
141
12.0
290
     0
  0
SCALE
  5
60
102
{ACAD_REACTORS
330
47
102
}
330
47
100
AcDbScale
 70
     0
300
1/4" = 1'-0"
140
0.25
141
12.0
290
     0
  0
SCALE
  5
61
102
{ACAD_REACTORS
330
47
102
}
330
47
100
AcDbScale
 70
     0
300
3/8" = 1'-0"
140
0.375
141
12.0
290
     0
  0
SCALE
  5
62
102
{ACAD_REACTORS
330
47
102
}
330
47
100
AcDbScale
 70
     0
300
1/2" = 1'-0"
140
0.5
141
12.0
290
     0
  0
SCALE
  5
63
102
{ACAD_REACTORS
330
47
102
}
330
47
100
AcDbScale
 70
     0
300
3/4" = 1'-0"
140
0.75
141
12.0
290
     0
  0
SCALE
  5
64
102
{ACAD_REACTORS
330
47
102
}
330
47
100
AcDbScale
 70
     0
300
1" = 1'-0"
140
1.0
141
12.0
290
     0
  0
SCALE
  5
65
102
{ACAD_REACTORS
330
47
102
}
330
47
100
AcDbScale
 70
     0
300
1-1/2" = 1'-0"
140
1.5
141
12.0
290
     0
  0
SCALE
  5
66
102
{ACAD_REACTORS
330
47
102
}
330
47
100
AcDbScale
 70
     0
300
3" = 1'-0"
140
3.0
141
12.0
290
     0
  0
SCALE
  5
67
102
{ACAD_REACTORS
330
47
102
}
330
47
100
AcDbScale
 70
     0
300
6" = 1'-0"
140
6.0
141
12.0
290
     0
  0
SCALE
  5
68
102
{ACAD_REACTORS
330
47
102
}
330
47
100
AcDbScale
 70
     0
300
1'-0" = 1'-0"
140
12.0
141
12.0
290
     0
  0
ENDSEC
  0
EOF
