  0
SECTION
  2
HEADER
  9
$ACADVER
  1
AC1015
  9
$ACADMAINTVER
 70
               6
  9
$DWGCODEPAGE
  3
ANSI_1252
  9
$INSBASE
 10
0.0
 20
0.0
 30
0.0
  9
$EXTMIN
 10
-17.814997001321665
 20
-17.814997001321665
 30
-1.3546666666666665
  9
$EXTMAX
 10
17.814997001321665
 20
17.814997001321665
 30
1.3546666666666665
  9
$LIMMIN
 10
0.0
 20
0.0
  9
$LIMMAX
 10
0.0
 20
0.0
  9
$ORTHOMODE
 70
               0
  9
$REGENMODE
 70
               1
  9
$FILLMODE
 70
               1
  9
$QTEXTMODE
 70
               0
  9
$MIRRTEXT
 70
               1
  9
$LTSCALE
 40
5.0800000000000001
  9
$ATTMODE
 70
               1
  9
$TEXTSIZE
 40
0.2
  9
$TRACEWID
 40
1.0
  9
$TEXTSTYLE
  7
Standard
  9
$CLAYER
  8
None
  9
$CELTYPE
  6
Continuous
  9
$CECOLOR
 62
             256
  9
$CELTSCALE
 40
1.0
  9
$DISPSILH
 70
               0
  9
$DIMSCALE
 40
1.0
  9
$DIMASZ
 40
0.18
  9
$DIMEXO
 40
0.0625
  9
$DIMDLI
 40
0.38
  9
$DIMRND
 40
0.0
  9
$DIMDLE
 40
0.0
  9
$DIMEXE
 40
0.18
  9
$DIMTP
 40
0.0
  9
$DIMTM
 40
0.0
  9
$DIMTXT
 40
0.18
  9
$DIMCEN
 40
0.09
  9
$DIMTSZ
 40
0.0
  9
$DIMTOL
 70
               0
  9
$DIMLIM
 70
               0
  9
$DIMTIH
 70
               1
  9
$DIMTOH
 70
               1
  9
$DIMSE1
 70
               0
  9
$DIMSE2
 70
               0
  9
$DIMTAD
 70
               0
  9
$DIMZIN
 70
               0
  9
$DIMBLK
  1

  9
$DIMASO
 70
               1
  9
$DIMSHO
 70
               1
  9
$DIMPOST
  1

  9
$DIMAPOST
  1

  9
$DIMALT
 70
               0
  9
$DIMALTD
 70
               2
  9
$DIMALTF
 40
25.399999999999999
  9
$DIMLFAC
 40
1.0
  9
$DIMTOFL
 70
               0
  9
$DIMTVP
 40
0.0
  9
$DIMTIX
 70
               0
  9
$DIMSOXD
 70
               0
  9
$DIMSAH
 70
               0
  9
$DIMBLK1
  1

  9
$DIMBLK2
  1

  9
$DIMSTYLE
  2
Standard
  9
$DIMCLRD
 70
               0
  9
$DIMCLRE
 70
               0
  9
$DIMCLRT
 70
               0
  9
$DIMTFAC
 40
1.0
  9
$DIMGAP
 40
0.09
  9
$DIMJUST
 70
               0
  9
$DIMSD1
 70
               0
  9
$DIMSD2
 70
               0
  9
$DIMTOLJ
 70
               1
  9
$DIMTZIN
 70
               0
  9
$DIMALTZ
 70
               0
  9
$DIMALTTZ
 70
               0
  9
$DIMUPT
 70
               0
  9
$DIMDEC
 70
               4
  9
$DIMTDEC
 70
               4
  9
$DIMALTU
 70
               2
  9
$DIMALTTD
 70
               2
  9
$DIMTXSTY
  7
Standard
  9
$DIMAUNIT
 70
               0
  9
$DIMADEC
 70
               0
  9
$DIMALTRND
 40
0.0
  9
$DIMAZIN
 70
               0
  9
$DIMDSEP
 70
               0
  9
$DIMATFIT
 70
               3
  9
$DIMFRAC
 70
               0
  9
$DIMLDRBLK
  1

  9
$DIMLUNIT
 70
               2
  9
$DIMLWD
 70
               0
  9
$DIMLWE
 70
               0
  9
$DIMTMOVE
 70
               0
  9
$LUNITS
 70
               2
  9
$LUPREC
 70
               4
  9
$SKETCHINC
 40
0.1
  9
$FILLETRAD
 40
0.0
  9
$AUNITS
 70
               0
  9
$AUPREC
 70
               0
  9
$MENU
  1
acad
  9
$ELEVATION
 40
0.0
  9
$PELEVATION
 40
0.0
  9
$THICKNESS
 40
0.0
  9
$LIMCHECK
 70
               0
  9
$CHAMFERA
 40
0.0
  9
$CHAMFERB
 40
0.0
  9
$CHAMFERC
 40
0.0
  9
$CHAMFERD
 40
0.0
  9
$SKPOLY
 70
               0
  9
$TDCREATE
 40
2457123.325243055
  9
$TDUCREATE
 40
0.000000000
  9
$TDUPDATE
 40
2457123.325243055
  9
$TDUUPDATE
 40
0.000000000
  9
$TDINDWG
 40
0.0000000000
  9
$TDUSRTIMER
 40
0.0000000000
  9
$USRTIMER
 70
               1
  9
$ANGBASE
 50
0.0
  9
$ANGDIR
 70
               0
  9
$PDMODE
 70
               1
  9
$PDSIZE
 40
-2.0
  9
$PLINEWID
 40
0.0
  9
$SPLFRAME
 70
               0
  9
$SPLINETYPE
 70
               6
  9
$SPLINESEGS
 70
               8
  9
$HANDSEED
  5
3D0
  9
$SURFTAB1
 70
               6
  9
$SURFTAB2
 70
               6
  9
$SURFTYPE
 70
               6
  9
$SURFU
 70
               6
  9
$SURFV
 70
               6
  9
$UCSBASE
  2

  9
$UCSNAME
  2

  9
$UCSORG
 10
0.0
 20
0.0
 30
0.0
  9
$UCSXDIR
 10
1.0
 20
0.0
 30
0.0
  9
$UCSYDIR
 10
0.0
 20
1.0
 30
0.0
  9
$UCSORTHOREF
  2

  9
$UCSORTHOVIEW
 70
               0
  9
$UCSORGTOP
 10
0.0
 20
0.0
 30
0.0
  9
$UCSORGBOTTOM
 10
0.0
 20
0.0
 30
0.0
  9
$UCSORGLEFT
 10
0.0
 20
0.0
 30
0.0
  9
$UCSORGRIGHT
 10
0.0
 20
0.0
 30
0.0
  9
$UCSORGFRONT
 10
0.0
 20
0.0
 30
0.0
  9
$UCSORGBACK
 10
0.0
 20
0.0
 30
0.0
  9
$PUCSBASE
  2

  9
$PUCSNAME
  2

  9
$PUCSORG
 10
0.0
 20
0.0
 30
0.0
  9
$PUCSXDIR
 10
1.0
 20
0.0
 30
0.0
  9
$PUCSYDIR
 10
0.0
 20
1.0
 30
0.0
  9
$PUCSORTHOREF
  2

  9
$PUCSORTHOVIEW
 70
               0
  9
$PUCSORGTOP
 10
0.0
 20
0.0
 30
0.0
  9
$PUCSORGBOTTOM
 10
0.0
 20
0.0
 30
0.0
  9
$PUCSORGLEFT
 10
0.0
 20
0.0
 30
0.0
  9
$PUCSORGRIGHT
 10
0.0
 20
0.0
 30
0.0
  9
$PUCSORGFRONT
 10
0.0
 20
0.0
 30
0.0
  9
$PUCSORGBACK
 10
0.0
 20
0.0
 30
0.0
  9
$USERI1
 70
               0
  9
$USERI2
 70
               0
  9
$USERI3
 70
               0
  9
$USERI4
 70
               0
  9
$USERI5
 70
               0
  9
$USERR1
 40
0.0
  9
$USERR2
 40
0.0
  9
$USERR3
 40
0.0
  9
$USERR4
 40
0.0
  9
$USERR5
 40
0.0
  9
$WORLDVIEW
 70
               1
  9
$SHADEDGE
 70
               3
  9
$SHADEDIF
 70
              70
  9
$TILEMODE
 70
               1
  9
$MAXACTVP
 70
              64
  9
$PINSBASE
 10
0.0
 20
0.0
 30
0.0
  9
$PLIMCHECK
 70
               0
  9
$PEXTMIN
 10
1.0000000000000000E+20
 20
1.0000000000000000E+20
 30
1.0000000000000000E+20
  9
$PEXTMAX
 10
-1.0000000000000000E+20
 20
-1.0000000000000000E+20
 30
-1.0000000000000000E+20
  9
$PLIMMIN
 10
0.0
 20
0.0
  9
$PLIMMAX
 10
12.0
 20
9.0
  9
$UNITMODE
 70
               0
  9
$VISRETAIN
 70
               0
  9
$PLINEGEN
 70
               1
  9
$PSLTSCALE
 70
               0
  9
$TREEDEPTH
 70
            3020
  9
$CMLSTYLE
  2
Standard
  9
$CMLJUST
 70
               0
  9
$CMLSCALE
 40
1.0
  9
$PROXYGRAPHICS
 70
               0
  9
$MEASUREMENT
 70
               1
  9
$CELWEIGHT
370
               0
  9
$ENDCAPS
280
               0
  9
$JOINSTYLE
280
               0
  9
$LWDISPLAY
290
               1
  9
$INSUNITS
 70
               4
  9
$HYPERLINKBASE
  1

  9
$STYLESHEET
  1

  9
$XEDIT
290
               1
  9
$CEPSNTYPE
380
               0
  9
$PSTYLEMODE
290
               1
  9
$FINGERPRINTGUID
  2

  9
$VERSIONGUID
  2

  9
$EXTNAMES
290
               1
  9
$PSVPSCALE
 40
0.0
  0
ENDSEC
  0
SECTION
  2
CLASSES
  0
CLASS
  1
LWPOLYLINE
  2
AcDbPolyline
  3
AutoCAD 2000
 90
        0
280
               0
281
               1
  0
CLASS
  1
IMAGE
  2
AcDbRasterImage
  3
ISM
 90
      127
280
               0
281
               1
  0
CLASS
  1
OLE2FRAME
  2
AcDbOle2Frame
  3
AutoCAD 2000
 90
        0
280
               0
281
               1
  0
CLASS
  1
HATCH
  2
AcDbHatch
  3
AutoCAD 2000
 90
        0
280
               0
281
               1
  0
CLASS
  1
DICTIONARYVAR
  2
AcDbDictionaryVar
  3
AutoCAD 2000
 90
        0
280
               0
281
               0
  0
CLASS
  1
RASTERVARIABLES
  2
AcDbRasterVariables
  3
ISM
 90
        0
280
               0
281
               0
  0
CLASS
  1
IMAGEDEF
  2
AcDbRasterImageDef
  3
ISM
 90
        0
280
               0
281
               0
  0
CLASS
  1
IMAGEDEF_REACTOR
  2
AcDbRasterImageDefReactor
  3
ISM
 90
        1
280
               0
281
               0
  0
CLASS
  1
IDBUFFER
  2
AcDbIdBuffer
  3
AutoCAD 2000
 90
        0
280
               0
281
               0
  0
CLASS
  1
SPATIAL_FILTER
  2
AcDbSpatialFilter
  3
AutoCAD 2000
 90
        0
280
               0
281
               0
  0
CLASS
  1
XRECORD
  2
AcDbXrecord
  3
AutoCAD 2000
 90
        0
280
               0
281
               0
  0
CLASS
  1
SORTENTSTABLE
  2
AcDbSortentsTable
  3
AutoCAD 2000
 90
        0
280
               0
281
               0
  0
CLASS
  1
LAYER_INDEX
  2
AcDbLayerIndex
  3
AutoCAD 2000
 90
        0
280
               0
281
               0
  0
CLASS
  1
SPATIAL_INDEX
  2
AcDbSpatialIndex
  3
AutoCAD 2000
 90
        0
280
               0
281
               0
  0
CLASS
  1
OBJECT_PTR
  2
CAseDLPNTableRecord
  3
"ASE-LPNTableRecord"
 90
        1
280
               0
281
               0
  0
CLASS
  1
LAYOUT
  2
AcDbLayout
  3
AutoCAD 2000
 90
        0
280
               0
281
               0
  0
CLASS
  1
PLOTSETTINGS
  2
AcDbPlotSettings
  3
AutoCAD 2000
 90
        0
280
               0
281
               0
  0
CLASS
  1
ACDBDICTIONARYWDFLT
  2
AcDbDictionaryWithDefault
  3
AutoCAD 2000
 90
        0
280
               0
281
               0
  0
CLASS
  1
ACDBPLACEHOLDER
  2
AcDbPlaceHolder
  3
AutoCAD 2000
 90
        0
280
               0
281
               0
  0
ENDSEC
  0
SECTION
  2
TABLES
  0
TABLE
  2
VPORT
  5
7
100
AcDbSymbolTable
 70
               1
  0
VPORT
  5
15
100
AcDbSymbolTableRecord
100
AcDbViewportTableRecord
  2
*ACTIVE
 70
               0
 10
0.0
 20
0.0
 11
1.0
 21
1.0
 12
0.0
 22
0.0
 13
0.0
 23
0.0
 14
1.0
 24
1.0
 15
0.0
 25
0.0
 16
0.0
 26
0.0
 36
1.0
 17
0.0
 27
0.0
 37
0.0
 40
35.629994002643329
 41
0.688564
 42
50.0
 43
0.0
 44
0.0
 50
0.0
 51
0.0
 71
               0
 72
            2000
 73
               1
 74
               1
 75
               0
 76
               0
 77
               0
 78
               0
281
               0
 65
               0
110
0.0
120
0.0
130
0.0
111
1.0
121
0.0
131
0.0
112
0.0
122
1.0
132
0.0
345
0
346
0
 79
               0
146
0.0
  0
ENDTAB
  0
TABLE
  2
LTYPE
  5
4
100
AcDbSymbolTable
 70
              14
  0
LTYPE
  5
11
100
AcDbSymbolTableRecord
100
AcDbLinetypeTableRecord
  2
ByBlock
 70
              64
  3

 72
              65
 73
               0
 40
0.0
  0
LTYPE
  5
12
100
AcDbSymbolTableRecord
100
AcDbLinetypeTableRecord
  2
ByLayer
 70
              64
  3

 72
              65
 73
               0
 40
0.0
  0
LTYPE
  5
13
100
AcDbSymbolTableRecord
100
AcDbLinetypeTableRecord
  2
Continuous
 70
              64
  3
Solid line
 72
              65
 73
               0
 40
0.0
  0
LTYPE
  5
27
100
AcDbSymbolTableRecord
100
AcDbLinetypeTableRecord
  2
STYLE_01
 70
               0
  3

 72
              65
 73
               2
 40
0.41664
 49
0.20828
 74
               0
 49
-0.20836
 74
               0
  0
LTYPE
  5
28
100
AcDbSymbolTableRecord
100
AcDbLinetypeTableRecord
  2
STYLE_02
 70
               0
  3

 72
              65
 73
               2
 40
0.6944250000000001
 49
0.48607
 74
               0
 49
-0.2083550000000001
 74
               0
  0
LTYPE
  5
29
100
AcDbSymbolTableRecord
100
AcDbLinetypeTableRecord
  2
STYLE_03
 70
               0
  3

 72
              65
 73
               2
 40
1.25
 49
1.0416400000000001
 74
               0
 49
-0.2083599999999999
 74
               0
  0
LTYPE
  5
2A
100
AcDbSymbolTableRecord
100
AcDbLinetypeTableRecord
  2
STYLE_04
 70
               0
  3

 72
              65
 73
               2
 40
1.5277099999999999
 49
1.3194249999999998
 74
               0
 49
-0.208285
 74
               0
  0
LTYPE
  5
2B
100
AcDbSymbolTableRecord
100
AcDbLinetypeTableRecord
  2
STYLE_05
 70
               0
  3

 72
              65
 73
               2
 40
0.20828
 49
0.069425
 74
               0
 49
-0.138855
 74
               0
  0
LTYPE
  5
2C
100
AcDbSymbolTableRecord
100
AcDbLinetypeTableRecord
  2
STYLE_06
 70
               0
  3

 72
              65
 73
               4
 40
1.0416400000000001
 49
0.625
 74
               0
 49
-0.20828
 74
               0
 49
0.06943
 74
               0
 49
-0.13893
 74
               0
  0
LTYPE
  5
2D
100
AcDbSymbolTableRecord
100
AcDbLinetypeTableRecord
  2
STYLE_07
 70
               0
  3

 72
              65
 73
               6
 40
1.875
 49
0.625
 74
               0
 49
-0.20828
 74
               0
 49
0.6250000000000001
 74
               0
 49
-0.2083599999999999
 74
               0
 49
0.06943
 74
               0
 49
-0.1389299999999999
 74
               0
  0
LTYPE
  5
2E
100
AcDbSymbolTableRecord
100
AcDbLinetypeTableRecord
  2
STYLE_08
 70
               0
  3

 72
              65
 73
               6
 40
1.25
 49
0.625
 74
               0
 49
-0.20828
 74
               0
 49
0.06943
 74
               0
 49
-0.13893
 74
               0
 49
0.0694299999999999
 74
               0
 49
-0.13893
 74
               0
  0
LTYPE
  5
2F
100
AcDbSymbolTableRecord
100
AcDbLinetypeTableRecord
  2
STYLE_09
 70
               0
  3

 72
              65
 73
               4
 40
5.0
 49
3.75
 74
               0
 49
-0.2777849999999998
 74
               0
 49
0.6944300000000003
 74
               0
 49
-0.2777849999999998
 74
               0
  0
LTYPE
  5
30
100
AcDbSymbolTableRecord
100
AcDbLinetypeTableRecord
  2
STYLE_10
 70
               0
  3

 72
              65
 73
               6
 40
5.9375
 49
3.75
 74
               0
 49
-0.2777849999999998
 74
               0
 49
0.6944300000000003
 74
               0
 49
-0.2777849999999998
 74
               0
 49
0.625
 74
               0
 49
-0.3125
 74
               0
  0
LTYPE
  5
31
100
AcDbSymbolTableRecord
100
AcDbLinetypeTableRecord
  2
STYLE_11
 70
               0
  3

 72
              65
 73
               2
 40
0.4166412353515625
 49
0.2777862548828125
 74
               0
 49
-0.13885498046875
 74
               0
  0
ENDTAB
  0
TABLE
  2
LAYER
  5
2
100
AcDbSymbolTable
 70
               3
  0
LAYER
  5
14
100
AcDbSymbolTableRecord
100
AcDbLayerTableRecord
  2
0
 70
               0
 62
               7
  6
Continuous
290
               1
370
              -3
390
1D
  0
LAYER
  5
32
100
AcDbSymbolTableRecord
100
AcDbLayerTableRecord
  2
None
 70
               0
 62
               7
  6
Continuous
290
               1
370
               5
390
1D
  0
LAYER
  5
33
100
AcDbSymbolTableRecord
100
AcDbLayerTableRecord
  2
Dimension
 70
               0
 62
               7
  6
Continuous
290
               1
370
               5
390
1D
  0
ENDTAB
  0
TABLE
  2
STYLE
  5
3
100
AcDbSymbolTable
 70
               1
  0
STYLE
  5
17
100
AcDbSymbolTableRecord
100
AcDbTextStyleTableRecord
  2
Standard
 70
               0
 40
0.0
 41
1.0
 50
0.0
 71
               0
 42
0.0
  3
txt
  4

  0
ENDTAB
  0
TABLE
  2
VIEW
  5
5
100
AcDbSymbolTable
 70
               0
  0
ENDTAB
  0
TABLE
  2
UCS
  5
6
100
AcDbSymbolTable
 70
               0
  0
ENDTAB
  0
TABLE
  2
APPID
  5
8
100
AcDbSymbolTable
 70
               1
  0
APPID
  5
16
100
AcDbSymbolTableRecord
100
AcDbRegAppTableRecord
  2
ACAD
 70
               0
  0
ENDTAB
  0
TABLE
  2
DIMSTYLE
  5
9
100
AcDbSymbolTable
 70
               1
100
AcDbDimStyleTable
 71
               0
  0
DIMSTYLE
105
18
100
AcDbSymbolTableRecord
100
AcDbDimStyleTableRecord
  2
Standard
 70
               0
  3

  4

 40
1.0
 41
0.18
 42
0.0625
 43
0.38
 44
0.18
 45
0.0
 46
0.0
 47
0.0
 48
0.0
 71
               0
 72
               0
 73
               1
 74
               1
 75
               0
 76
               0
 77
               0
 78
               0
 79
               0
140
0.18
141
0.09
142
0.0
143
25.399999999999999
144
1.0
145
0.0
146
1.0
147
0.09
148
0.0
170
               0
171
               2
172
               0
173
               0
174
               0
175
               0
176
               0
177
               0
178
               0
179
               0
271
               4
272
               4
273
               2
274
               2
275
               0
276
               0
277
               2
278
              46
279
               0
280
               0
281
               0
282
               0
283
               1
284
               0
285
               0
286
               0
288
               0
289
               3
340
17
341
0
342
0
343
0
344
0
371
              -2
372
              -2
  0
ENDTAB
  0
TABLE
  2
BLOCK_RECORD
  5
1
100
AcDbSymbolTable
 70
               4
  0
BLOCK_RECORD
  5
A
100
AcDbSymbolTableRecord
100
AcDbBlockTableRecord
  2
*MODEL_SPACE
340
20
  0
BLOCK_RECORD
  5
B
100
AcDbSymbolTableRecord
100
AcDbBlockTableRecord
  2
*PAPER_SPACE
340
21
  0
BLOCK_RECORD
  5
23
100
AcDbSymbolTableRecord
100
AcDbBlockTableRecord
  2
Group
340
0
102
{BLKREFS
331
43
102
}
  0
BLOCK_RECORD
  5
24
100
AcDbSymbolTableRecord
100
AcDbBlockTableRecord
  2
Group-1
340
0
102
{BLKREFS
331
3CE
102
}
  0
BLOCK_RECORD
  5
25
100
AcDbSymbolTableRecord
100
AcDbBlockTableRecord
  2
pad
340
0
102
{BLKREFS
331
49
331
4A
331
4B
331
4C
331
4D
331
4E
331
4F
331
50
331
51
331
52
331
53
331
54
331
55
331
56
331
57
331
58
331
59
331
5A
331
5B
331
5C
331
5D
331
5E
331
5F
331
60
331
61
331
62
331
63
331
64
331
65
331
66
331
67
331
68
331
69
331
6A
331
6B
331
6C
331
6D
331
6E
331
6F
331
70
331
71
331
72
331
73
331
74
331
75
331
76
331
77
331
78
331
79
331
7A
331
7B
331
7C
331
7D
331
7E
331
7F
331
80
331
81
331
82
331
83
331
84
331
85
331
86
331
87
331
88
331
89
331
8A
331
8B
331
8C
331
8D
331
8E
331
8F
331
90
331
91
331
92
331
93
331
94
331
95
331
96
331
97
331
98
331
99
331
9A
331
9B
331
9C
331
9D
331
9E
331
9F
331
A0
331
A1
331
A2
331
A3
331
A4
331
A5
331
A6
331
A7
331
A8
331
A9
331
AA
331
AB
331
AC
331
AD
331
AE
331
AF
331
B0
331
B1
331
B2
331
B3
331
B4
331
B5
331
B6
331
B7
331
B8
331
B9
331
BA
331
BB
331
BC
331
BD
331
BE
331
BF
331
C0
331
C1
331
C2
331
C3
331
C4
331
C5
331
C6
331
C7
331
C8
331
C9
331
CA
331
CB
331
CC
331
CD
331
CE
331
CF
331
D0
331
D1
331
D2
331
D3
331
D4
331
D5
331
D6
331
D7
331
D8
331
D9
331
DA
331
DB
331
DC
331
DD
331
DE
331
DF
331
E0
331
E1
331
E2
331
E3
331
E4
331
E5
331
E6
331
E7
331
E8
331
E9
331
EA
331
EB
331
EC
331
ED
331
EE
331
EF
331
F0
331
F1
331
F2
331
F3
331
F4
331
F5
331
F6
331
F7
331
F8
331
F9
331
FA
331
FB
331
FC
331
FD
331
FE
331
FF
331
100
331
101
331
102
331
103
331
104
331
105
331
106
331
107
331
108
331
109
331
10A
331
10B
331
10C
331
10D
331
10E
331
10F
331
110
331
111
331
112
331
113
331
114
331
115
331
116
331
117
331
118
331
119
331
11A
331
11B
331
11C
331
11D
331
11E
331
11F
331
120
331
121
331
122
331
123
331
124
331
125
331
126
331
127
331
128
331
129
331
12A
331
12B
331
12C
331
12D
331
12E
331
12F
331
130
331
131
331
132
331
133
331
134
331
135
331
136
331
137
331
138
331
139
331
13A
331
13B
331
13C
331
13D
331
13E
331
13F
331
140
331
141
331
142
331
143
331
144
331
145
331
146
331
147
331
148
331
149
331
14A
331
14B
331
14C
331
14D
331
14E
331
14F
331
150
331
151
331
152
331
153
331
154
331
155
331
156
331
157
331
158
331
159
331
15A
331
15B
331
15C
331
15D
331
15E
331
15F
331
160
331
161
331
162
331
163
331
164
331
165
331
166
331
167
331
168
331
169
331
16A
331
16B
331
16C
331
16D
331
16E
331
16F
331
170
331
171
331
172
331
173
331
174
331
175
331
176
331
177
331
178
331
179
331
17A
331
17B
331
17C
331
17D
331
17E
331
17F
331
180
331
181
331
182
331
183
331
184
331
185
331
186
331
187
331
188
331
189
331
18A
331
18B
331
18C
331
18D
331
18E
331
18F
331
190
331
191
331
192
331
193
331
194
331
195
331
196
331
197
331
198
331
199
331
19A
331
19B
331
19C
331
19D
331
19E
331
19F
331
1A0
331
1A1
331
1A2
331
1A3
331
1A4
331
1A5
331
1A6
331
1A7
331
1A8
331
1A9
331
1AA
331
1AB
331
1AC
331
1AD
331
1AE
331
1AF
331
1B0
331
1B1
331
1B2
331
1B3
331
1B4
331
1B5
331
1B6
331
1B7
331
1B8
331
1B9
331
1BA
331
1BB
331
1BC
331
1BD
331
1BE
331
1BF
331
1C0
331
1C1
331
1C2
331
1C3
331
1C4
331
1C5
331
1C6
331
1C7
331
1C8
331
1C9
331
1CA
331
1CB
331
1CC
331
1CD
331
1CE
331
1CF
331
1D0
331
1D1
331
1D2
331
1D3
331
1D4
331
1D5
331
1D6
331
1D7
331
1D8
331
1D9
331
1DA
331
1DB
331
1DC
331
1DD
331
1DE
331
1DF
331
1E0
331
1E1
331
1E2
331
1E3
331
1E4
331
1E5
331
1E6
331
1E7
331
1E8
331
1E9
331
1EA
331
1EB
331
1EC
331
1ED
331
1EE
331
1EF
331
1F0
331
1F1
331
1F2
331
1F3
331
1F4
331
1F5
331
1F6
331
1F7
331
1F8
331
1F9
331
1FA
331
1FB
331
1FC
331
1FD
331
1FE
331
1FF
331
200
331
201
331
202
331
203
331
204
331
205
331
206
331
207
331
208
331
209
331
20A
331
20B
331
20C
331
20D
331
20E
331
20F
331
210
331
211
331
212
331
213
331
214
331
215
331
216
331
217
331
218
331
219
331
21A
331
21B
331
21C
331
21D
331
21E
331
21F
331
220
331
221
331
222
331
223
331
224
331
225
331
226
331
227
331
228
331
229
331
22A
331
22B
331
22C
331
22D
331
22E
331
22F
331
230
331
231
331
232
331
233
331
234
331
235
331
236
331
237
331
238
331
239
331
23A
331
23B
331
23C
331
23D
331
23E
331
23F
331
240
331
241
331
242
331
243
331
244
331
245
331
246
331
247
331
248
331
249
331
24A
331
24B
331
24C
331
24D
331
24E
331
24F
331
250
331
251
331
252
331
253
331
254
331
255
331
256
331
257
331
258
331
259
331
25A
331
25B
331
25C
331
25D
331
25E
331
25F
331
260
331
261
331
262
331
263
331
264
331
265
331
266
331
267
331
268
331
269
331
26A
331
26B
331
26C
331
26D
331
26E
331
26F
331
270
331
271
331
272
331
273
331
274
331
275
331
276
331
277
331
278
331
279
331
27A
331
27B
331
27C
331
27D
331
27E
331
27F
331
280
331
281
331
282
331
283
331
284
331
285
331
286
331
287
331
288
331
289
331
28A
331
28B
331
28C
331
28D
331
28E
331
28F
331
290
331
291
331
292
331
293
331
294
331
295
331
296
331
297
331
298
331
299
331
29A
331
29B
331
29C
331
29D
331
29E
331
29F
331
2A0
331
2A1
331
2A2
331
2A3
331
2A4
331
2A5
331
2A6
331
2A7
331
2A8
331
2A9
331
2AA
331
2AB
331
2AC
331
2AD
331
2AE
331
2AF
331
2B0
331
2B1
331
2B2
331
2B3
331
2B4
331
2B5
331
2B6
331
2B7
331
2B8
331
2B9
331
2BA
331
2BB
331
2BC
331
2BD
331
2BE
331
2BF
331
2C0
331
2C1
331
2C2
331
2C3
331
2C4
331
2C5
331
2C6
331
2C7
331
2C8
331
2C9
331
2CA
331
2CB
331
2CC
331
2CD
331
2CE
331
2CF
331
2D0
331
2D1
331
2D2
331
2D3
331
2D4
331
2D5
331
2D6
331
2D7
331
2D8
331
2D9
331
2DA
331
2DB
331
2DC
331
2DD
331
2DE
331
2DF
331
2E0
331
2E1
331
2E2
331
2E3
331
2E4
331
2E5
331
2E6
331
2E7
331
2E8
331
2E9
331
2EA
331
2EB
331
2EC
331
2ED
331
2EE
331
2EF
331
2F0
331
2F1
331
2F2
331
2F3
331
2F4
331
2F5
331
2F6
331
2F7
331
2F8
331
2F9
331
2FA
331
2FB
331
2FC
331
2FD
331
2FE
331
2FF
331
300
331
301
331
302
331
303
331
304
331
305
331
306
331
307
331
308
331
309
331
30A
331
30B
331
30C
331
30D
331
30E
331
30F
331
310
331
311
331
312
331
313
331
314
331
315
331
316
331
317
331
318
331
319
331
31A
331
31B
331
31C
331
31D
331
31E
331
31F
331
320
331
321
331
322
331
323
331
324
331
325
331
326
331
327
331
328
331
329
331
32A
331
32B
331
32C
331
32D
331
32E
331
32F
331
330
331
331
331
332
331
333
331
334
331
335
331
336
331
337
331
338
331
339
331
33A
331
33B
331
33C
331
33D
331
33E
331
33F
331
340
331
341
331
342
331
343
331
344
331
345
331
346
331
347
331
348
331
349
331
34A
331
34B
331
34C
331
34D
331
34E
331
34F
331
350
331
351
331
352
331
353
331
354
331
355
331
356
331
357
331
358
331
359
331
35A
331
35B
331
35C
331
35D
331
35E
331
35F
331
360
331
361
331
362
331
363
331
364
331
365
331
366
331
367
331
368
331
369
331
36A
331
36B
331
36C
331
36D
331
36E
331
36F
331
370
331
371
331
372
331
373
331
374
331
375
331
376
331
377
331
378
331
379
331
37A
331
37B
331
37C
331
37D
331
37E
331
37F
331
380
331
381
331
382
331
383
331
384
331
385
331
386
331
387
331
388
331
389
331
38A
331
38B
331
38C
331
38D
331
38E
331
38F
331
390
331
391
331
392
331
393
331
394
331
395
331
396
331
397
331
398
331
399
331
39A
331
39B
331
39C
331
39D
331
39E
331
39F
331
3A0
331
3A1
331
3A2
331
3A3
331
3A4
331
3A5
331
3A6
331
3A7
331
3A8
331
3A9
331
3AA
331
3AB
331
3AC
331
3AD
331
3AE
331
3AF
331
3B0
331
3B1
331
3B2
331
3B3
331
3B4
331
3B5
331
3B6
331
3B7
331
3B8
331
3B9
331
3BA
331
3BB
331
3BC
331
3BD
331
3BE
331
3BF
331
3C0
331
3C1
331
3C2
331
3C3
331
3C4
331
3C5
331
3C6
331
3C7
331
3C8
331
3C9
331
3CA
331
3CB
331
3CC
102
}
  0
BLOCK_RECORD
  5
26
100
AcDbSymbolTableRecord
100
AcDbBlockTableRecord
  2
Group-2
340
0
102
{BLKREFS
331
3CF
102
}
  0
ENDTAB
  0
ENDSEC
  0
SECTION
  2
BLOCKS
  0
BLOCK
  5
D
100
AcDbEntity
  8
0
390
0
100
AcDbBlockBegin
  2
*MODEL_SPACE
 70
               0
 10
0.0
 20
0.0
 30
0.0
  3
*MODEL_SPACE
  1

  0
ENDBLK
  5
E
100
AcDbEntity
  8
0
390
0
100
AcDbBlockEnd
  0
BLOCK
  5
F
100
AcDbEntity
 67
               1
  8
0
390
0
100
AcDbBlockBegin
  2
*PAPER_SPACE
 70
               0
 10
0.0
 20
0.0
 30
0.0
  3
*PAPER_SPACE
  1

  0
ENDBLK
  5
10
100
AcDbEntity
 67
               1
  8
0
390
0
100
AcDbBlockEnd
  0
BLOCK
  5
34
100
AcDbEntity
  8
Dimension
390
0
100
AcDbBlockBegin
  2
Group
 70
               0
 10
0.0
 20
0.0
 30
0.0
  3
Group
  1

  0
LINE
  5
35
100
AcDbEntity
  8
None
370
               9
390
0
  6
Continuous
 62
               7
100
AcDbLine
 10
6.9816661682011416
 20
4.1850029986783355
 30
0.0
 11
8.6483278344421883
 21
4.1850029986783355
 31
0.0
  0
LINE
  5
36
100
AcDbEntity
  8
None
370
               9
390
0
  6
Continuous
 62
               7
100
AcDbLine
 10
7.8149970013216645
 20
3.3516721655578152
 30
0.0
 11
7.8149970013216645
 21
5.0183338317988557
 31
0.0
  0
LINE
  5
37
100
AcDbEntity
  8
None
370
               9
390
0
  6
Continuous
 62
               7
100
AcDbLine
 10
-10.0
 20
4.1850029986783355
 30
0.0
 11
6.3150015032817617
 21
4.1850029986783355
 31
0.0
  0
LINE
  5
38
100
AcDbEntity
  8
None
370
               9
390
0
  6
Continuous
 62
               7
100
AcDbLine
 10
9.3149924993615674
 20
4.1850029986783355
 30
0.0
 11
25.629994002643329
 21
4.1850029986783355
 31
0.0
  0
LINE
  5
39
100
AcDbEntity
  8
None
370
               9
390
0
  6
Continuous
 62
               7
100
AcDbLine
 10
7.8149970013216645
 20
22.0
 30
0.0
 11
7.8149970013216645
 21
5.6849984967182365
 31
0.0
  0
LINE
  5
3A
100
AcDbEntity
  8
None
370
               9
390
0
  6
Continuous
 62
               7
100
AcDbLine
 10
7.8149970013216645
 20
2.6850075006384344
 30
0.0
 11
7.8149970013216645
 21
-13.629994002643329
 31
0.0
  0
ENDBLK
  5
3B
100
AcDbEntity
  8
Dimension
390
0
100
AcDbBlockEnd
  0
BLOCK
  5
3C
100
AcDbEntity
  8
None
390
0
100
AcDbBlockBegin
  2
Group-1
 70
               0
 10
0.0
 20
0.0
 30
0.0
  3
Group-1
  1

  0
POLYLINE
  5
3D
100
AcDbEntity
  8
None
370
               9
390
0
  6
STYLE_11
 62
               7
100
AcDb2dPolyline
 66
               1
 10
0.0
 20
0.0
 30
0.0
 70
               1
 75
               5
  0
VERTEX
  5
3E
100
AcDbEntity
  8
None
370
               9
390
0
  6
STYLE_11
 62
               7
100
AcDbVertex
100
AcDb2dVertex
 10
-9.0000029986783332
 20
21.000002998678333
 30
0.0
  0
VERTEX
  5
3F
100
AcDbEntity
  8
None
370
               9
390
0
  6
STYLE_11
 62
               7
100
AcDbVertex
100
AcDb2dVertex
 10
24.629997001321662
 20
21.000002998678333
 30
0.0
  0
VERTEX
  5
40
100
AcDbEntity
  8
None
370
               9
390
0
  6
STYLE_11
 62
               7
100
AcDbVertex
100
AcDb2dVertex
 10
24.629997001321662
 20
-12.629997001321662
 30
0.0
  0
VERTEX
  5
41
100
AcDbEntity
  8
None
370
               9
390
0
  6
STYLE_11
 62
               7
100
AcDbVertex
100
AcDb2dVertex
 10
-9.0000029986783332
 20
-12.629997001321662
 30
0.0
  0
SEQEND
  5
42
100
AcDbEntity
  8
None
370
               9
390
0
  6
STYLE_11
 62
               7
  0
INSERT
  5
43
100
AcDbEntity
  8
Dimension
390
0
 62
               7
100
AcDbBlockReference
  2
Group
 10
0.0
 20
0.0
 30
0.0
  0
ENDBLK
  5
44
100
AcDbEntity
  8
None
390
0
100
AcDbBlockEnd
  0
BLOCK
  5
45
100
AcDbEntity
  8
None
390
0
100
AcDbBlockBegin
  2
pad
 70
               0
 10
0.0
 20
0.0
 30
0.0
  3
pad
  1

  0
CIRCLE
  5
46
100
AcDbEntity
  8
None
370
               9
390
0
  6
Continuous
 62
               7
100
AcDbCircle
 10
0.0
 20
0.0
 30
0.0
 40
0.255
  0
ENDBLK
  5
47
100
AcDbEntity
  8
None
390
0
100
AcDbBlockEnd
  0
BLOCK
  5
48
100
AcDbEntity
  8
None
390
0
100
AcDbBlockBegin
  2
Group-2
 70
               0
 10
0.0
 20
0.0
 30
0.0
  3
Group-2
  1

  0
INSERT
  5
49
100
AcDbEntity
  8
None
390
0
 62
               7
100
AcDbBlockReference
  2
pad
 10
-3.3100029986783408
 20
15.685002998678328
 30
0.0
  0
INSERT
  5
4A
100
AcDbEntity
  8
None
390
0
 62
               7
100
AcDbBlockReference
  2
pad
 10
-2.3100029986783408
 20
15.685002998678328
 30
0.0
  0
INSERT
  5
4B
100
AcDbEntity
  8
None
390
0
 62
               7
100
AcDbBlockReference
  2
pad
 10
-1.3100029986783408
 20
15.685002998678328
 30
0.0
  0
INSERT
  5
4C
100
AcDbEntity
  8
None
390
0
 62
               7
100
AcDbBlockReference
  2
pad
 10
-0.3100029986783408
 20
15.685002998678328
 30
0.0
  0
INSERT
  5
4D
100
AcDbEntity
  8
None
390
0
 62
               7
100
AcDbBlockReference
  2
pad
 10
0.6899970013216592
 20
15.685002998678328
 30
0.0
  0
INSERT
  5
4E
100
AcDbEntity
  8
None
390
0
 62
               7
100
AcDbBlockReference
  2
pad
 10
1.6899970013216592
 20
15.685002998678328
 30
0.0
  0
INSERT
  5
4F
100
AcDbEntity
  8
None
390
0
 62
               7
100
AcDbBlockReference
  2
pad
 10
2.6899970013216592
 20
15.685002998678328
 30
0.0
  0
INSERT
  5
50
100
AcDbEntity
  8
None
390
0
 62
               7
100
AcDbBlockReference
  2
pad
 10
3.6899970013216592
 20
15.685002998678328
 30
0.0
  0
INSERT
  5
51
100
AcDbEntity
  8
None
390
0
 62
               7
100
AcDbBlockReference
  2
pad
 10
4.6899970013216592
 20
15.685002998678328
 30
0.0
  0
INSERT
  5
52
100
AcDbEntity
  8
None
390
0
 62
               7
100
AcDbBlockReference
  2
pad
 10
5.6899970013216592
 20
15.685002998678328
 30
0.0
  0
INSERT
  5
53
100
AcDbEntity
  8
None
390
0
 62
               7
100
AcDbBlockReference
  2
pad
 10
6.6899970013216592
 20
15.685002998678328
 30
0.0
  0
INSERT
  5
54
100
AcDbEntity
  8
None
390
0
 62
               7
100
AcDbBlockReference
  2
pad
 10
7.6899970013216592
 20
15.685002998678328
 30
0.0
  0
INSERT
  5
55
100
AcDbEntity
  8
None
390
0
 62
               7
100
AcDbBlockReference
  2
pad
 10
8.6899970013216592
 20
15.685002998678328
 30
0.0
  0
INSERT
  5
56
100
AcDbEntity
  8
None
390
0
 62
               7
100
AcDbBlockReference
  2
pad
 10
9.6899970013216592
 20
15.685002998678328
 30
0.0
  0
INSERT
  5
57
100
AcDbEntity
  8
None
390
0
 62
               7
100
AcDbBlockReference
  2
pad
 10
10.689997001321659
 20
15.685002998678328
 30
0.0
  0
INSERT
  5
58
100
AcDbEntity
  8
None
390
0
 62
               7
100
AcDbBlockReference
  2
pad
 10
11.689997001321659
 20
15.685002998678328
 30
0.0
  0
INSERT
  5
59
100
AcDbEntity
  8
None
390
0
 62
               7
100
AcDbBlockReference
  2
pad
 10
12.689997001321657
 20
15.685002998678328
 30
0.0
  0
INSERT
  5
5A
100
AcDbEntity
  8
None
390
0
 62
               7
100
AcDbBlockReference
  2
pad
 10
13.689997001321657
 20
15.685002998678328
 30
0.0
  0
INSERT
  5
5B
100
AcDbEntity
  8
None
390
0
 62
               7
100
AcDbBlockReference
  2
pad
 10
14.689997001321657
 20
15.685002998678328
 30
0.0
  0
INSERT
  5
5C
100
AcDbEntity
  8
None
390
0
 62
               7
100
AcDbBlockReference
  2
pad
 10
15.689997001321657
 20
15.685002998678328
 30
0.0
  0
INSERT
  5
5D
100
AcDbEntity
  8
None
390
0
 62
               7
100
AcDbBlockReference
  2
pad
 10
16.689997001321657
 20
15.685002998678328
 30
0.0
  0
INSERT
  5
5E
100
AcDbEntity
  8
None
390
0
 62
               7
100
AcDbBlockReference
  2
pad
 10
17.689997001321657
 20
15.685002998678328
 30
0.0
  0
INSERT
  5
5F
100
AcDbEntity
  8
None
390
0
 62
               7
100
AcDbBlockReference
  2
pad
 10
18.689997001321657
 20
15.685002998678328
 30
0.0
  0
INSERT
  5
60
100
AcDbEntity
  8
None
390
0
 62
               7
100
AcDbBlockReference
  2
pad
 10
19.689997001321657
 20
15.685002998678328
 30
0.0
  0
INSERT
  5
61
100
AcDbEntity
  8
None
390
0
 62
               7
100
AcDbBlockReference
  2
pad
 10
-3.3100029986783408
 20
14.685002998678328
 30
0.0
  0
INSERT
  5
62
100
AcDbEntity
  8
None
390
0
 62
               7
100
AcDbBlockReference
  2
pad
 10
-2.3100029986783408
 20
14.685002998678328
 30
0.0
  0
INSERT
  5
63
100
AcDbEntity
  8
None
390
0
 62
               7
100
AcDbBlockReference
  2
pad
 10
-1.3100029986783408
 20
14.685002998678328
 30
0.0
  0
INSERT
  5
64
100
AcDbEntity
  8
None
390
0
 62
               7
100
AcDbBlockReference
  2
pad
 10
-0.3100029986783408
 20
14.685002998678328
 30
0.0
  0
INSERT
  5
65
100
AcDbEntity
  8
None
390
0
 62
               7
100
AcDbBlockReference
  2
pad
 10
0.6899970013216592
 20
14.685002998678328
 30
0.0
  0
INSERT
  5
66
100
AcDbEntity
  8
None
390
0
 62
               7
100
AcDbBlockReference
  2
pad
 10
1.6899970013216592
 20
14.685002998678328
 30
0.0
  0
INSERT
  5
67
100
AcDbEntity
  8
None
390
0
 62
               7
100
AcDbBlockReference
  2
pad
 10
2.6899970013216592
 20
14.685002998678328
 30
0.0
  0
INSERT
  5
68
100
AcDbEntity
  8
None
390
0
 62
               7
100
AcDbBlockReference
  2
pad
 10
3.6899970013216592
 20
14.685002998678328
 30
0.0
  0
INSERT
  5
69
100
AcDbEntity
  8
None
390
0
 62
               7
100
AcDbBlockReference
  2
pad
 10
4.6899970013216592
 20
14.685002998678328
 30
0.0
  0
INSERT
  5
6A
100
AcDbEntity
  8
None
390
0
 62
               7
100
AcDbBlockReference
  2
pad
 10
5.6899970013216592
 20
14.685002998678328
 30
0.0
  0
INSERT
  5
6B
100
AcDbEntity
  8
None
390
0
 62
               7
100
AcDbBlockReference
  2
pad
 10
6.6899970013216592
 20
14.685002998678328
 30
0.0
  0
INSERT
  5
6C
100
AcDbEntity
  8
None
390
0
 62
               7
100
AcDbBlockReference
  2
pad
 10
7.6899970013216592
 20
14.685002998678328
 30
0.0
  0
INSERT
  5
6D
100
AcDbEntity
  8
None
390
0
 62
               7
100
AcDbBlockReference
  2
pad
 10
8.6899970013216592
 20
14.685002998678328
 30
0.0
  0
INSERT
  5
6E
100
AcDbEntity
  8
None
390
0
 62
               7
100
AcDbBlockReference
  2
pad
 10
9.6899970013216592
 20
14.685002998678328
 30
0.0
  0
INSERT
  5
6F
100
AcDbEntity
  8
None
390
0
 62
               7
100
AcDbBlockReference
  2
pad
 10
10.689997001321659
 20
14.685002998678328
 30
0.0
  0
INSERT
  5
70
100
AcDbEntity
  8
None
390
0
 62
               7
100
AcDbBlockReference
  2
pad
 10
11.689997001321659
 20
14.685002998678328
 30
0.0
  0
INSERT
  5
71
100
AcDbEntity
  8
None
390
0
 62
               7
100
AcDbBlockReference
  2
pad
 10
12.689997001321657
 20
14.685002998678328
 30
0.0
  0
INSERT
  5
72
100
AcDbEntity
  8
None
390
0
 62
               7
100
AcDbBlockReference
  2
pad
 10
13.689997001321657
 20
14.685002998678328
 30
0.0
  0
INSERT
  5
73
100
AcDbEntity
  8
None
390
0
 62
               7
100
AcDbBlockReference
  2
pad
 10
14.689997001321657
 20
14.685002998678328
 30
0.0
  0
INSERT
  5
74
100
AcDbEntity
  8
None
390
0
 62
               7
100
AcDbBlockReference
  2
pad
 10
15.689997001321657
 20
14.685002998678328
 30
0.0
  0
INSERT
  5
75
100
AcDbEntity
  8
None
390
0
 62
               7
100
AcDbBlockReference
  2
pad
 10
16.689997001321657
 20
14.685002998678328
 30
0.0
  0
INSERT
  5
76
100
AcDbEntity
  8
None
390
0
 62
               7
100
AcDbBlockReference
  2
pad
 10
17.689997001321657
 20
14.685002998678328
 30
0.0
  0
INSERT
  5
77
100
AcDbEntity
  8
None
390
0
 62
               7
100
AcDbBlockReference
  2
pad
 10
18.689997001321657
 20
14.685002998678328
 30
0.0
  0
INSERT
  5
78
100
AcDbEntity
  8
None
390
0
 62
               7
100
AcDbBlockReference
  2
pad
 10
19.689997001321657
 20
14.685002998678328
 30
0.0
  0
INSERT
  5
79
100
AcDbEntity
  8
None
390
0
 62
               7
100
AcDbBlockReference
  2
pad
 10
-3.3100029986783408
 20
13.685002998678328
 30
0.0
  0
INSERT
  5
7A
100
AcDbEntity
  8
None
390
0
 62
               7
100
AcDbBlockReference
  2
pad
 10
-2.3100029986783408
 20
13.685002998678328
 30
0.0
  0
INSERT
  5
7B
100
AcDbEntity
  8
None
390
0
 62
               7
100
AcDbBlockReference
  2
pad
 10
-1.3100029986783408
 20
13.685002998678328
 30
0.0
  0
INSERT
  5
7C
100
AcDbEntity
  8
None
390
0
 62
               7
100
AcDbBlockReference
  2
pad
 10
-0.3100029986783408
 20
13.685002998678328
 30
0.0
  0
INSERT
  5
7D
100
AcDbEntity
  8
None
390
0
 62
               7
100
AcDbBlockReference
  2
pad
 10
0.6899970013216592
 20
13.685002998678328
 30
0.0
  0
INSERT
  5
7E
100
AcDbEntity
  8
None
390
0
 62
               7
100
AcDbBlockReference
  2
pad
 10
1.6899970013216592
 20
13.685002998678328
 30
0.0
  0
INSERT
  5
7F
100
AcDbEntity
  8
None
390
0
 62
               7
100
AcDbBlockReference
  2
pad
 10
2.6899970013216592
 20
13.685002998678328
 30
0.0
  0
INSERT
  5
80
100
AcDbEntity
  8
None
390
0
 62
               7
100
AcDbBlockReference
  2
pad
 10
3.6899970013216592
 20
13.685002998678328
 30
0.0
  0
INSERT
  5
81
100
AcDbEntity
  8
None
390
0
 62
               7
100
AcDbBlockReference
  2
pad
 10
4.6899970013216592
 20
13.685002998678328
 30
0.0
  0
INSERT
  5
82
100
AcDbEntity
  8
None
390
0
 62
               7
100
AcDbBlockReference
  2
pad
 10
5.6899970013216592
 20
13.685002998678328
 30
0.0
  0
INSERT
  5
83
100
AcDbEntity
  8
None
390
0
 62
               7
100
AcDbBlockReference
  2
pad
 10
6.6899970013216592
 20
13.685002998678328
 30
0.0
  0
INSERT
  5
84
100
AcDbEntity
  8
None
390
0
 62
               7
100
AcDbBlockReference
  2
pad
 10
7.6899970013216592
 20
13.685002998678328
 30
0.0
  0
INSERT
  5
85
100
AcDbEntity
  8
None
390
0
 62
               7
100
AcDbBlockReference
  2
pad
 10
8.6899970013216592
 20
13.685002998678328
 30
0.0
  0
INSERT
  5
86
100
AcDbEntity
  8
None
390
0
 62
               7
100
AcDbBlockReference
  2
pad
 10
9.6899970013216592
 20
13.685002998678328
 30
0.0
  0
INSERT
  5
87
100
AcDbEntity
  8
None
390
0
 62
               7
100
AcDbBlockReference
  2
pad
 10
10.689997001321659
 20
13.685002998678328
 30
0.0
  0
INSERT
  5
88
100
AcDbEntity
  8
None
390
0
 62
               7
100
AcDbBlockReference
  2
pad
 10
11.689997001321659
 20
13.685002998678328
 30
0.0
  0
INSERT
  5
89
100
AcDbEntity
  8
None
390
0
 62
               7
100
AcDbBlockReference
  2
pad
 10
12.689997001321657
 20
13.685002998678328
 30
0.0
  0
INSERT
  5
8A
100
AcDbEntity
  8
None
390
0
 62
               7
100
AcDbBlockReference
  2
pad
 10
13.689997001321657
 20
13.685002998678328
 30
0.0
  0
INSERT
  5
8B
100
AcDbEntity
  8
None
390
0
 62
               7
100
AcDbBlockReference
  2
pad
 10
14.689997001321657
 20
13.685002998678328
 30
0.0
  0
INSERT
  5
8C
100
AcDbEntity
  8
None
390
0
 62
               7
100
AcDbBlockReference
  2
pad
 10
15.689997001321657
 20
13.685002998678328
 30
0.0
  0
INSERT
  5
8D
100
AcDbEntity
  8
None
390
0
 62
               7
100
AcDbBlockReference
  2
pad
 10
16.689997001321657
 20
13.685002998678328
 30
0.0
  0
INSERT
  5
8E
100
AcDbEntity
  8
None
390
0
 62
               7
100
AcDbBlockReference
  2
pad
 10
17.689997001321657
 20
13.685002998678328
 30
0.0
  0
INSERT
  5
8F
100
AcDbEntity
  8
None
390
0
 62
               7
100
AcDbBlockReference
  2
pad
 10
18.689997001321657
 20
13.685002998678328
 30
0.0
  0
INSERT
  5
90
100
AcDbEntity
  8
None
390
0
 62
               7
100
AcDbBlockReference
  2
pad
 10
19.689997001321657
 20
13.685002998678328
 30
0.0
  0
INSERT
  5
91
100
AcDbEntity
  8
None
390
0
 62
               7
100
AcDbBlockReference
  2
pad
 10
-3.3100029986783408
 20
12.685002998678328
 30
0.0
  0
INSERT
  5
92
100
AcDbEntity
  8
None
390
0
 62
               7
100
AcDbBlockReference
  2
pad
 10
-2.3100029986783408
 20
12.685002998678328
 30
0.0
  0
INSERT
  5
93
100
AcDbEntity
  8
None
390
0
 62
               7
100
AcDbBlockReference
  2
pad
 10
-1.3100029986783408
 20
12.685002998678328
 30
0.0
  0
INSERT
  5
94
100
AcDbEntity
  8
None
390
0
 62
               7
100
AcDbBlockReference
  2
pad
 10
-0.3100029986783408
 20
12.685002998678328
 30
0.0
  0
INSERT
  5
95
100
AcDbEntity
  8
None
390
0
 62
               7
100
AcDbBlockReference
  2
pad
 10
0.6899970013216592
 20
12.685002998678328
 30
0.0
  0
INSERT
  5
96
100
AcDbEntity
  8
None
390
0
 62
               7
100
AcDbBlockReference
  2
pad
 10
1.6899970013216592
 20
12.685002998678328
 30
0.0
  0
INSERT
  5
97
100
AcDbEntity
  8
None
390
0
 62
               7
100
AcDbBlockReference
  2
pad
 10
2.6899970013216592
 20
12.685002998678328
 30
0.0
  0
INSERT
  5
98
100
AcDbEntity
  8
None
390
0
 62
               7
100
AcDbBlockReference
  2
pad
 10
3.6899970013216592
 20
12.685002998678328
 30
0.0
  0
INSERT
  5
99
100
AcDbEntity
  8
None
390
0
 62
               7
100
AcDbBlockReference
  2
pad
 10
4.6899970013216592
 20
12.685002998678328
 30
0.0
  0
INSERT
  5
9A
100
AcDbEntity
  8
None
390
0
 62
               7
100
AcDbBlockReference
  2
pad
 10
5.6899970013216592
 20
12.685002998678328
 30
0.0
  0
INSERT
  5
9B
100
AcDbEntity
  8
None
390
0
 62
               7
100
AcDbBlockReference
  2
pad
 10
6.6899970013216592
 20
12.685002998678328
 30
0.0
  0
INSERT
  5
9C
100
AcDbEntity
  8
None
390
0
 62
               7
100
AcDbBlockReference
  2
pad
 10
7.6899970013216592
 20
12.685002998678328
 30
0.0
  0
INSERT
  5
9D
100
AcDbEntity
  8
None
390
0
 62
               7
100
AcDbBlockReference
  2
pad
 10
8.6899970013216592
 20
12.685002998678328
 30
0.0
  0
INSERT
  5
9E
100
AcDbEntity
  8
None
390
0
 62
               7
100
AcDbBlockReference
  2
pad
 10
9.6899970013216592
 20
12.685002998678328
 30
0.0
  0
INSERT
  5
9F
100
AcDbEntity
  8
None
390
0
 62
               7
100
AcDbBlockReference
  2
pad
 10
10.689997001321659
 20
12.685002998678328
 30
0.0
  0
INSERT
  5
A0
100
AcDbEntity
  8
None
390
0
 62
               7
100
AcDbBlockReference
  2
pad
 10
11.689997001321659
 20
12.685002998678328
 30
0.0
  0
INSERT
  5
A1
100
AcDbEntity
  8
None
390
0
 62
               7
100
AcDbBlockReference
  2
pad
 10
12.689997001321657
 20
12.685002998678328
 30
0.0
  0
INSERT
  5
A2
100
AcDbEntity
  8
None
390
0
 62
               7
100
AcDbBlockReference
  2
pad
 10
13.689997001321657
 20
12.685002998678328
 30
0.0
  0
INSERT
  5
A3
100
AcDbEntity
  8
None
390
0
 62
               7
100
AcDbBlockReference
  2
pad
 10
14.689997001321657
 20
12.685002998678328
 30
0.0
  0
INSERT
  5
A4
100
AcDbEntity
  8
None
390
0
 62
               7
100
AcDbBlockReference
  2
pad
 10
15.689997001321657
 20
12.685002998678328
 30
0.0
  0
INSERT
  5
A5
100
AcDbEntity
  8
None
390
0
 62
               7
100
AcDbBlockReference
  2
pad
 10
16.689997001321657
 20
12.685002998678328
 30
0.0
  0
INSERT
  5
A6
100
AcDbEntity
  8
None
390
0
 62
               7
100
AcDbBlockReference
  2
pad
 10
17.689997001321657
 20
12.685002998678328
 30
0.0
  0
INSERT
  5
A7
100
AcDbEntity
  8
None
390
0
 62
               7
100
AcDbBlockReference
  2
pad
 10
18.689997001321657
 20
12.685002998678328
 30
0.0
  0
INSERT
  5
A8
100
AcDbEntity
  8
None
390
0
 62
               7
100
AcDbBlockReference
  2
pad
 10
19.689997001321657
 20
12.685002998678328
 30
0.0
  0
INSERT
  5
A9
100
AcDbEntity
  8
None
390
0
 62
               7
100
AcDbBlockReference
  2
pad
 10
-3.3100029986783408
 20
11.685002998678328
 30
0.0
  0
INSERT
  5
AA
100
AcDbEntity
  8
None
390
0
 62
               7
100
AcDbBlockReference
  2
pad
 10
-2.3100029986783408
 20
11.685002998678328
 30
0.0
  0
INSERT
  5
AB
100
AcDbEntity
  8
None
390
0
 62
               7
100
AcDbBlockReference
  2
pad
 10
-1.3100029986783408
 20
11.685002998678328
 30
0.0
  0
INSERT
  5
AC
100
AcDbEntity
  8
None
390
0
 62
               7
100
AcDbBlockReference
  2
pad
 10
-0.3100029986783408
 20
11.685002998678328
 30
0.0
  0
INSERT
  5
AD
100
AcDbEntity
  8
None
390
0
 62
               7
100
AcDbBlockReference
  2
pad
 10
0.6899970013216592
 20
11.685002998678328
 30
0.0
  0
INSERT
  5
AE
100
AcDbEntity
  8
None
390
0
 62
               7
100
AcDbBlockReference
  2
pad
 10
1.6899970013216592
 20
11.685002998678328
 30
0.0
  0
INSERT
  5
AF
100
AcDbEntity
  8
None
390
0
 62
               7
100
AcDbBlockReference
  2
pad
 10
2.6899970013216592
 20
11.685002998678328
 30
0.0
  0
INSERT
  5
B0
100
AcDbEntity
  8
None
390
0
 62
               7
100
AcDbBlockReference
  2
pad
 10
3.6899970013216592
 20
11.685002998678328
 30
0.0
  0
INSERT
  5
B1
100
AcDbEntity
  8
None
390
0
 62
               7
100
AcDbBlockReference
  2
pad
 10
4.6899970013216592
 20
11.685002998678328
 30
0.0
  0
INSERT
  5
B2
100
AcDbEntity
  8
None
390
0
 62
               7
100
AcDbBlockReference
  2
pad
 10
5.6899970013216592
 20
11.685002998678328
 30
0.0
  0
INSERT
  5
B3
100
AcDbEntity
  8
None
390
0
 62
               7
100
AcDbBlockReference
  2
pad
 10
6.6899970013216592
 20
11.685002998678328
 30
0.0
  0
INSERT
  5
B4
100
AcDbEntity
  8
None
390
0
 62
               7
100
AcDbBlockReference
  2
pad
 10
7.6899970013216592
 20
11.685002998678328
 30
0.0
  0
INSERT
  5
B5
100
AcDbEntity
  8
None
390
0
 62
               7
100
AcDbBlockReference
  2
pad
 10
8.6899970013216592
 20
11.685002998678328
 30
0.0
  0
INSERT
  5
B6
100
AcDbEntity
  8
None
390
0
 62
               7
100
AcDbBlockReference
  2
pad
 10
9.6899970013216592
 20
11.685002998678328
 30
0.0
  0
INSERT
  5
B7
100
AcDbEntity
  8
None
390
0
 62
               7
100
AcDbBlockReference
  2
pad
 10
10.689997001321659
 20
11.685002998678328
 30
0.0
  0
INSERT
  5
B8
100
AcDbEntity
  8
None
390
0
 62
               7
100
AcDbBlockReference
  2
pad
 10
11.689997001321659
 20
11.685002998678328
 30
0.0
  0
INSERT
  5
B9
100
AcDbEntity
  8
None
390
0
 62
               7
100
AcDbBlockReference
  2
pad
 10
12.689997001321657
 20
11.685002998678328
 30
0.0
  0
INSERT
  5
BA
100
AcDbEntity
  8
None
390
0
 62
               7
100
AcDbBlockReference
  2
pad
 10
13.689997001321657
 20
11.685002998678328
 30
0.0
  0
INSERT
  5
BB
100
AcDbEntity
  8
None
390
0
 62
               7
100
AcDbBlockReference
  2
pad
 10
14.689997001321657
 20
11.685002998678328
 30
0.0
  0
INSERT
  5
BC
100
AcDbEntity
  8
None
390
0
 62
               7
100
AcDbBlockReference
  2
pad
 10
15.689997001321657
 20
11.685002998678328
 30
0.0
  0
INSERT
  5
BD
100
AcDbEntity
  8
None
390
0
 62
               7
100
AcDbBlockReference
  2
pad
 10
16.689997001321657
 20
11.685002998678328
 30
0.0
  0
INSERT
  5
BE
100
AcDbEntity
  8
None
390
0
 62
               7
100
AcDbBlockReference
  2
pad
 10
17.689997001321657
 20
11.685002998678328
 30
0.0
  0
INSERT
  5
BF
100
AcDbEntity
  8
None
390
0
 62
               7
100
AcDbBlockReference
  2
pad
 10
18.689997001321657
 20
11.685002998678328
 30
0.0
  0
INSERT
  5
C0
100
AcDbEntity
  8
None
390
0
 62
               7
100
AcDbBlockReference
  2
pad
 10
19.689997001321657
 20
11.685002998678328
 30
0.0
  0
INSERT
  5
C1
100
AcDbEntity
  8
None
390
0
 62
               7
100
AcDbBlockReference
  2
pad
 10
-3.3100029986783408
 20
10.685002998678328
 30
0.0
  0
INSERT
  5
C2
100
AcDbEntity
  8
None
390
0
 62
               7
100
AcDbBlockReference
  2
pad
 10
-2.3100029986783408
 20
10.685002998678328
 30
0.0
  0
INSERT
  5
C3
100
AcDbEntity
  8
None
390
0
 62
               7
100
AcDbBlockReference
  2
pad
 10
-1.3100029986783408
 20
10.685002998678328
 30
0.0
  0
INSERT
  5
C4
100
AcDbEntity
  8
None
390
0
 62
               7
100
AcDbBlockReference
  2
pad
 10
-0.3100029986783408
 20
10.685002998678328
 30
0.0
  0
INSERT
  5
C5
100
AcDbEntity
  8
None
390
0
 62
               7
100
AcDbBlockReference
  2
pad
 10
0.6899970013216592
 20
10.685002998678328
 30
0.0
  0
INSERT
  5
C6
100
AcDbEntity
  8
None
390
0
 62
               7
100
AcDbBlockReference
  2
pad
 10
1.6899970013216592
 20
10.685002998678328
 30
0.0
  0
INSERT
  5
C7
100
AcDbEntity
  8
None
390
0
 62
               7
100
AcDbBlockReference
  2
pad
 10
2.6899970013216592
 20
10.685002998678328
 30
0.0
  0
INSERT
  5
C8
100
AcDbEntity
  8
None
390
0
 62
               7
100
AcDbBlockReference
  2
pad
 10
3.6899970013216592
 20
10.685002998678328
 30
0.0
  0
INSERT
  5
C9
100
AcDbEntity
  8
None
390
0
 62
               7
100
AcDbBlockReference
  2
pad
 10
4.6899970013216592
 20
10.685002998678328
 30
0.0
  0
INSERT
  5
CA
100
AcDbEntity
  8
None
390
0
 62
               7
100
AcDbBlockReference
  2
pad
 10
5.6899970013216592
 20
10.685002998678328
 30
0.0
  0
INSERT
  5
CB
100
AcDbEntity
  8
None
390
0
 62
               7
100
AcDbBlockReference
  2
pad
 10
6.6899970013216592
 20
10.685002998678328
 30
0.0
  0
INSERT
  5
CC
100
AcDbEntity
  8
None
390
0
 62
               7
100
AcDbBlockReference
  2
pad
 10
7.6899970013216592
 20
10.685002998678328
 30
0.0
  0
INSERT
  5
CD
100
AcDbEntity
  8
None
390
0
 62
               7
100
AcDbBlockReference
  2
pad
 10
8.6899970013216592
 20
10.685002998678328
 30
0.0
  0
INSERT
  5
CE
100
AcDbEntity
  8
None
390
0
 62
               7
100
AcDbBlockReference
  2
pad
 10
9.6899970013216592
 20
10.685002998678328
 30
0.0
  0
INSERT
  5
CF
100
AcDbEntity
  8
None
390
0
 62
               7
100
AcDbBlockReference
  2
pad
 10
10.689997001321659
 20
10.685002998678328
 30
0.0
  0
INSERT
  5
D0
100
AcDbEntity
  8
None
390
0
 62
               7
100
AcDbBlockReference
  2
pad
 10
11.689997001321659
 20
10.685002998678328
 30
0.0
  0
INSERT
  5
D1
100
AcDbEntity
  8
None
390
0
 62
               7
100
AcDbBlockReference
  2
pad
 10
12.689997001321657
 20
10.685002998678328
 30
0.0
  0
INSERT
  5
D2
100
AcDbEntity
  8
None
390
0
 62
               7
100
AcDbBlockReference
  2
pad
 10
13.689997001321657
 20
10.685002998678328
 30
0.0
  0
INSERT
  5
D3
100
AcDbEntity
  8
None
390
0
 62
               7
100
AcDbBlockReference
  2
pad
 10
14.689997001321657
 20
10.685002998678328
 30
0.0
  0
INSERT
  5
D4
100
AcDbEntity
  8
None
390
0
 62
               7
100
AcDbBlockReference
  2
pad
 10
15.689997001321657
 20
10.685002998678328
 30
0.0
  0
INSERT
  5
D5
100
AcDbEntity
  8
None
390
0
 62
               7
100
AcDbBlockReference
  2
pad
 10
16.689997001321657
 20
10.685002998678328
 30
0.0
  0
INSERT
  5
D6
100
AcDbEntity
  8
None
390
0
 62
               7
100
AcDbBlockReference
  2
pad
 10
17.689997001321657
 20
10.685002998678328
 30
0.0
  0
INSERT
  5
D7
100
AcDbEntity
  8
None
390
0
 62
               7
100
AcDbBlockReference
  2
pad
 10
18.689997001321657
 20
10.685002998678328
 30
0.0
  0
INSERT
  5
D8
100
AcDbEntity
  8
None
390
0
 62
               7
100
AcDbBlockReference
  2
pad
 10
19.689997001321657
 20
10.685002998678328
 30
0.0
  0
INSERT
  5
D9
100
AcDbEntity
  8
None
390
0
 62
               7
100
AcDbBlockReference
  2
pad
 10
-3.3100029986783408
 20
9.6850029986783284
 30
0.0
  0
INSERT
  5
DA
100
AcDbEntity
  8
None
390
0
 62
               7
100
AcDbBlockReference
  2
pad
 10
-2.3100029986783408
 20
9.6850029986783284
 30
0.0
  0
INSERT
  5
DB
100
AcDbEntity
  8
None
390
0
 62
               7
100
AcDbBlockReference
  2
pad
 10
-1.3100029986783408
 20
9.6850029986783284
 30
0.0
  0
INSERT
  5
DC
100
AcDbEntity
  8
None
390
0
 62
               7
100
AcDbBlockReference
  2
pad
 10
-0.3100029986783408
 20
9.6850029986783284
 30
0.0
  0
INSERT
  5
DD
100
AcDbEntity
  8
None
390
0
 62
               7
100
AcDbBlockReference
  2
pad
 10
0.6899970013216592
 20
9.6850029986783284
 30
0.0
  0
INSERT
  5
DE
100
AcDbEntity
  8
None
390
0
 62
               7
100
AcDbBlockReference
  2
pad
 10
1.6899970013216592
 20
9.6850029986783284
 30
0.0
  0
INSERT
  5
DF
100
AcDbEntity
  8
None
390
0
 62
               7
100
AcDbBlockReference
  2
pad
 10
2.6899970013216592
 20
9.6850029986783284
 30
0.0
  0
INSERT
  5
E0
100
AcDbEntity
  8
None
390
0
 62
               7
100
AcDbBlockReference
  2
pad
 10
3.6899970013216592
 20
9.6850029986783284
 30
0.0
  0
INSERT
  5
E1
100
AcDbEntity
  8
None
390
0
 62
               7
100
AcDbBlockReference
  2
pad
 10
4.6899970013216592
 20
9.6850029986783284
 30
0.0
  0
INSERT
  5
E2
100
AcDbEntity
  8
None
390
0
 62
               7
100
AcDbBlockReference
  2
pad
 10
5.6899970013216592
 20
9.6850029986783284
 30
0.0
  0
INSERT
  5
E3
100
AcDbEntity
  8
None
390
0
 62
               7
100
AcDbBlockReference
  2
pad
 10
6.6899970013216592
 20
9.6850029986783284
 30
0.0
  0
INSERT
  5
E4
100
AcDbEntity
  8
None
390
0
 62
               7
100
AcDbBlockReference
  2
pad
 10
7.6899970013216592
 20
9.6850029986783284
 30
0.0
  0
INSERT
  5
E5
100
AcDbEntity
  8
None
390
0
 62
               7
100
AcDbBlockReference
  2
pad
 10
8.6899970013216592
 20
9.6850029986783284
 30
0.0
  0
INSERT
  5
E6
100
AcDbEntity
  8
None
390
0
 62
               7
100
AcDbBlockReference
  2
pad
 10
9.6899970013216592
 20
9.6850029986783284
 30
0.0
  0
INSERT
  5
E7
100
AcDbEntity
  8
None
390
0
 62
               7
100
AcDbBlockReference
  2
pad
 10
10.689997001321659
 20
9.6850029986783284
 30
0.0
  0
INSERT
  5
E8
100
AcDbEntity
  8
None
390
0
 62
               7
100
AcDbBlockReference
  2
pad
 10
11.689997001321659
 20
9.6850029986783284
 30
0.0
  0
INSERT
  5
E9
100
AcDbEntity
  8
None
390
0
 62
               7
100
AcDbBlockReference
  2
pad
 10
12.689997001321657
 20
9.6850029986783284
 30
0.0
  0
INSERT
  5
EA
100
AcDbEntity
  8
None
390
0
 62
               7
100
AcDbBlockReference
  2
pad
 10
13.689997001321657
 20
9.6850029986783284
 30
0.0
  0
INSERT
  5
EB
100
AcDbEntity
  8
None
390
0
 62
               7
100
AcDbBlockReference
  2
pad
 10
14.689997001321657
 20
9.6850029986783284
 30
0.0
  0
INSERT
  5
EC
100
AcDbEntity
  8
None
390
0
 62
               7
100
AcDbBlockReference
  2
pad
 10
15.689997001321657
 20
9.6850029986783284
 30
0.0
  0
INSERT
  5
ED
100
AcDbEntity
  8
None
390
0
 62
               7
100
AcDbBlockReference
  2
pad
 10
16.689997001321657
 20
9.6850029986783284
 30
0.0
  0
INSERT
  5
EE
100
AcDbEntity
  8
None
390
0
 62
               7
100
AcDbBlockReference
  2
pad
 10
17.689997001321657
 20
9.6850029986783284
 30
0.0
  0
INSERT
  5
EF
100
AcDbEntity
  8
None
390
0
 62
               7
100
AcDbBlockReference
  2
pad
 10
18.689997001321657
 20
9.6850029986783284
 30
0.0
  0
INSERT
  5
F0
100
AcDbEntity
  8
None
390
0
 62
               7
100
AcDbBlockReference
  2
pad
 10
19.689997001321657
 20
9.6850029986783284
 30
0.0
  0
INSERT
  5
F1
100
AcDbEntity
  8
None
390
0
 62
               7
100
AcDbBlockReference
  2
pad
 10
-3.3100029986783408
 20
8.6850029986783284
 30
0.0
  0
INSERT
  5
F2
100
AcDbEntity
  8
None
390
0
 62
               7
100
AcDbBlockReference
  2
pad
 10
-2.3100029986783408
 20
8.6850029986783284
 30
0.0
  0
INSERT
  5
F3
100
AcDbEntity
  8
None
390
0
 62
               7
100
AcDbBlockReference
  2
pad
 10
-1.3100029986783408
 20
8.6850029986783284
 30
0.0
  0
INSERT
  5
F4
100
AcDbEntity
  8
None
390
0
 62
               7
100
AcDbBlockReference
  2
pad
 10
-0.3100029986783408
 20
8.6850029986783284
 30
0.0
  0
INSERT
  5
F5
100
AcDbEntity
  8
None
390
0
 62
               7
100
AcDbBlockReference
  2
pad
 10
0.6899970013216592
 20
8.6850029986783284
 30
0.0
  0
INSERT
  5
F6
100
AcDbEntity
  8
None
390
0
 62
               7
100
AcDbBlockReference
  2
pad
 10
1.6899970013216592
 20
8.6850029986783284
 30
0.0
  0
INSERT
  5
F7
100
AcDbEntity
  8
None
390
0
 62
               7
100
AcDbBlockReference
  2
pad
 10
2.6899970013216592
 20
8.6850029986783284
 30
0.0
  0
INSERT
  5
F8
100
AcDbEntity
  8
None
390
0
 62
               7
100
AcDbBlockReference
  2
pad
 10
3.6899970013216592
 20
8.6850029986783284
 30
0.0
  0
INSERT
  5
F9
100
AcDbEntity
  8
None
390
0
 62
               7
100
AcDbBlockReference
  2
pad
 10
4.6899970013216592
 20
8.6850029986783284
 30
0.0
  0
INSERT
  5
FA
100
AcDbEntity
  8
None
390
0
 62
               7
100
AcDbBlockReference
  2
pad
 10
5.6899970013216592
 20
8.6850029986783284
 30
0.0
  0
INSERT
  5
FB
100
AcDbEntity
  8
None
390
0
 62
               7
100
AcDbBlockReference
  2
pad
 10
6.6899970013216592
 20
8.6850029986783284
 30
0.0
  0
INSERT
  5
FC
100
AcDbEntity
  8
None
390
0
 62
               7
100
AcDbBlockReference
  2
pad
 10
7.6899970013216592
 20
8.6850029986783284
 30
0.0
  0
INSERT
  5
FD
100
AcDbEntity
  8
None
390
0
 62
               7
100
AcDbBlockReference
  2
pad
 10
8.6899970013216592
 20
8.6850029986783284
 30
0.0
  0
INSERT
  5
FE
100
AcDbEntity
  8
None
390
0
 62
               7
100
AcDbBlockReference
  2
pad
 10
9.6899970013216592
 20
8.6850029986783284
 30
0.0
  0
INSERT
  5
FF
100
AcDbEntity
  8
None
390
0
 62
               7
100
AcDbBlockReference
  2
pad
 10
10.689997001321659
 20
8.6850029986783284
 30
0.0
  0
INSERT
  5
100
100
AcDbEntity
  8
None
390
0
 62
               7
100
AcDbBlockReference
  2
pad
 10
11.689997001321659
 20
8.6850029986783284
 30
0.0
  0
INSERT
  5
101
100
AcDbEntity
  8
None
390
0
 62
               7
100
AcDbBlockReference
  2
pad
 10
12.689997001321657
 20
8.6850029986783284
 30
0.0
  0
INSERT
  5
102
100
AcDbEntity
  8
None
390
0
 62
               7
100
AcDbBlockReference
  2
pad
 10
13.689997001321657
 20
8.6850029986783284
 30
0.0
  0
INSERT
  5
103
100
AcDbEntity
  8
None
390
0
 62
               7
100
AcDbBlockReference
  2
pad
 10
14.689997001321657
 20
8.6850029986783284
 30
0.0
  0
INSERT
  5
104
100
AcDbEntity
  8
None
390
0
 62
               7
100
AcDbBlockReference
  2
pad
 10
15.689997001321657
 20
8.6850029986783284
 30
0.0
  0
INSERT
  5
105
100
AcDbEntity
  8
None
390
0
 62
               7
100
AcDbBlockReference
  2
pad
 10
16.689997001321657
 20
8.6850029986783284
 30
0.0
  0
INSERT
  5
106
100
AcDbEntity
  8
None
390
0
 62
               7
100
AcDbBlockReference
  2
pad
 10
17.689997001321657
 20
8.6850029986783284
 30
0.0
  0
INSERT
  5
107
100
AcDbEntity
  8
None
390
0
 62
               7
100
AcDbBlockReference
  2
pad
 10
18.689997001321657
 20
8.6850029986783284
 30
0.0
  0
INSERT
  5
108
100
AcDbEntity
  8
None
390
0
 62
               7
100
AcDbBlockReference
  2
pad
 10
19.689997001321657
 20
8.6850029986783284
 30
0.0
  0
INSERT
  5
109
100
AcDbEntity
  8
None
390
0
 62
               7
100
AcDbBlockReference
  2
pad
 10
-3.3100029986783408
 20
7.6850029986783284
 30
0.0
  0
INSERT
  5
10A
100
AcDbEntity
  8
None
390
0
 62
               7
100
AcDbBlockReference
  2
pad
 10
-2.3100029986783408
 20
7.6850029986783284
 30
0.0
  0
INSERT
  5
10B
100
AcDbEntity
  8
None
390
0
 62
               7
100
AcDbBlockReference
  2
pad
 10
-1.3100029986783408
 20
7.6850029986783284
 30
0.0
  0
INSERT
  5
10C
100
AcDbEntity
  8
None
390
0
 62
               7
100
AcDbBlockReference
  2
pad
 10
-0.3100029986783408
 20
7.6850029986783284
 30
0.0
  0
INSERT
  5
10D
100
AcDbEntity
  8
None
390
0
 62
               7
100
AcDbBlockReference
  2
pad
 10
0.6899970013216592
 20
7.6850029986783284
 30
0.0
  0
INSERT
  5
10E
100
AcDbEntity
  8
None
390
0
 62
               7
100
AcDbBlockReference
  2
pad
 10
1.6899970013216592
 20
7.6850029986783284
 30
0.0
  0
INSERT
  5
10F
100
AcDbEntity
  8
None
390
0
 62
               7
100
AcDbBlockReference
  2
pad
 10
2.6899970013216592
 20
7.6850029986783284
 30
0.0
  0
INSERT
  5
110
100
AcDbEntity
  8
None
390
0
 62
               7
100
AcDbBlockReference
  2
pad
 10
3.6899970013216592
 20
7.6850029986783284
 30
0.0
  0
INSERT
  5
111
100
AcDbEntity
  8
None
390
0
 62
               7
100
AcDbBlockReference
  2
pad
 10
4.6899970013216592
 20
7.6850029986783284
 30
0.0
  0
INSERT
  5
112
100
AcDbEntity
  8
None
390
0
 62
               7
100
AcDbBlockReference
  2
pad
 10
5.6899970013216592
 20
7.6850029986783284
 30
0.0
  0
INSERT
  5
113
100
AcDbEntity
  8
None
390
0
 62
               7
100
AcDbBlockReference
  2
pad
 10
6.6899970013216592
 20
7.6850029986783284
 30
0.0
  0
INSERT
  5
114
100
AcDbEntity
  8
None
390
0
 62
               7
100
AcDbBlockReference
  2
pad
 10
7.6899970013216592
 20
7.6850029986783284
 30
0.0
  0
INSERT
  5
115
100
AcDbEntity
  8
None
390
0
 62
               7
100
AcDbBlockReference
  2
pad
 10
8.6899970013216592
 20
7.6850029986783284
 30
0.0
  0
INSERT
  5
116
100
AcDbEntity
  8
None
390
0
 62
               7
100
AcDbBlockReference
  2
pad
 10
9.6899970013216592
 20
7.6850029986783284
 30
0.0
  0
INSERT
  5
117
100
AcDbEntity
  8
None
390
0
 62
               7
100
AcDbBlockReference
  2
pad
 10
10.689997001321659
 20
7.6850029986783284
 30
0.0
  0
INSERT
  5
118
100
AcDbEntity
  8
None
390
0
 62
               7
100
AcDbBlockReference
  2
pad
 10
11.689997001321659
 20
7.6850029986783284
 30
0.0
  0
INSERT
  5
119
100
AcDbEntity
  8
None
390
0
 62
               7
100
AcDbBlockReference
  2
pad
 10
12.689997001321657
 20
7.6850029986783284
 30
0.0
  0
INSERT
  5
11A
100
AcDbEntity
  8
None
390
0
 62
               7
100
AcDbBlockReference
  2
pad
 10
13.689997001321657
 20
7.6850029986783284
 30
0.0
  0
INSERT
  5
11B
100
AcDbEntity
  8
None
390
0
 62
               7
100
AcDbBlockReference
  2
pad
 10
14.689997001321657
 20
7.6850029986783284
 30
0.0
  0
INSERT
  5
11C
100
AcDbEntity
  8
None
390
0
 62
               7
100
AcDbBlockReference
  2
pad
 10
15.689997001321657
 20
7.6850029986783284
 30
0.0
  0
INSERT
  5
11D
100
AcDbEntity
  8
None
390
0
 62
               7
100
AcDbBlockReference
  2
pad
 10
16.689997001321657
 20
7.6850029986783284
 30
0.0
  0
INSERT
  5
11E
100
AcDbEntity
  8
None
390
0
 62
               7
100
AcDbBlockReference
  2
pad
 10
17.689997001321657
 20
7.6850029986783284
 30
0.0
  0
INSERT
  5
11F
100
AcDbEntity
  8
None
390
0
 62
               7
100
AcDbBlockReference
  2
pad
 10
18.689997001321657
 20
7.6850029986783284
 30
0.0
  0
INSERT
  5
120
100
AcDbEntity
  8
None
390
0
 62
               7
100
AcDbBlockReference
  2
pad
 10
19.689997001321657
 20
7.6850029986783284
 30
0.0
  0
INSERT
  5
121
100
AcDbEntity
  8
None
390
0
 62
               7
100
AcDbBlockReference
  2
pad
 10
-3.3100029986783408
 20
6.6850029986783284
 30
0.0
  0
INSERT
  5
122
100
AcDbEntity
  8
None
390
0
 62
               7
100
AcDbBlockReference
  2
pad
 10
-2.3100029986783408
 20
6.6850029986783284
 30
0.0
  0
INSERT
  5
123
100
AcDbEntity
  8
None
390
0
 62
               7
100
AcDbBlockReference
  2
pad
 10
-1.3100029986783408
 20
6.6850029986783284
 30
0.0
  0
INSERT
  5
124
100
AcDbEntity
  8
None
390
0
 62
               7
100
AcDbBlockReference
  2
pad
 10
-0.3100029986783408
 20
6.6850029986783284
 30
0.0
  0
INSERT
  5
125
100
AcDbEntity
  8
None
390
0
 62
               7
100
AcDbBlockReference
  2
pad
 10
0.6899970013216592
 20
6.6850029986783284
 30
0.0
  0
INSERT
  5
126
100
AcDbEntity
  8
None
390
0
 62
               7
100
AcDbBlockReference
  2
pad
 10
1.6899970013216592
 20
6.6850029986783284
 30
0.0
  0
INSERT
  5
127
100
AcDbEntity
  8
None
390
0
 62
               7
100
AcDbBlockReference
  2
pad
 10
2.6899970013216592
 20
6.6850029986783284
 30
0.0
  0
INSERT
  5
128
100
AcDbEntity
  8
None
390
0
 62
               7
100
AcDbBlockReference
  2
pad
 10
3.6899970013216592
 20
6.6850029986783284
 30
0.0
  0
INSERT
  5
129
100
AcDbEntity
  8
None
390
0
 62
               7
100
AcDbBlockReference
  2
pad
 10
4.6899970013216592
 20
6.6850029986783284
 30
0.0
  0
INSERT
  5
12A
100
AcDbEntity
  8
None
390
0
 62
               7
100
AcDbBlockReference
  2
pad
 10
5.6899970013216592
 20
6.6850029986783284
 30
0.0
  0
INSERT
  5
12B
100
AcDbEntity
  8
None
390
0
 62
               7
100
AcDbBlockReference
  2
pad
 10
6.6899970013216592
 20
6.6850029986783284
 30
0.0
  0
INSERT
  5
12C
100
AcDbEntity
  8
None
390
0
 62
               7
100
AcDbBlockReference
  2
pad
 10
7.6899970013216592
 20
6.6850029986783284
 30
0.0
  0
INSERT
  5
12D
100
AcDbEntity
  8
None
390
0
 62
               7
100
AcDbBlockReference
  2
pad
 10
8.6899970013216592
 20
6.6850029986783284
 30
0.0
  0
INSERT
  5
12E
100
AcDbEntity
  8
None
390
0
 62
               7
100
AcDbBlockReference
  2
pad
 10
9.6899970013216592
 20
6.6850029986783284
 30
0.0
  0
INSERT
  5
12F
100
AcDbEntity
  8
None
390
0
 62
               7
100
AcDbBlockReference
  2
pad
 10
10.689997001321659
 20
6.6850029986783284
 30
0.0
  0
INSERT
  5
130
100
AcDbEntity
  8
None
390
0
 62
               7
100
AcDbBlockReference
  2
pad
 10
11.689997001321659
 20
6.6850029986783284
 30
0.0
  0
INSERT
  5
131
100
AcDbEntity
  8
None
390
0
 62
               7
100
AcDbBlockReference
  2
pad
 10
12.689997001321657
 20
6.6850029986783284
 30
0.0
  0
INSERT
  5
132
100
AcDbEntity
  8
None
390
0
 62
               7
100
AcDbBlockReference
  2
pad
 10
13.689997001321657
 20
6.6850029986783284
 30
0.0
  0
INSERT
  5
133
100
AcDbEntity
  8
None
390
0
 62
               7
100
AcDbBlockReference
  2
pad
 10
14.689997001321657
 20
6.6850029986783284
 30
0.0
  0
INSERT
  5
134
100
AcDbEntity
  8
None
390
0
 62
               7
100
AcDbBlockReference
  2
pad
 10
15.689997001321657
 20
6.6850029986783284
 30
0.0
  0
INSERT
  5
135
100
AcDbEntity
  8
None
390
0
 62
               7
100
AcDbBlockReference
  2
pad
 10
16.689997001321657
 20
6.6850029986783284
 30
0.0
  0
INSERT
  5
136
100
AcDbEntity
  8
None
390
0
 62
               7
100
AcDbBlockReference
  2
pad
 10
17.689997001321657
 20
6.6850029986783284
 30
0.0
  0
INSERT
  5
137
100
AcDbEntity
  8
None
390
0
 62
               7
100
AcDbBlockReference
  2
pad
 10
18.689997001321657
 20
6.6850029986783284
 30
0.0
  0
INSERT
  5
138
100
AcDbEntity
  8
None
390
0
 62
               7
100
AcDbBlockReference
  2
pad
 10
19.689997001321657
 20
6.6850029986783284
 30
0.0
  0
INSERT
  5
139
100
AcDbEntity
  8
None
390
0
 62
               7
100
AcDbBlockReference
  2
pad
 10
-3.3100029986783408
 20
5.6850029986783284
 30
0.0
  0
INSERT
  5
13A
100
AcDbEntity
  8
None
390
0
 62
               7
100
AcDbBlockReference
  2
pad
 10
-2.3100029986783408
 20
5.6850029986783284
 30
0.0
  0
INSERT
  5
13B
100
AcDbEntity
  8
None
390
0
 62
               7
100
AcDbBlockReference
  2
pad
 10
-1.3100029986783408
 20
5.6850029986783284
 30
0.0
  0
INSERT
  5
13C
100
AcDbEntity
  8
None
390
0
 62
               7
100
AcDbBlockReference
  2
pad
 10
-0.3100029986783408
 20
5.6850029986783284
 30
0.0
  0
INSERT
  5
13D
100
AcDbEntity
  8
None
390
0
 62
               7
100
AcDbBlockReference
  2
pad
 10
0.6899970013216592
 20
5.6850029986783284
 30
0.0
  0
INSERT
  5
13E
100
AcDbEntity
  8
None
390
0
 62
               7
100
AcDbBlockReference
  2
pad
 10
1.6899970013216592
 20
5.6850029986783284
 30
0.0
  0
INSERT
  5
13F
100
AcDbEntity
  8
None
390
0
 62
               7
100
AcDbBlockReference
  2
pad
 10
2.6899970013216592
 20
5.6850029986783284
 30
0.0
  0
INSERT
  5
140
100
AcDbEntity
  8
None
390
0
 62
               7
100
AcDbBlockReference
  2
pad
 10
3.6899970013216592
 20
5.6850029986783284
 30
0.0
  0
INSERT
  5
141
100
AcDbEntity
  8
None
390
0
 62
               7
100
AcDbBlockReference
  2
pad
 10
4.6899970013216592
 20
5.6850029986783284
 30
0.0
  0
INSERT
  5
142
100
AcDbEntity
  8
None
390
0
 62
               7
100
AcDbBlockReference
  2
pad
 10
5.6899970013216592
 20
5.6850029986783284
 30
0.0
  0
INSERT
  5
143
100
AcDbEntity
  8
None
390
0
 62
               7
100
AcDbBlockReference
  2
pad
 10
6.6899970013216592
 20
5.6850029986783284
 30
0.0
  0
INSERT
  5
144
100
AcDbEntity
  8
None
390
0
 62
               7
100
AcDbBlockReference
  2
pad
 10
7.6899970013216592
 20
5.6850029986783284
 30
0.0
  0
INSERT
  5
145
100
AcDbEntity
  8
None
390
0
 62
               7
100
AcDbBlockReference
  2
pad
 10
8.6899970013216592
 20
5.6850029986783284
 30
0.0
  0
INSERT
  5
146
100
AcDbEntity
  8
None
390
0
 62
               7
100
AcDbBlockReference
  2
pad
 10
9.6899970013216592
 20
5.6850029986783284
 30
0.0
  0
INSERT
  5
147
100
AcDbEntity
  8
None
390
0
 62
               7
100
AcDbBlockReference
  2
pad
 10
10.689997001321659
 20
5.6850029986783284
 30
0.0
  0
INSERT
  5
148
100
AcDbEntity
  8
None
390
0
 62
               7
100
AcDbBlockReference
  2
pad
 10
11.689997001321659
 20
5.6850029986783284
 30
0.0
  0
INSERT
  5
149
100
AcDbEntity
  8
None
390
0
 62
               7
100
AcDbBlockReference
  2
pad
 10
12.689997001321657
 20
5.6850029986783284
 30
0.0
  0
INSERT
  5
14A
100
AcDbEntity
  8
None
390
0
 62
               7
100
AcDbBlockReference
  2
pad
 10
13.689997001321657
 20
5.6850029986783284
 30
0.0
  0
INSERT
  5
14B
100
AcDbEntity
  8
None
390
0
 62
               7
100
AcDbBlockReference
  2
pad
 10
14.689997001321657
 20
5.6850029986783284
 30
0.0
  0
INSERT
  5
14C
100
AcDbEntity
  8
None
390
0
 62
               7
100
AcDbBlockReference
  2
pad
 10
15.689997001321657
 20
5.6850029986783284
 30
0.0
  0
INSERT
  5
14D
100
AcDbEntity
  8
None
390
0
 62
               7
100
AcDbBlockReference
  2
pad
 10
16.689997001321657
 20
5.6850029986783284
 30
0.0
  0
INSERT
  5
14E
100
AcDbEntity
  8
None
390
0
 62
               7
100
AcDbBlockReference
  2
pad
 10
17.689997001321657
 20
5.6850029986783284
 30
0.0
  0
INSERT
  5
14F
100
AcDbEntity
  8
None
390
0
 62
               7
100
AcDbBlockReference
  2
pad
 10
18.689997001321657
 20
5.6850029986783284
 30
0.0
  0
INSERT
  5
150
100
AcDbEntity
  8
None
390
0
 62
               7
100
AcDbBlockReference
  2
pad
 10
19.689997001321657
 20
5.6850029986783284
 30
0.0
  0
INSERT
  5
151
100
AcDbEntity
  8
None
390
0
 62
               7
100
AcDbBlockReference
  2
pad
 10
-3.3100029986783408
 20
4.6850029986783284
 30
0.0
  0
INSERT
  5
152
100
AcDbEntity
  8
None
390
0
 62
               7
100
AcDbBlockReference
  2
pad
 10
-2.3100029986783408
 20
4.6850029986783284
 30
0.0
  0
INSERT
  5
153
100
AcDbEntity
  8
None
390
0
 62
               7
100
AcDbBlockReference
  2
pad
 10
-1.3100029986783408
 20
4.6850029986783284
 30
0.0
  0
INSERT
  5
154
100
AcDbEntity
  8
None
390
0
 62
               7
100
AcDbBlockReference
  2
pad
 10
-0.3100029986783408
 20
4.6850029986783284
 30
0.0
  0
INSERT
  5
155
100
AcDbEntity
  8
None
390
0
 62
               7
100
AcDbBlockReference
  2
pad
 10
0.6899970013216592
 20
4.6850029986783284
 30
0.0
  0
INSERT
  5
156
100
AcDbEntity
  8
None
390
0
 62
               7
100
AcDbBlockReference
  2
pad
 10
1.6899970013216592
 20
4.6850029986783284
 30
0.0
  0
INSERT
  5
157
100
AcDbEntity
  8
None
390
0
 62
               7
100
AcDbBlockReference
  2
pad
 10
2.6899970013216592
 20
4.6850029986783284
 30
0.0
  0
INSERT
  5
158
100
AcDbEntity
  8
None
390
0
 62
               7
100
AcDbBlockReference
  2
pad
 10
3.6899970013216592
 20
4.6850029986783284
 30
0.0
  0
INSERT
  5
159
100
AcDbEntity
  8
None
390
0
 62
               7
100
AcDbBlockReference
  2
pad
 10
4.6899970013216592
 20
4.6850029986783284
 30
0.0
  0
INSERT
  5
15A
100
AcDbEntity
  8
None
390
0
 62
               7
100
AcDbBlockReference
  2
pad
 10
5.6899970013216592
 20
4.6850029986783284
 30
0.0
  0
INSERT
  5
15B
100
AcDbEntity
  8
None
390
0
 62
               7
100
AcDbBlockReference
  2
pad
 10
6.6899970013216592
 20
4.6850029986783284
 30
0.0
  0
INSERT
  5
15C
100
AcDbEntity
  8
None
390
0
 62
               7
100
AcDbBlockReference
  2
pad
 10
7.6899970013216592
 20
4.6850029986783284
 30
0.0
  0
INSERT
  5
15D
100
AcDbEntity
  8
None
390
0
 62
               7
100
AcDbBlockReference
  2
pad
 10
8.6899970013216592
 20
4.6850029986783284
 30
0.0
  0
INSERT
  5
15E
100
AcDbEntity
  8
None
390
0
 62
               7
100
AcDbBlockReference
  2
pad
 10
9.6899970013216592
 20
4.6850029986783284
 30
0.0
  0
INSERT
  5
15F
100
AcDbEntity
  8
None
390
0
 62
               7
100
AcDbBlockReference
  2
pad
 10
10.689997001321659
 20
4.6850029986783284
 30
0.0
  0
INSERT
  5
160
100
AcDbEntity
  8
None
390
0
 62
               7
100
AcDbBlockReference
  2
pad
 10
11.689997001321659
 20
4.6850029986783284
 30
0.0
  0
INSERT
  5
161
100
AcDbEntity
  8
None
390
0
 62
               7
100
AcDbBlockReference
  2
pad
 10
12.689997001321657
 20
4.6850029986783284
 30
0.0
  0
INSERT
  5
162
100
AcDbEntity
  8
None
390
0
 62
               7
100
AcDbBlockReference
  2
pad
 10
13.689997001321657
 20
4.6850029986783284
 30
0.0
  0
INSERT
  5
163
100
AcDbEntity
  8
None
390
0
 62
               7
100
AcDbBlockReference
  2
pad
 10
14.689997001321657
 20
4.6850029986783284
 30
0.0
  0
INSERT
  5
164
100
AcDbEntity
  8
None
390
0
 62
               7
100
AcDbBlockReference
  2
pad
 10
15.689997001321657
 20
4.6850029986783284
 30
0.0
  0
INSERT
  5
165
100
AcDbEntity
  8
None
390
0
 62
               7
100
AcDbBlockReference
  2
pad
 10
16.689997001321657
 20
4.6850029986783284
 30
0.0
  0
INSERT
  5
166
100
AcDbEntity
  8
None
390
0
 62
               7
100
AcDbBlockReference
  2
pad
 10
17.689997001321657
 20
4.6850029986783284
 30
0.0
  0
INSERT
  5
167
100
AcDbEntity
  8
None
390
0
 62
               7
100
AcDbBlockReference
  2
pad
 10
18.689997001321657
 20
4.6850029986783284
 30
0.0
  0
INSERT
  5
168
100
AcDbEntity
  8
None
390
0
 62
               7
100
AcDbBlockReference
  2
pad
 10
19.689997001321657
 20
4.6850029986783284
 30
0.0
  0
INSERT
  5
169
100
AcDbEntity
  8
None
390
0
 62
               7
100
AcDbBlockReference
  2
pad
 10
-3.3100029986783408
 20
3.6850029986783284
 30
0.0
  0
INSERT
  5
16A
100
AcDbEntity
  8
None
390
0
 62
               7
100
AcDbBlockReference
  2
pad
 10
-2.3100029986783408
 20
3.6850029986783284
 30
0.0
  0
INSERT
  5
16B
100
AcDbEntity
  8
None
390
0
 62
               7
100
AcDbBlockReference
  2
pad
 10
-1.3100029986783408
 20
3.6850029986783284
 30
0.0
  0
INSERT
  5
16C
100
AcDbEntity
  8
None
390
0
 62
               7
100
AcDbBlockReference
  2
pad
 10
-0.3100029986783408
 20
3.6850029986783284
 30
0.0
  0
INSERT
  5
16D
100
AcDbEntity
  8
None
390
0
 62
               7
100
AcDbBlockReference
  2
pad
 10
0.6899970013216592
 20
3.6850029986783284
 30
0.0
  0
INSERT
  5
16E
100
AcDbEntity
  8
None
390
0
 62
               7
100
AcDbBlockReference
  2
pad
 10
1.6899970013216592
 20
3.6850029986783284
 30
0.0
  0
INSERT
  5
16F
100
AcDbEntity
  8
None
390
0
 62
               7
100
AcDbBlockReference
  2
pad
 10
2.6899970013216592
 20
3.6850029986783284
 30
0.0
  0
INSERT
  5
170
100
AcDbEntity
  8
None
390
0
 62
               7
100
AcDbBlockReference
  2
pad
 10
3.6899970013216592
 20
3.6850029986783284
 30
0.0
  0
INSERT
  5
171
100
AcDbEntity
  8
None
390
0
 62
               7
100
AcDbBlockReference
  2
pad
 10
4.6899970013216592
 20
3.6850029986783284
 30
0.0
  0
INSERT
  5
172
100
AcDbEntity
  8
None
390
0
 62
               7
100
AcDbBlockReference
  2
pad
 10
5.6899970013216592
 20
3.6850029986783284
 30
0.0
  0
INSERT
  5
173
100
AcDbEntity
  8
None
390
0
 62
               7
100
AcDbBlockReference
  2
pad
 10
6.6899970013216592
 20
3.6850029986783284
 30
0.0
  0
INSERT
  5
174
100
AcDbEntity
  8
None
390
0
 62
               7
100
AcDbBlockReference
  2
pad
 10
7.6899970013216592
 20
3.6850029986783284
 30
0.0
  0
INSERT
  5
175
100
AcDbEntity
  8
None
390
0
 62
               7
100
AcDbBlockReference
  2
pad
 10
8.6899970013216592
 20
3.6850029986783284
 30
0.0
  0
INSERT
  5
176
100
AcDbEntity
  8
None
390
0
 62
               7
100
AcDbBlockReference
  2
pad
 10
9.6899970013216592
 20
3.6850029986783284
 30
0.0
  0
INSERT
  5
177
100
AcDbEntity
  8
None
390
0
 62
               7
100
AcDbBlockReference
  2
pad
 10
10.689997001321659
 20
3.6850029986783284
 30
0.0
  0
INSERT
  5
178
100
AcDbEntity
  8
None
390
0
 62
               7
100
AcDbBlockReference
  2
pad
 10
11.689997001321659
 20
3.6850029986783284
 30
0.0
  0
INSERT
  5
179
100
AcDbEntity
  8
None
390
0
 62
               7
100
AcDbBlockReference
  2
pad
 10
12.689997001321657
 20
3.6850029986783284
 30
0.0
  0
INSERT
  5
17A
100
AcDbEntity
  8
None
390
0
 62
               7
100
AcDbBlockReference
  2
pad
 10
13.689997001321657
 20
3.6850029986783284
 30
0.0
  0
INSERT
  5
17B
100
AcDbEntity
  8
None
390
0
 62
               7
100
AcDbBlockReference
  2
pad
 10
14.689997001321657
 20
3.6850029986783284
 30
0.0
  0
INSERT
  5
17C
100
AcDbEntity
  8
None
390
0
 62
               7
100
AcDbBlockReference
  2
pad
 10
15.689997001321657
 20
3.6850029986783284
 30
0.0
  0
INSERT
  5
17D
100
AcDbEntity
  8
None
390
0
 62
               7
100
AcDbBlockReference
  2
pad
 10
16.689997001321657
 20
3.6850029986783284
 30
0.0
  0
INSERT
  5
17E
100
AcDbEntity
  8
None
390
0
 62
               7
100
AcDbBlockReference
  2
pad
 10
17.689997001321657
 20
3.6850029986783284
 30
0.0
  0
INSERT
  5
17F
100
AcDbEntity
  8
None
390
0
 62
               7
100
AcDbBlockReference
  2
pad
 10
18.689997001321657
 20
3.6850029986783284
 30
0.0
  0
INSERT
  5
180
100
AcDbEntity
  8
None
390
0
 62
               7
100
AcDbBlockReference
  2
pad
 10
19.689997001321657
 20
3.6850029986783284
 30
0.0
  0
INSERT
  5
181
100
AcDbEntity
  8
None
390
0
 62
               7
100
AcDbBlockReference
  2
pad
 10
-3.3100029986783408
 20
2.6850029986783284
 30
0.0
  0
INSERT
  5
182
100
AcDbEntity
  8
None
390
0
 62
               7
100
AcDbBlockReference
  2
pad
 10
-2.3100029986783408
 20
2.6850029986783284
 30
0.0
  0
INSERT
  5
183
100
AcDbEntity
  8
None
390
0
 62
               7
100
AcDbBlockReference
  2
pad
 10
-1.3100029986783408
 20
2.6850029986783284
 30
0.0
  0
INSERT
  5
184
100
AcDbEntity
  8
None
390
0
 62
               7
100
AcDbBlockReference
  2
pad
 10
-0.3100029986783408
 20
2.6850029986783284
 30
0.0
  0
INSERT
  5
185
100
AcDbEntity
  8
None
390
0
 62
               7
100
AcDbBlockReference
  2
pad
 10
0.6899970013216592
 20
2.6850029986783284
 30
0.0
  0
INSERT
  5
186
100
AcDbEntity
  8
None
390
0
 62
               7
100
AcDbBlockReference
  2
pad
 10
1.6899970013216592
 20
2.6850029986783284
 30
0.0
  0
INSERT
  5
187
100
AcDbEntity
  8
None
390
0
 62
               7
100
AcDbBlockReference
  2
pad
 10
2.6899970013216592
 20
2.6850029986783284
 30
0.0
  0
INSERT
  5
188
100
AcDbEntity
  8
None
390
0
 62
               7
100
AcDbBlockReference
  2
pad
 10
3.6899970013216592
 20
2.6850029986783284
 30
0.0
  0
INSERT
  5
189
100
AcDbEntity
  8
None
390
0
 62
               7
100
AcDbBlockReference
  2
pad
 10
4.6899970013216592
 20
2.6850029986783284
 30
0.0
  0
INSERT
  5
18A
100
AcDbEntity
  8
None
390
0
 62
               7
100
AcDbBlockReference
  2
pad
 10
5.6899970013216592
 20
2.6850029986783284
 30
0.0
  0
INSERT
  5
18B
100
AcDbEntity
  8
None
390
0
 62
               7
100
AcDbBlockReference
  2
pad
 10
6.6899970013216592
 20
2.6850029986783284
 30
0.0
  0
INSERT
  5
18C
100
AcDbEntity
  8
None
390
0
 62
               7
100
AcDbBlockReference
  2
pad
 10
7.6899970013216592
 20
2.6850029986783284
 30
0.0
  0
INSERT
  5
18D
100
AcDbEntity
  8
None
390
0
 62
               7
100
AcDbBlockReference
  2
pad
 10
8.6899970013216592
 20
2.6850029986783284
 30
0.0
  0
INSERT
  5
18E
100
AcDbEntity
  8
None
390
0
 62
               7
100
AcDbBlockReference
  2
pad
 10
9.6899970013216592
 20
2.6850029986783284
 30
0.0
  0
INSERT
  5
18F
100
AcDbEntity
  8
None
390
0
 62
               7
100
AcDbBlockReference
  2
pad
 10
10.689997001321659
 20
2.6850029986783284
 30
0.0
  0
INSERT
  5
190
100
AcDbEntity
  8
None
390
0
 62
               7
100
AcDbBlockReference
  2
pad
 10
11.689997001321659
 20
2.6850029986783284
 30
0.0
  0
INSERT
  5
191
100
AcDbEntity
  8
None
390
0
 62
               7
100
AcDbBlockReference
  2
pad
 10
12.689997001321657
 20
2.6850029986783284
 30
0.0
  0
INSERT
  5
192
100
AcDbEntity
  8
None
390
0
 62
               7
100
AcDbBlockReference
  2
pad
 10
13.689997001321657
 20
2.6850029986783284
 30
0.0
  0
INSERT
  5
193
100
AcDbEntity
  8
None
390
0
 62
               7
100
AcDbBlockReference
  2
pad
 10
14.689997001321657
 20
2.6850029986783284
 30
0.0
  0
INSERT
  5
194
100
AcDbEntity
  8
None
390
0
 62
               7
100
AcDbBlockReference
  2
pad
 10
15.689997001321657
 20
2.6850029986783284
 30
0.0
  0
INSERT
  5
195
100
AcDbEntity
  8
None
390
0
 62
               7
100
AcDbBlockReference
  2
pad
 10
16.689997001321657
 20
2.6850029986783284
 30
0.0
  0
INSERT
  5
196
100
AcDbEntity
  8
None
390
0
 62
               7
100
AcDbBlockReference
  2
pad
 10
17.689997001321657
 20
2.6850029986783284
 30
0.0
  0
INSERT
  5
197
100
AcDbEntity
  8
None
390
0
 62
               7
100
AcDbBlockReference
  2
pad
 10
18.689997001321657
 20
2.6850029986783284
 30
0.0
  0
INSERT
  5
198
100
AcDbEntity
  8
None
390
0
 62
               7
100
AcDbBlockReference
  2
pad
 10
19.689997001321657
 20
2.6850029986783284
 30
0.0
  0
INSERT
  5
199
100
AcDbEntity
  8
None
390
0
 62
               7
100
AcDbBlockReference
  2
pad
 10
-3.3100029986783408
 20
1.6850029986783284
 30
0.0
  0
INSERT
  5
19A
100
AcDbEntity
  8
None
390
0
 62
               7
100
AcDbBlockReference
  2
pad
 10
-2.3100029986783408
 20
1.6850029986783284
 30
0.0
  0
INSERT
  5
19B
100
AcDbEntity
  8
None
390
0
 62
               7
100
AcDbBlockReference
  2
pad
 10
-1.3100029986783408
 20
1.6850029986783284
 30
0.0
  0
INSERT
  5
19C
100
AcDbEntity
  8
None
390
0
 62
               7
100
AcDbBlockReference
  2
pad
 10
-0.3100029986783408
 20
1.6850029986783284
 30
0.0
  0
INSERT
  5
19D
100
AcDbEntity
  8
None
390
0
 62
               7
100
AcDbBlockReference
  2
pad
 10
0.6899970013216592
 20
1.6850029986783284
 30
0.0
  0
INSERT
  5
19E
100
AcDbEntity
  8
None
390
0
 62
               7
100
AcDbBlockReference
  2
pad
 10
1.6899970013216592
 20
1.6850029986783284
 30
0.0
  0
INSERT
  5
19F
100
AcDbEntity
  8
None
390
0
 62
               7
100
AcDbBlockReference
  2
pad
 10
2.6899970013216592
 20
1.6850029986783284
 30
0.0
  0
INSERT
  5
1A0
100
AcDbEntity
  8
None
390
0
 62
               7
100
AcDbBlockReference
  2
pad
 10
3.6899970013216592
 20
1.6850029986783284
 30
0.0
  0
INSERT
  5
1A1
100
AcDbEntity
  8
None
390
0
 62
               7
100
AcDbBlockReference
  2
pad
 10
4.6899970013216592
 20
1.6850029986783284
 30
0.0
  0
INSERT
  5
1A2
100
AcDbEntity
  8
None
390
0
 62
               7
100
AcDbBlockReference
  2
pad
 10
5.6899970013216592
 20
1.6850029986783284
 30
0.0
  0
INSERT
  5
1A3
100
AcDbEntity
  8
None
390
0
 62
               7
100
AcDbBlockReference
  2
pad
 10
6.6899970013216592
 20
1.6850029986783284
 30
0.0
  0
INSERT
  5
1A4
100
AcDbEntity
  8
None
390
0
 62
               7
100
AcDbBlockReference
  2
pad
 10
7.6899970013216592
 20
1.6850029986783284
 30
0.0
  0
INSERT
  5
1A5
100
AcDbEntity
  8
None
390
0
 62
               7
100
AcDbBlockReference
  2
pad
 10
8.6899970013216592
 20
1.6850029986783284
 30
0.0
  0
INSERT
  5
1A6
100
AcDbEntity
  8
None
390
0
 62
               7
100
AcDbBlockReference
  2
pad
 10
9.6899970013216592
 20
1.6850029986783284
 30
0.0
  0
INSERT
  5
1A7
100
AcDbEntity
  8
None
390
0
 62
               7
100
AcDbBlockReference
  2
pad
 10
10.689997001321659
 20
1.6850029986783284
 30
0.0
  0
INSERT
  5
1A8
100
AcDbEntity
  8
None
390
0
 62
               7
100
AcDbBlockReference
  2
pad
 10
11.689997001321659
 20
1.6850029986783284
 30
0.0
  0
INSERT
  5
1A9
100
AcDbEntity
  8
None
390
0
 62
               7
100
AcDbBlockReference
  2
pad
 10
12.689997001321657
 20
1.6850029986783284
 30
0.0
  0
INSERT
  5
1AA
100
AcDbEntity
  8
None
390
0
 62
               7
100
AcDbBlockReference
  2
pad
 10
13.689997001321657
 20
1.6850029986783284
 30
0.0
  0
INSERT
  5
1AB
100
AcDbEntity
  8
None
390
0
 62
               7
100
AcDbBlockReference
  2
pad
 10
14.689997001321657
 20
1.6850029986783284
 30
0.0
  0
INSERT
  5
1AC
100
AcDbEntity
  8
None
390
0
 62
               7
100
AcDbBlockReference
  2
pad
 10
15.689997001321657
 20
1.6850029986783284
 30
0.0
  0
INSERT
  5
1AD
100
AcDbEntity
  8
None
390
0
 62
               7
100
AcDbBlockReference
  2
pad
 10
16.689997001321657
 20
1.6850029986783284
 30
0.0
  0
INSERT
  5
1AE
100
AcDbEntity
  8
None
390
0
 62
               7
100
AcDbBlockReference
  2
pad
 10
17.689997001321657
 20
1.6850029986783284
 30
0.0
  0
INSERT
  5
1AF
100
AcDbEntity
  8
None
390
0
 62
               7
100
AcDbBlockReference
  2
pad
 10
18.689997001321657
 20
1.6850029986783284
 30
0.0
  0
INSERT
  5
1B0
100
AcDbEntity
  8
None
390
0
 62
               7
100
AcDbBlockReference
  2
pad
 10
19.689997001321657
 20
1.6850029986783284
 30
0.0
  0
INSERT
  5
1B1
100
AcDbEntity
  8
None
390
0
 62
               7
100
AcDbBlockReference
  2
pad
 10
-3.3100029986783408
 20
0.6850029986783284
 30
0.0
  0
INSERT
  5
1B2
100
AcDbEntity
  8
None
390
0
 62
               7
100
AcDbBlockReference
  2
pad
 10
-2.3100029986783408
 20
0.6850029986783284
 30
0.0
  0
INSERT
  5
1B3
100
AcDbEntity
  8
None
390
0
 62
               7
100
AcDbBlockReference
  2
pad
 10
-1.3100029986783408
 20
0.6850029986783284
 30
0.0
  0
INSERT
  5
1B4
100
AcDbEntity
  8
None
390
0
 62
               7
100
AcDbBlockReference
  2
pad
 10
-0.3100029986783408
 20
0.6850029986783284
 30
0.0
  0
INSERT
  5
1B5
100
AcDbEntity
  8
None
390
0
 62
               7
100
AcDbBlockReference
  2
pad
 10
0.6899970013216592
 20
0.6850029986783284
 30
0.0
  0
INSERT
  5
1B6
100
AcDbEntity
  8
None
390
0
 62
               7
100
AcDbBlockReference
  2
pad
 10
1.6899970013216592
 20
0.6850029986783284
 30
0.0
  0
INSERT
  5
1B7
100
AcDbEntity
  8
None
390
0
 62
               7
100
AcDbBlockReference
  2
pad
 10
2.6899970013216592
 20
0.6850029986783284
 30
0.0
  0
INSERT
  5
1B8
100
AcDbEntity
  8
None
390
0
 62
               7
100
AcDbBlockReference
  2
pad
 10
3.6899970013216592
 20
0.6850029986783284
 30
0.0
  0
INSERT
  5
1B9
100
AcDbEntity
  8
None
390
0
 62
               7
100
AcDbBlockReference
  2
pad
 10
4.6899970013216592
 20
0.6850029986783284
 30
0.0
  0
INSERT
  5
1BA
100
AcDbEntity
  8
None
390
0
 62
               7
100
AcDbBlockReference
  2
pad
 10
5.6899970013216592
 20
0.6850029986783284
 30
0.0
  0
INSERT
  5
1BB
100
AcDbEntity
  8
None
390
0
 62
               7
100
AcDbBlockReference
  2
pad
 10
6.6899970013216592
 20
0.6850029986783284
 30
0.0
  0
INSERT
  5
1BC
100
AcDbEntity
  8
None
390
0
 62
               7
100
AcDbBlockReference
  2
pad
 10
7.6899970013216592
 20
0.6850029986783284
 30
0.0
  0
INSERT
  5
1BD
100
AcDbEntity
  8
None
390
0
 62
               7
100
AcDbBlockReference
  2
pad
 10
8.6899970013216592
 20
0.6850029986783284
 30
0.0
  0
INSERT
  5
1BE
100
AcDbEntity
  8
None
390
0
 62
               7
100
AcDbBlockReference
  2
pad
 10
9.6899970013216592
 20
0.6850029986783284
 30
0.0
  0
INSERT
  5
1BF
100
AcDbEntity
  8
None
390
0
 62
               7
100
AcDbBlockReference
  2
pad
 10
10.689997001321659
 20
0.6850029986783284
 30
0.0
  0
INSERT
  5
1C0
100
AcDbEntity
  8
None
390
0
 62
               7
100
AcDbBlockReference
  2
pad
 10
11.689997001321659
 20
0.6850029986783284
 30
0.0
  0
INSERT
  5
1C1
100
AcDbEntity
  8
None
390
0
 62
               7
100
AcDbBlockReference
  2
pad
 10
12.689997001321657
 20
0.6850029986783284
 30
0.0
  0
INSERT
  5
1C2
100
AcDbEntity
  8
None
390
0
 62
               7
100
AcDbBlockReference
  2
pad
 10
13.689997001321657
 20
0.6850029986783284
 30
0.0
  0
INSERT
  5
1C3
100
AcDbEntity
  8
None
390
0
 62
               7
100
AcDbBlockReference
  2
pad
 10
14.689997001321657
 20
0.6850029986783284
 30
0.0
  0
INSERT
  5
1C4
100
AcDbEntity
  8
None
390
0
 62
               7
100
AcDbBlockReference
  2
pad
 10
15.689997001321657
 20
0.6850029986783284
 30
0.0
  0
INSERT
  5
1C5
100
AcDbEntity
  8
None
390
0
 62
               7
100
AcDbBlockReference
  2
pad
 10
16.689997001321657
 20
0.6850029986783284
 30
0.0
  0
INSERT
  5
1C6
100
AcDbEntity
  8
None
390
0
 62
               7
100
AcDbBlockReference
  2
pad
 10
17.689997001321657
 20
0.6850029986783284
 30
0.0
  0
INSERT
  5
1C7
100
AcDbEntity
  8
None
390
0
 62
               7
100
AcDbBlockReference
  2
pad
 10
18.689997001321657
 20
0.6850029986783284
 30
0.0
  0
INSERT
  5
1C8
100
AcDbEntity
  8
None
390
0
 62
               7
100
AcDbBlockReference
  2
pad
 10
19.689997001321657
 20
0.6850029986783284
 30
0.0
  0
INSERT
  5
1C9
100
AcDbEntity
  8
None
390
0
 62
               7
100
AcDbBlockReference
  2
pad
 10
-3.3100029986783408
 20
-0.3149970013216716
 30
0.0
  0
INSERT
  5
1CA
100
AcDbEntity
  8
None
390
0
 62
               7
100
AcDbBlockReference
  2
pad
 10
-2.3100029986783408
 20
-0.3149970013216716
 30
0.0
  0
INSERT
  5
1CB
100
AcDbEntity
  8
None
390
0
 62
               7
100
AcDbBlockReference
  2
pad
 10
-1.3100029986783408
 20
-0.3149970013216716
 30
0.0
  0
INSERT
  5
1CC
100
AcDbEntity
  8
None
390
0
 62
               7
100
AcDbBlockReference
  2
pad
 10
-0.3100029986783408
 20
-0.3149970013216716
 30
0.0
  0
INSERT
  5
1CD
100
AcDbEntity
  8
None
390
0
 62
               7
100
AcDbBlockReference
  2
pad
 10
0.6899970013216592
 20
-0.3149970013216716
 30
0.0
  0
INSERT
  5
1CE
100
AcDbEntity
  8
None
390
0
 62
               7
100
AcDbBlockReference
  2
pad
 10
1.6899970013216592
 20
-0.3149970013216716
 30
0.0
  0
INSERT
  5
1CF
100
AcDbEntity
  8
None
390
0
 62
               7
100
AcDbBlockReference
  2
pad
 10
2.6899970013216592
 20
-0.3149970013216716
 30
0.0
  0
INSERT
  5
1D0
100
AcDbEntity
  8
None
390
0
 62
               7
100
AcDbBlockReference
  2
pad
 10
3.6899970013216592
 20
-0.3149970013216716
 30
0.0
  0
INSERT
  5
1D1
100
AcDbEntity
  8
None
390
0
 62
               7
100
AcDbBlockReference
  2
pad
 10
4.6899970013216592
 20
-0.3149970013216716
 30
0.0
  0
INSERT
  5
1D2
100
AcDbEntity
  8
None
390
0
 62
               7
100
AcDbBlockReference
  2
pad
 10
5.6899970013216592
 20
-0.3149970013216716
 30
0.0
  0
INSERT
  5
1D3
100
AcDbEntity
  8
None
390
0
 62
               7
100
AcDbBlockReference
  2
pad
 10
6.6899970013216592
 20
-0.3149970013216716
 30
0.0
  0
INSERT
  5
1D4
100
AcDbEntity
  8
None
390
0
 62
               7
100
AcDbBlockReference
  2
pad
 10
7.6899970013216592
 20
-0.3149970013216716
 30
0.0
  0
INSERT
  5
1D5
100
AcDbEntity
  8
None
390
0
 62
               7
100
AcDbBlockReference
  2
pad
 10
8.6899970013216592
 20
-0.3149970013216716
 30
0.0
  0
INSERT
  5
1D6
100
AcDbEntity
  8
None
390
0
 62
               7
100
AcDbBlockReference
  2
pad
 10
9.6899970013216592
 20
-0.3149970013216716
 30
0.0
  0
INSERT
  5
1D7
100
AcDbEntity
  8
None
390
0
 62
               7
100
AcDbBlockReference
  2
pad
 10
10.689997001321659
 20
-0.3149970013216716
 30
0.0
  0
INSERT
  5
1D8
100
AcDbEntity
  8
None
390
0
 62
               7
100
AcDbBlockReference
  2
pad
 10
11.689997001321659
 20
-0.3149970013216716
 30
0.0
  0
INSERT
  5
1D9
100
AcDbEntity
  8
None
390
0
 62
               7
100
AcDbBlockReference
  2
pad
 10
12.689997001321657
 20
-0.3149970013216716
 30
0.0
  0
INSERT
  5
1DA
100
AcDbEntity
  8
None
390
0
 62
               7
100
AcDbBlockReference
  2
pad
 10
13.689997001321657
 20
-0.3149970013216716
 30
0.0
  0
INSERT
  5
1DB
100
AcDbEntity
  8
None
390
0
 62
               7
100
AcDbBlockReference
  2
pad
 10
14.689997001321657
 20
-0.3149970013216716
 30
0.0
  0
INSERT
  5
1DC
100
AcDbEntity
  8
None
390
0
 62
               7
100
AcDbBlockReference
  2
pad
 10
15.689997001321657
 20
-0.3149970013216716
 30
0.0
  0
INSERT
  5
1DD
100
AcDbEntity
  8
None
390
0
 62
               7
100
AcDbBlockReference
  2
pad
 10
16.689997001321657
 20
-0.3149970013216716
 30
0.0
  0
INSERT
  5
1DE
100
AcDbEntity
  8
None
390
0
 62
               7
100
AcDbBlockReference
  2
pad
 10
17.689997001321657
 20
-0.3149970013216716
 30
0.0
  0
INSERT
  5
1DF
100
AcDbEntity
  8
None
390
0
 62
               7
100
AcDbBlockReference
  2
pad
 10
18.689997001321657
 20
-0.3149970013216716
 30
0.0
  0
INSERT
  5
1E0
100
AcDbEntity
  8
None
390
0
 62
               7
100
AcDbBlockReference
  2
pad
 10
19.689997001321657
 20
-0.3149970013216716
 30
0.0
  0
INSERT
  5
1E1
100
AcDbEntity
  8
None
390
0
 62
               7
100
AcDbBlockReference
  2
pad
 10
-3.3100029986783408
 20
-1.3149970013216716
 30
0.0
  0
INSERT
  5
1E2
100
AcDbEntity
  8
None
390
0
 62
               7
100
AcDbBlockReference
  2
pad
 10
-2.3100029986783408
 20
-1.3149970013216716
 30
0.0
  0
INSERT
  5
1E3
100
AcDbEntity
  8
None
390
0
 62
               7
100
AcDbBlockReference
  2
pad
 10
-1.3100029986783408
 20
-1.3149970013216716
 30
0.0
  0
INSERT
  5
1E4
100
AcDbEntity
  8
None
390
0
 62
               7
100
AcDbBlockReference
  2
pad
 10
-0.3100029986783408
 20
-1.3149970013216716
 30
0.0
  0
INSERT
  5
1E5
100
AcDbEntity
  8
None
390
0
 62
               7
100
AcDbBlockReference
  2
pad
 10
0.6899970013216592
 20
-1.3149970013216716
 30
0.0
  0
INSERT
  5
1E6
100
AcDbEntity
  8
None
390
0
 62
               7
100
AcDbBlockReference
  2
pad
 10
1.6899970013216592
 20
-1.3149970013216716
 30
0.0
  0
INSERT
  5
1E7
100
AcDbEntity
  8
None
390
0
 62
               7
100
AcDbBlockReference
  2
pad
 10
2.6899970013216592
 20
-1.3149970013216716
 30
0.0
  0
INSERT
  5
1E8
100
AcDbEntity
  8
None
390
0
 62
               7
100
AcDbBlockReference
  2
pad
 10
3.6899970013216592
 20
-1.3149970013216716
 30
0.0
  0
INSERT
  5
1E9
100
AcDbEntity
  8
None
390
0
 62
               7
100
AcDbBlockReference
  2
pad
 10
4.6899970013216592
 20
-1.3149970013216716
 30
0.0
  0
INSERT
  5
1EA
100
AcDbEntity
  8
None
390
0
 62
               7
100
AcDbBlockReference
  2
pad
 10
5.6899970013216592
 20
-1.3149970013216716
 30
0.0
  0
INSERT
  5
1EB
100
AcDbEntity
  8
None
390
0
 62
               7
100
AcDbBlockReference
  2
pad
 10
6.6899970013216592
 20
-1.3149970013216716
 30
0.0
  0
INSERT
  5
1EC
100
AcDbEntity
  8
None
390
0
 62
               7
100
AcDbBlockReference
  2
pad
 10
7.6899970013216592
 20
-1.3149970013216716
 30
0.0
  0
INSERT
  5
1ED
100
AcDbEntity
  8
None
390
0
 62
               7
100
AcDbBlockReference
  2
pad
 10
8.6899970013216592
 20
-1.3149970013216716
 30
0.0
  0
INSERT
  5
1EE
100
AcDbEntity
  8
None
390
0
 62
               7
100
AcDbBlockReference
  2
pad
 10
9.6899970013216592
 20
-1.3149970013216716
 30
0.0
  0
INSERT
  5
1EF
100
AcDbEntity
  8
None
390
0
 62
               7
100
AcDbBlockReference
  2
pad
 10
10.689997001321659
 20
-1.3149970013216716
 30
0.0
  0
INSERT
  5
1F0
100
AcDbEntity
  8
None
390
0
 62
               7
100
AcDbBlockReference
  2
pad
 10
11.689997001321659
 20
-1.3149970013216716
 30
0.0
  0
INSERT
  5
1F1
100
AcDbEntity
  8
None
390
0
 62
               7
100
AcDbBlockReference
  2
pad
 10
12.689997001321657
 20
-1.3149970013216716
 30
0.0
  0
INSERT
  5
1F2
100
AcDbEntity
  8
None
390
0
 62
               7
100
AcDbBlockReference
  2
pad
 10
13.689997001321657
 20
-1.3149970013216716
 30
0.0
  0
INSERT
  5
1F3
100
AcDbEntity
  8
None
390
0
 62
               7
100
AcDbBlockReference
  2
pad
 10
14.689997001321657
 20
-1.3149970013216716
 30
0.0
  0
INSERT
  5
1F4
100
AcDbEntity
  8
None
390
0
 62
               7
100
AcDbBlockReference
  2
pad
 10
15.689997001321657
 20
-1.3149970013216716
 30
0.0
  0
INSERT
  5
1F5
100
AcDbEntity
  8
None
390
0
 62
               7
100
AcDbBlockReference
  2
pad
 10
16.689997001321657
 20
-1.3149970013216716
 30
0.0
  0
INSERT
  5
1F6
100
AcDbEntity
  8
None
390
0
 62
               7
100
AcDbBlockReference
  2
pad
 10
17.689997001321657
 20
-1.3149970013216716
 30
0.0
  0
INSERT
  5
1F7
100
AcDbEntity
  8
None
390
0
 62
               7
100
AcDbBlockReference
  2
pad
 10
18.689997001321657
 20
-1.3149970013216716
 30
0.0
  0
INSERT
  5
1F8
100
AcDbEntity
  8
None
390
0
 62
               7
100
AcDbBlockReference
  2
pad
 10
19.689997001321657
 20
-1.3149970013216716
 30
0.0
  0
INSERT
  5
1F9
100
AcDbEntity
  8
None
390
0
 62
               7
100
AcDbBlockReference
  2
pad
 10
-3.3100029986783408
 20
-2.3149970013216716
 30
0.0
  0
INSERT
  5
1FA
100
AcDbEntity
  8
None
390
0
 62
               7
100
AcDbBlockReference
  2
pad
 10
-2.3100029986783408
 20
-2.3149970013216716
 30
0.0
  0
INSERT
  5
1FB
100
AcDbEntity
  8
None
390
0
 62
               7
100
AcDbBlockReference
  2
pad
 10
-1.3100029986783408
 20
-2.3149970013216716
 30
0.0
  0
INSERT
  5
1FC
100
AcDbEntity
  8
None
390
0
 62
               7
100
AcDbBlockReference
  2
pad
 10
-0.3100029986783408
 20
-2.3149970013216716
 30
0.0
  0
INSERT
  5
1FD
100
AcDbEntity
  8
None
390
0
 62
               7
100
AcDbBlockReference
  2
pad
 10
0.6899970013216592
 20
-2.3149970013216716
 30
0.0
  0
INSERT
  5
1FE
100
AcDbEntity
  8
None
390
0
 62
               7
100
AcDbBlockReference
  2
pad
 10
1.6899970013216592
 20
-2.3149970013216716
 30
0.0
  0
INSERT
  5
1FF
100
AcDbEntity
  8
None
390
0
 62
               7
100
AcDbBlockReference
  2
pad
 10
2.6899970013216592
 20
-2.3149970013216716
 30
0.0
  0
INSERT
  5
200
100
AcDbEntity
  8
None
390
0
 62
               7
100
AcDbBlockReference
  2
pad
 10
3.6899970013216592
 20
-2.3149970013216716
 30
0.0
  0
INSERT
  5
201
100
AcDbEntity
  8
None
390
0
 62
               7
100
AcDbBlockReference
  2
pad
 10
4.6899970013216592
 20
-2.3149970013216716
 30
0.0
  0
INSERT
  5
202
100
AcDbEntity
  8
None
390
0
 62
               7
100
AcDbBlockReference
  2
pad
 10
5.6899970013216592
 20
-2.3149970013216716
 30
0.0
  0
INSERT
  5
203
100
AcDbEntity
  8
None
390
0
 62
               7
100
AcDbBlockReference
  2
pad
 10
6.6899970013216592
 20
-2.3149970013216716
 30
0.0
  0
INSERT
  5
204
100
AcDbEntity
  8
None
390
0
 62
               7
100
AcDbBlockReference
  2
pad
 10
7.6899970013216592
 20
-2.3149970013216716
 30
0.0
  0
INSERT
  5
205
100
AcDbEntity
  8
None
390
0
 62
               7
100
AcDbBlockReference
  2
pad
 10
8.6899970013216592
 20
-2.3149970013216716
 30
0.0
  0
INSERT
  5
206
100
AcDbEntity
  8
None
390
0
 62
               7
100
AcDbBlockReference
  2
pad
 10
9.6899970013216592
 20
-2.3149970013216716
 30
0.0
  0
INSERT
  5
207
100
AcDbEntity
  8
None
390
0
 62
               7
100
AcDbBlockReference
  2
pad
 10
10.689997001321659
 20
-2.3149970013216716
 30
0.0
  0
INSERT
  5
208
100
AcDbEntity
  8
None
390
0
 62
               7
100
AcDbBlockReference
  2
pad
 10
11.689997001321659
 20
-2.3149970013216716
 30
0.0
  0
INSERT
  5
209
100
AcDbEntity
  8
None
390
0
 62
               7
100
AcDbBlockReference
  2
pad
 10
12.689997001321657
 20
-2.3149970013216716
 30
0.0
  0
INSERT
  5
20A
100
AcDbEntity
  8
None
390
0
 62
               7
100
AcDbBlockReference
  2
pad
 10
13.689997001321657
 20
-2.3149970013216716
 30
0.0
  0
INSERT
  5
20B
100
AcDbEntity
  8
None
390
0
 62
               7
100
AcDbBlockReference
  2
pad
 10
14.689997001321657
 20
-2.3149970013216716
 30
0.0
  0
INSERT
  5
20C
100
AcDbEntity
  8
None
390
0
 62
               7
100
AcDbBlockReference
  2
pad
 10
15.689997001321657
 20
-2.3149970013216716
 30
0.0
  0
INSERT
  5
20D
100
AcDbEntity
  8
None
390
0
 62
               7
100
AcDbBlockReference
  2
pad
 10
16.689997001321657
 20
-2.3149970013216716
 30
0.0
  0
INSERT
  5
20E
100
AcDbEntity
  8
None
390
0
 62
               7
100
AcDbBlockReference
  2
pad
 10
17.689997001321657
 20
-2.3149970013216716
 30
0.0
  0
INSERT
  5
20F
100
AcDbEntity
  8
None
390
0
 62
               7
100
AcDbBlockReference
  2
pad
 10
18.689997001321657
 20
-2.3149970013216716
 30
0.0
  0
INSERT
  5
210
100
AcDbEntity
  8
None
390
0
 62
               7
100
AcDbBlockReference
  2
pad
 10
19.689997001321657
 20
-2.3149970013216716
 30
0.0
  0
INSERT
  5
211
100
AcDbEntity
  8
None
390
0
 62
               7
100
AcDbBlockReference
  2
pad
 10
-3.3100029986783408
 20
-3.3149970013216716
 30
0.0
  0
INSERT
  5
212
100
AcDbEntity
  8
None
390
0
 62
               7
100
AcDbBlockReference
  2
pad
 10
-2.3100029986783408
 20
-3.3149970013216716
 30
0.0
  0
INSERT
  5
213
100
AcDbEntity
  8
None
390
0
 62
               7
100
AcDbBlockReference
  2
pad
 10
-1.3100029986783408
 20
-3.3149970013216716
 30
0.0
  0
INSERT
  5
214
100
AcDbEntity
  8
None
390
0
 62
               7
100
AcDbBlockReference
  2
pad
 10
-0.3100029986783408
 20
-3.3149970013216716
 30
0.0
  0
INSERT
  5
215
100
AcDbEntity
  8
None
390
0
 62
               7
100
AcDbBlockReference
  2
pad
 10
0.6899970013216592
 20
-3.3149970013216716
 30
0.0
  0
INSERT
  5
216
100
AcDbEntity
  8
None
390
0
 62
               7
100
AcDbBlockReference
  2
pad
 10
1.6899970013216592
 20
-3.3149970013216716
 30
0.0
  0
INSERT
  5
217
100
AcDbEntity
  8
None
390
0
 62
               7
100
AcDbBlockReference
  2
pad
 10
2.6899970013216592
 20
-3.3149970013216716
 30
0.0
  0
INSERT
  5
218
100
AcDbEntity
  8
None
390
0
 62
               7
100
AcDbBlockReference
  2
pad
 10
3.6899970013216592
 20
-3.3149970013216716
 30
0.0
  0
INSERT
  5
219
100
AcDbEntity
  8
None
390
0
 62
               7
100
AcDbBlockReference
  2
pad
 10
4.6899970013216592
 20
-3.3149970013216716
 30
0.0
  0
INSERT
  5
21A
100
AcDbEntity
  8
None
390
0
 62
               7
100
AcDbBlockReference
  2
pad
 10
5.6899970013216592
 20
-3.3149970013216716
 30
0.0
  0
INSERT
  5
21B
100
AcDbEntity
  8
None
390
0
 62
               7
100
AcDbBlockReference
  2
pad
 10
6.6899970013216592
 20
-3.3149970013216716
 30
0.0
  0
INSERT
  5
21C
100
AcDbEntity
  8
None
390
0
 62
               7
100
AcDbBlockReference
  2
pad
 10
7.6899970013216592
 20
-3.3149970013216716
 30
0.0
  0
INSERT
  5
21D
100
AcDbEntity
  8
None
390
0
 62
               7
100
AcDbBlockReference
  2
pad
 10
8.6899970013216592
 20
-3.3149970013216716
 30
0.0
  0
INSERT
  5
21E
100
AcDbEntity
  8
None
390
0
 62
               7
100
AcDbBlockReference
  2
pad
 10
9.6899970013216592
 20
-3.3149970013216716
 30
0.0
  0
INSERT
  5
21F
100
AcDbEntity
  8
None
390
0
 62
               7
100
AcDbBlockReference
  2
pad
 10
10.689997001321659
 20
-3.3149970013216716
 30
0.0
  0
INSERT
  5
220
100
AcDbEntity
  8
None
390
0
 62
               7
100
AcDbBlockReference
  2
pad
 10
11.689997001321659
 20
-3.3149970013216716
 30
0.0
  0
INSERT
  5
221
100
AcDbEntity
  8
None
390
0
 62
               7
100
AcDbBlockReference
  2
pad
 10
12.689997001321657
 20
-3.3149970013216716
 30
0.0
  0
INSERT
  5
222
100
AcDbEntity
  8
None
390
0
 62
               7
100
AcDbBlockReference
  2
pad
 10
13.689997001321657
 20
-3.3149970013216716
 30
0.0
  0
INSERT
  5
223
100
AcDbEntity
  8
None
390
0
 62
               7
100
AcDbBlockReference
  2
pad
 10
14.689997001321657
 20
-3.3149970013216716
 30
0.0
  0
INSERT
  5
224
100
AcDbEntity
  8
None
390
0
 62
               7
100
AcDbBlockReference
  2
pad
 10
15.689997001321657
 20
-3.3149970013216716
 30
0.0
  0
INSERT
  5
225
100
AcDbEntity
  8
None
390
0
 62
               7
100
AcDbBlockReference
  2
pad
 10
16.689997001321657
 20
-3.3149970013216716
 30
0.0
  0
INSERT
  5
226
100
AcDbEntity
  8
None
390
0
 62
               7
100
AcDbBlockReference
  2
pad
 10
17.689997001321657
 20
-3.3149970013216716
 30
0.0
  0
INSERT
  5
227
100
AcDbEntity
  8
None
390
0
 62
               7
100
AcDbBlockReference
  2
pad
 10
18.689997001321657
 20
-3.3149970013216716
 30
0.0
  0
INSERT
  5
228
100
AcDbEntity
  8
None
390
0
 62
               7
100
AcDbBlockReference
  2
pad
 10
19.689997001321657
 20
-3.3149970013216716
 30
0.0
  0
INSERT
  5
229
100
AcDbEntity
  8
None
390
0
 62
               7
100
AcDbBlockReference
  2
pad
 10
-3.3100029986783408
 20
-4.3149970013216645
 30
0.0
  0
INSERT
  5
22A
100
AcDbEntity
  8
None
390
0
 62
               7
100
AcDbBlockReference
  2
pad
 10
-2.3100029986783408
 20
-4.3149970013216645
 30
0.0
  0
INSERT
  5
22B
100
AcDbEntity
  8
None
390
0
 62
               7
100
AcDbBlockReference
  2
pad
 10
-1.3100029986783408
 20
-4.3149970013216645
 30
0.0
  0
INSERT
  5
22C
100
AcDbEntity
  8
None
390
0
 62
               7
100
AcDbBlockReference
  2
pad
 10
-0.3100029986783408
 20
-4.3149970013216645
 30
0.0
  0
INSERT
  5
22D
100
AcDbEntity
  8
None
390
0
 62
               7
100
AcDbBlockReference
  2
pad
 10
0.6899970013216592
 20
-4.3149970013216645
 30
0.0
  0
INSERT
  5
22E
100
AcDbEntity
  8
None
390
0
 62
               7
100
AcDbBlockReference
  2
pad
 10
1.6899970013216592
 20
-4.3149970013216645
 30
0.0
  0
INSERT
  5
22F
100
AcDbEntity
  8
None
390
0
 62
               7
100
AcDbBlockReference
  2
pad
 10
2.6899970013216592
 20
-4.3149970013216645
 30
0.0
  0
INSERT
  5
230
100
AcDbEntity
  8
None
390
0
 62
               7
100
AcDbBlockReference
  2
pad
 10
3.6899970013216592
 20
-4.3149970013216645
 30
0.0
  0
INSERT
  5
231
100
AcDbEntity
  8
None
390
0
 62
               7
100
AcDbBlockReference
  2
pad
 10
4.6899970013216592
 20
-4.3149970013216645
 30
0.0
  0
INSERT
  5
232
100
AcDbEntity
  8
None
390
0
 62
               7
100
AcDbBlockReference
  2
pad
 10
5.6899970013216592
 20
-4.3149970013216645
 30
0.0
  0
INSERT
  5
233
100
AcDbEntity
  8
None
390
0
 62
               7
100
AcDbBlockReference
  2
pad
 10
6.6899970013216592
 20
-4.3149970013216645
 30
0.0
  0
INSERT
  5
234
100
AcDbEntity
  8
None
390
0
 62
               7
100
AcDbBlockReference
  2
pad
 10
7.6899970013216592
 20
-4.3149970013216645
 30
0.0
  0
INSERT
  5
235
100
AcDbEntity
  8
None
390
0
 62
               7
100
AcDbBlockReference
  2
pad
 10
8.6899970013216592
 20
-4.3149970013216645
 30
0.0
  0
INSERT
  5
236
100
AcDbEntity
  8
None
390
0
 62
               7
100
AcDbBlockReference
  2
pad
 10
9.6899970013216592
 20
-4.3149970013216645
 30
0.0
  0
INSERT
  5
237
100
AcDbEntity
  8
None
390
0
 62
               7
100
AcDbBlockReference
  2
pad
 10
10.689997001321659
 20
-4.3149970013216645
 30
0.0
  0
INSERT
  5
238
100
AcDbEntity
  8
None
390
0
 62
               7
100
AcDbBlockReference
  2
pad
 10
11.689997001321659
 20
-4.3149970013216645
 30
0.0
  0
INSERT
  5
239
100
AcDbEntity
  8
None
390
0
 62
               7
100
AcDbBlockReference
  2
pad
 10
12.689997001321657
 20
-4.3149970013216645
 30
0.0
  0
INSERT
  5
23A
100
AcDbEntity
  8
None
390
0
 62
               7
100
AcDbBlockReference
  2
pad
 10
13.689997001321657
 20
-4.3149970013216645
 30
0.0
  0
INSERT
  5
23B
100
AcDbEntity
  8
None
390
0
 62
               7
100
AcDbBlockReference
  2
pad
 10
14.689997001321657
 20
-4.3149970013216645
 30
0.0
  0
INSERT
  5
23C
100
AcDbEntity
  8
None
390
0
 62
               7
100
AcDbBlockReference
  2
pad
 10
15.689997001321657
 20
-4.3149970013216645
 30
0.0
  0
INSERT
  5
23D
100
AcDbEntity
  8
None
390
0
 62
               7
100
AcDbBlockReference
  2
pad
 10
16.689997001321657
 20
-4.3149970013216645
 30
0.0
  0
INSERT
  5
23E
100
AcDbEntity
  8
None
390
0
 62
               7
100
AcDbBlockReference
  2
pad
 10
17.689997001321657
 20
-4.3149970013216645
 30
0.0
  0
INSERT
  5
23F
100
AcDbEntity
  8
None
390
0
 62
               7
100
AcDbBlockReference
  2
pad
 10
18.689997001321657
 20
-4.3149970013216645
 30
0.0
  0
INSERT
  5
240
100
AcDbEntity
  8
None
390
0
 62
               7
100
AcDbBlockReference
  2
pad
 10
19.689997001321657
 20
-4.3149970013216645
 30
0.0
  0
INSERT
  5
241
100
AcDbEntity
  8
None
390
0
 62
               7
100
AcDbBlockReference
  2
pad
 10
-3.3100029986783408
 20
-5.3149970013216645
 30
0.0
  0
INSERT
  5
242
100
AcDbEntity
  8
None
390
0
 62
               7
100
AcDbBlockReference
  2
pad
 10
-2.3100029986783408
 20
-5.3149970013216645
 30
0.0
  0
INSERT
  5
243
100
AcDbEntity
  8
None
390
0
 62
               7
100
AcDbBlockReference
  2
pad
 10
-1.3100029986783408
 20
-5.3149970013216645
 30
0.0
  0
INSERT
  5
244
100
AcDbEntity
  8
None
390
0
 62
               7
100
AcDbBlockReference
  2
pad
 10
-0.3100029986783408
 20
-5.3149970013216645
 30
0.0
  0
INSERT
  5
245
100
AcDbEntity
  8
None
390
0
 62
               7
100
AcDbBlockReference
  2
pad
 10
0.6899970013216592
 20
-5.3149970013216645
 30
0.0
  0
INSERT
  5
246
100
AcDbEntity
  8
None
390
0
 62
               7
100
AcDbBlockReference
  2
pad
 10
1.6899970013216592
 20
-5.3149970013216645
 30
0.0
  0
INSERT
  5
247
100
AcDbEntity
  8
None
390
0
 62
               7
100
AcDbBlockReference
  2
pad
 10
2.6899970013216592
 20
-5.3149970013216645
 30
0.0
  0
INSERT
  5
248
100
AcDbEntity
  8
None
390
0
 62
               7
100
AcDbBlockReference
  2
pad
 10
3.6899970013216592
 20
-5.3149970013216645
 30
0.0
  0
INSERT
  5
249
100
AcDbEntity
  8
None
390
0
 62
               7
100
AcDbBlockReference
  2
pad
 10
4.6899970013216592
 20
-5.3149970013216645
 30
0.0
  0
INSERT
  5
24A
100
AcDbEntity
  8
None
390
0
 62
               7
100
AcDbBlockReference
  2
pad
 10
5.6899970013216592
 20
-5.3149970013216645
 30
0.0
  0
INSERT
  5
24B
100
AcDbEntity
  8
None
390
0
 62
               7
100
AcDbBlockReference
  2
pad
 10
6.6899970013216592
 20
-5.3149970013216645
 30
0.0
  0
INSERT
  5
24C
100
AcDbEntity
  8
None
390
0
 62
               7
100
AcDbBlockReference
  2
pad
 10
7.6899970013216592
 20
-5.3149970013216645
 30
0.0
  0
INSERT
  5
24D
100
AcDbEntity
  8
None
390
0
 62
               7
100
AcDbBlockReference
  2
pad
 10
8.6899970013216592
 20
-5.3149970013216645
 30
0.0
  0
INSERT
  5
24E
100
AcDbEntity
  8
None
390
0
 62
               7
100
AcDbBlockReference
  2
pad
 10
9.6899970013216592
 20
-5.3149970013216645
 30
0.0
  0
INSERT
  5
24F
100
AcDbEntity
  8
None
390
0
 62
               7
100
AcDbBlockReference
  2
pad
 10
10.689997001321659
 20
-5.3149970013216645
 30
0.0
  0
INSERT
  5
250
100
AcDbEntity
  8
None
390
0
 62
               7
100
AcDbBlockReference
  2
pad
 10
11.689997001321659
 20
-5.3149970013216645
 30
0.0
  0
INSERT
  5
251
100
AcDbEntity
  8
None
390
0
 62
               7
100
AcDbBlockReference
  2
pad
 10
12.689997001321657
 20
-5.3149970013216645
 30
0.0
  0
INSERT
  5
252
100
AcDbEntity
  8
None
390
0
 62
               7
100
AcDbBlockReference
  2
pad
 10
13.689997001321657
 20
-5.3149970013216645
 30
0.0
  0
INSERT
  5
253
100
AcDbEntity
  8
None
390
0
 62
               7
100
AcDbBlockReference
  2
pad
 10
14.689997001321657
 20
-5.3149970013216645
 30
0.0
  0
INSERT
  5
254
100
AcDbEntity
  8
None
390
0
 62
               7
100
AcDbBlockReference
  2
pad
 10
15.689997001321657
 20
-5.3149970013216645
 30
0.0
  0
INSERT
  5
255
100
AcDbEntity
  8
None
390
0
 62
               7
100
AcDbBlockReference
  2
pad
 10
16.689997001321657
 20
-5.3149970013216645
 30
0.0
  0
INSERT
  5
256
100
AcDbEntity
  8
None
390
0
 62
               7
100
AcDbBlockReference
  2
pad
 10
17.689997001321657
 20
-5.3149970013216645
 30
0.0
  0
INSERT
  5
257
100
AcDbEntity
  8
None
390
0
 62
               7
100
AcDbBlockReference
  2
pad
 10
18.689997001321657
 20
-5.3149970013216645
 30
0.0
  0
INSERT
  5
258
100
AcDbEntity
  8
None
390
0
 62
               7
100
AcDbBlockReference
  2
pad
 10
19.689997001321657
 20
-5.3149970013216645
 30
0.0
  0
INSERT
  5
259
100
AcDbEntity
  8
None
390
0
 62
               7
100
AcDbBlockReference
  2
pad
 10
-3.3100029986783408
 20
-6.3149970013216645
 30
0.0
  0
INSERT
  5
25A
100
AcDbEntity
  8
None
390
0
 62
               7
100
AcDbBlockReference
  2
pad
 10
-2.3100029986783408
 20
-6.3149970013216645
 30
0.0
  0
INSERT
  5
25B
100
AcDbEntity
  8
None
390
0
 62
               7
100
AcDbBlockReference
  2
pad
 10
-1.3100029986783408
 20
-6.3149970013216645
 30
0.0
  0
INSERT
  5
25C
100
AcDbEntity
  8
None
390
0
 62
               7
100
AcDbBlockReference
  2
pad
 10
-0.3100029986783408
 20
-6.3149970013216645
 30
0.0
  0
INSERT
  5
25D
100
AcDbEntity
  8
None
390
0
 62
               7
100
AcDbBlockReference
  2
pad
 10
0.6899970013216592
 20
-6.3149970013216645
 30
0.0
  0
INSERT
  5
25E
100
AcDbEntity
  8
None
390
0
 62
               7
100
AcDbBlockReference
  2
pad
 10
1.6899970013216592
 20
-6.3149970013216645
 30
0.0
  0
INSERT
  5
25F
100
AcDbEntity
  8
None
390
0
 62
               7
100
AcDbBlockReference
  2
pad
 10
2.6899970013216592
 20
-6.3149970013216645
 30
0.0
  0
INSERT
  5
260
100
AcDbEntity
  8
None
390
0
 62
               7
100
AcDbBlockReference
  2
pad
 10
3.6899970013216592
 20
-6.3149970013216645
 30
0.0
  0
INSERT
  5
261
100
AcDbEntity
  8
None
390
0
 62
               7
100
AcDbBlockReference
  2
pad
 10
4.6899970013216592
 20
-6.3149970013216645
 30
0.0
  0
INSERT
  5
262
100
AcDbEntity
  8
None
390
0
 62
               7
100
AcDbBlockReference
  2
pad
 10
5.6899970013216592
 20
-6.3149970013216645
 30
0.0
  0
INSERT
  5
263
100
AcDbEntity
  8
None
390
0
 62
               7
100
AcDbBlockReference
  2
pad
 10
6.6899970013216592
 20
-6.3149970013216645
 30
0.0
  0
INSERT
  5
264
100
AcDbEntity
  8
None
390
0
 62
               7
100
AcDbBlockReference
  2
pad
 10
7.6899970013216592
 20
-6.3149970013216645
 30
0.0
  0
INSERT
  5
265
100
AcDbEntity
  8
None
390
0
 62
               7
100
AcDbBlockReference
  2
pad
 10
8.6899970013216592
 20
-6.3149970013216645
 30
0.0
  0
INSERT
  5
266
100
AcDbEntity
  8
None
390
0
 62
               7
100
AcDbBlockReference
  2
pad
 10
9.6899970013216592
 20
-6.3149970013216645
 30
0.0
  0
INSERT
  5
267
100
AcDbEntity
  8
None
390
0
 62
               7
100
AcDbBlockReference
  2
pad
 10
10.689997001321659
 20
-6.3149970013216645
 30
0.0
  0
INSERT
  5
268
100
AcDbEntity
  8
None
390
0
 62
               7
100
AcDbBlockReference
  2
pad
 10
11.689997001321659
 20
-6.3149970013216645
 30
0.0
  0
INSERT
  5
269
100
AcDbEntity
  8
None
390
0
 62
               7
100
AcDbBlockReference
  2
pad
 10
12.689997001321657
 20
-6.3149970013216645
 30
0.0
  0
INSERT
  5
26A
100
AcDbEntity
  8
None
390
0
 62
               7
100
AcDbBlockReference
  2
pad
 10
13.689997001321657
 20
-6.3149970013216645
 30
0.0
  0
INSERT
  5
26B
100
AcDbEntity
  8
None
390
0
 62
               7
100
AcDbBlockReference
  2
pad
 10
14.689997001321657
 20
-6.3149970013216645
 30
0.0
  0
INSERT
  5
26C
100
AcDbEntity
  8
None
390
0
 62
               7
100
AcDbBlockReference
  2
pad
 10
15.689997001321657
 20
-6.3149970013216645
 30
0.0
  0
INSERT
  5
26D
100
AcDbEntity
  8
None
390
0
 62
               7
100
AcDbBlockReference
  2
pad
 10
16.689997001321657
 20
-6.3149970013216645
 30
0.0
  0
INSERT
  5
26E
100
AcDbEntity
  8
None
390
0
 62
               7
100
AcDbBlockReference
  2
pad
 10
17.689997001321657
 20
-6.3149970013216645
 30
0.0
  0
INSERT
  5
26F
100
AcDbEntity
  8
None
390
0
 62
               7
100
AcDbBlockReference
  2
pad
 10
18.689997001321657
 20
-6.3149970013216645
 30
0.0
  0
INSERT
  5
270
100
AcDbEntity
  8
None
390
0
 62
               7
100
AcDbBlockReference
  2
pad
 10
19.689997001321657
 20
-6.3149970013216645
 30
0.0
  0
INSERT
  5
271
100
AcDbEntity
  8
None
390
0
 62
               7
100
AcDbBlockReference
  2
pad
 10
-3.3100029986783408
 20
-7.3149970013216645
 30
0.0
  0
INSERT
  5
272
100
AcDbEntity
  8
None
390
0
 62
               7
100
AcDbBlockReference
  2
pad
 10
-2.3100029986783408
 20
-7.3149970013216645
 30
0.0
  0
INSERT
  5
273
100
AcDbEntity
  8
None
390
0
 62
               7
100
AcDbBlockReference
  2
pad
 10
-1.3100029986783408
 20
-7.3149970013216645
 30
0.0
  0
INSERT
  5
274
100
AcDbEntity
  8
None
390
0
 62
               7
100
AcDbBlockReference
  2
pad
 10
-0.3100029986783408
 20
-7.3149970013216645
 30
0.0
  0
INSERT
  5
275
100
AcDbEntity
  8
None
390
0
 62
               7
100
AcDbBlockReference
  2
pad
 10
0.6899970013216592
 20
-7.3149970013216645
 30
0.0
  0
INSERT
  5
276
100
AcDbEntity
  8
None
390
0
 62
               7
100
AcDbBlockReference
  2
pad
 10
1.6899970013216592
 20
-7.3149970013216645
 30
0.0
  0
INSERT
  5
277
100
AcDbEntity
  8
None
390
0
 62
               7
100
AcDbBlockReference
  2
pad
 10
2.6899970013216592
 20
-7.3149970013216645
 30
0.0
  0
INSERT
  5
278
100
AcDbEntity
  8
None
390
0
 62
               7
100
AcDbBlockReference
  2
pad
 10
3.6899970013216592
 20
-7.3149970013216645
 30
0.0
  0
INSERT
  5
279
100
AcDbEntity
  8
None
390
0
 62
               7
100
AcDbBlockReference
  2
pad
 10
4.6899970013216592
 20
-7.3149970013216645
 30
0.0
  0
INSERT
  5
27A
100
AcDbEntity
  8
None
390
0
 62
               7
100
AcDbBlockReference
  2
pad
 10
5.6899970013216592
 20
-7.3149970013216645
 30
0.0
  0
INSERT
  5
27B
100
AcDbEntity
  8
None
390
0
 62
               7
100
AcDbBlockReference
  2
pad
 10
6.6899970013216592
 20
-7.3149970013216645
 30
0.0
  0
INSERT
  5
27C
100
AcDbEntity
  8
None
390
0
 62
               7
100
AcDbBlockReference
  2
pad
 10
7.6899970013216592
 20
-7.3149970013216645
 30
0.0
  0
INSERT
  5
27D
100
AcDbEntity
  8
None
390
0
 62
               7
100
AcDbBlockReference
  2
pad
 10
8.6899970013216592
 20
-7.3149970013216645
 30
0.0
  0
INSERT
  5
27E
100
AcDbEntity
  8
None
390
0
 62
               7
100
AcDbBlockReference
  2
pad
 10
9.6899970013216592
 20
-7.3149970013216645
 30
0.0
  0
INSERT
  5
27F
100
AcDbEntity
  8
None
390
0
 62
               7
100
AcDbBlockReference
  2
pad
 10
10.689997001321659
 20
-7.3149970013216645
 30
0.0
  0
INSERT
  5
280
100
AcDbEntity
  8
None
390
0
 62
               7
100
AcDbBlockReference
  2
pad
 10
11.689997001321659
 20
-7.3149970013216645
 30
0.0
  0
INSERT
  5
281
100
AcDbEntity
  8
None
390
0
 62
               7
100
AcDbBlockReference
  2
pad
 10
12.689997001321657
 20
-7.3149970013216645
 30
0.0
  0
INSERT
  5
282
100
AcDbEntity
  8
None
390
0
 62
               7
100
AcDbBlockReference
  2
pad
 10
13.689997001321657
 20
-7.3149970013216645
 30
0.0
  0
INSERT
  5
283
100
AcDbEntity
  8
None
390
0
 62
               7
100
AcDbBlockReference
  2
pad
 10
14.689997001321657
 20
-7.3149970013216645
 30
0.0
  0
INSERT
  5
284
100
AcDbEntity
  8
None
390
0
 62
               7
100
AcDbBlockReference
  2
pad
 10
15.689997001321657
 20
-7.3149970013216645
 30
0.0
  0
INSERT
  5
285
100
AcDbEntity
  8
None
390
0
 62
               7
100
AcDbBlockReference
  2
pad
 10
16.689997001321657
 20
-7.3149970013216645
 30
0.0
  0
INSERT
  5
286
100
AcDbEntity
  8
None
390
0
 62
               7
100
AcDbBlockReference
  2
pad
 10
17.689997001321657
 20
-7.3149970013216645
 30
0.0
  0
INSERT
  5
287
100
AcDbEntity
  8
None
390
0
 62
               7
100
AcDbBlockReference
  2
pad
 10
18.689997001321657
 20
-7.3149970013216645
 30
0.0
  0
INSERT
  5
288
100
AcDbEntity
  8
None
390
0
 62
               7
100
AcDbBlockReference
  2
pad
 10
19.689997001321657
 20
-7.3149970013216645
 30
0.0
  0
INSERT
  5
289
100
AcDbEntity
  8
None
390
0
 62
               7
100
AcDbBlockReference
  2
pad
 10
-3.3100029986783408
 20
16.685002998678328
 30
0.0
  0
INSERT
  5
28A
100
AcDbEntity
  8
None
390
0
 62
               7
100
AcDbBlockReference
  2
pad
 10
-2.3100029986783408
 20
16.685002998678328
 30
0.0
  0
INSERT
  5
28B
100
AcDbEntity
  8
None
390
0
 62
               7
100
AcDbBlockReference
  2
pad
 10
-1.3100029986783408
 20
16.685002998678328
 30
0.0
  0
INSERT
  5
28C
100
AcDbEntity
  8
None
390
0
 62
               7
100
AcDbBlockReference
  2
pad
 10
-0.3100029986783408
 20
16.685002998678328
 30
0.0
  0
INSERT
  5
28D
100
AcDbEntity
  8
None
390
0
 62
               7
100
AcDbBlockReference
  2
pad
 10
0.6899970013216592
 20
16.685002998678328
 30
0.0
  0
INSERT
  5
28E
100
AcDbEntity
  8
None
390
0
 62
               7
100
AcDbBlockReference
  2
pad
 10
1.6899970013216592
 20
16.685002998678328
 30
0.0
  0
INSERT
  5
28F
100
AcDbEntity
  8
None
390
0
 62
               7
100
AcDbBlockReference
  2
pad
 10
2.6899970013216592
 20
16.685002998678328
 30
0.0
  0
INSERT
  5
290
100
AcDbEntity
  8
None
390
0
 62
               7
100
AcDbBlockReference
  2
pad
 10
3.6899970013216592
 20
16.685002998678328
 30
0.0
  0
INSERT
  5
291
100
AcDbEntity
  8
None
390
0
 62
               7
100
AcDbBlockReference
  2
pad
 10
4.6899970013216592
 20
16.685002998678328
 30
0.0
  0
INSERT
  5
292
100
AcDbEntity
  8
None
390
0
 62
               7
100
AcDbBlockReference
  2
pad
 10
5.6899970013216592
 20
16.685002998678328
 30
0.0
  0
INSERT
  5
293
100
AcDbEntity
  8
None
390
0
 62
               7
100
AcDbBlockReference
  2
pad
 10
6.6899970013216592
 20
16.685002998678328
 30
0.0
  0
INSERT
  5
294
100
AcDbEntity
  8
None
390
0
 62
               7
100
AcDbBlockReference
  2
pad
 10
7.6899970013216592
 20
16.685002998678328
 30
0.0
  0
INSERT
  5
295
100
AcDbEntity
  8
None
390
0
 62
               7
100
AcDbBlockReference
  2
pad
 10
8.6899970013216592
 20
16.685002998678328
 30
0.0
  0
INSERT
  5
296
100
AcDbEntity
  8
None
390
0
 62
               7
100
AcDbBlockReference
  2
pad
 10
9.6899970013216592
 20
16.685002998678328
 30
0.0
  0
INSERT
  5
297
100
AcDbEntity
  8
None
390
0
 62
               7
100
AcDbBlockReference
  2
pad
 10
10.689997001321659
 20
16.685002998678328
 30
0.0
  0
INSERT
  5
298
100
AcDbEntity
  8
None
390
0
 62
               7
100
AcDbBlockReference
  2
pad
 10
11.689997001321659
 20
16.685002998678328
 30
0.0
  0
INSERT
  5
299
100
AcDbEntity
  8
None
390
0
 62
               7
100
AcDbBlockReference
  2
pad
 10
12.689997001321657
 20
16.685002998678328
 30
0.0
  0
INSERT
  5
29A
100
AcDbEntity
  8
None
390
0
 62
               7
100
AcDbBlockReference
  2
pad
 10
13.689997001321657
 20
16.685002998678328
 30
0.0
  0
INSERT
  5
29B
100
AcDbEntity
  8
None
390
0
 62
               7
100
AcDbBlockReference
  2
pad
 10
14.689997001321657
 20
16.685002998678328
 30
0.0
  0
INSERT
  5
29C
100
AcDbEntity
  8
None
390
0
 62
               7
100
AcDbBlockReference
  2
pad
 10
15.689997001321657
 20
16.685002998678328
 30
0.0
  0
INSERT
  5
29D
100
AcDbEntity
  8
None
390
0
 62
               7
100
AcDbBlockReference
  2
pad
 10
16.689997001321657
 20
16.685002998678328
 30
0.0
  0
INSERT
  5
29E
100
AcDbEntity
  8
None
390
0
 62
               7
100
AcDbBlockReference
  2
pad
 10
17.689997001321657
 20
16.685002998678328
 30
0.0
  0
INSERT
  5
29F
100
AcDbEntity
  8
None
390
0
 62
               7
100
AcDbBlockReference
  2
pad
 10
18.689997001321657
 20
16.685002998678328
 30
0.0
  0
INSERT
  5
2A0
100
AcDbEntity
  8
None
390
0
 62
               7
100
AcDbBlockReference
  2
pad
 10
19.689997001321657
 20
16.685002998678328
 30
0.0
  0
INSERT
  5
2A1
100
AcDbEntity
  8
None
390
0
 62
               7
100
AcDbBlockReference
  2
pad
 10
-3.3100029986783408
 20
-8.3149970013216645
 30
0.0
  0
INSERT
  5
2A2
100
AcDbEntity
  8
None
390
0
 62
               7
100
AcDbBlockReference
  2
pad
 10
-2.3100029986783408
 20
-8.3149970013216645
 30
0.0
  0
INSERT
  5
2A3
100
AcDbEntity
  8
None
390
0
 62
               7
100
AcDbBlockReference
  2
pad
 10
-1.3100029986783408
 20
-8.3149970013216645
 30
0.0
  0
INSERT
  5
2A4
100
AcDbEntity
  8
None
390
0
 62
               7
100
AcDbBlockReference
  2
pad
 10
-0.3100029986783408
 20
-8.3149970013216645
 30
0.0
  0
INSERT
  5
2A5
100
AcDbEntity
  8
None
390
0
 62
               7
100
AcDbBlockReference
  2
pad
 10
0.6899970013216592
 20
-8.3149970013216645
 30
0.0
  0
INSERT
  5
2A6
100
AcDbEntity
  8
None
390
0
 62
               7
100
AcDbBlockReference
  2
pad
 10
1.6899970013216592
 20
-8.3149970013216645
 30
0.0
  0
INSERT
  5
2A7
100
AcDbEntity
  8
None
390
0
 62
               7
100
AcDbBlockReference
  2
pad
 10
2.6899970013216592
 20
-8.3149970013216645
 30
0.0
  0
INSERT
  5
2A8
100
AcDbEntity
  8
None
390
0
 62
               7
100
AcDbBlockReference
  2
pad
 10
3.6899970013216592
 20
-8.3149970013216645
 30
0.0
  0
INSERT
  5
2A9
100
AcDbEntity
  8
None
390
0
 62
               7
100
AcDbBlockReference
  2
pad
 10
4.6899970013216592
 20
-8.3149970013216645
 30
0.0
  0
INSERT
  5
2AA
100
AcDbEntity
  8
None
390
0
 62
               7
100
AcDbBlockReference
  2
pad
 10
5.6899970013216592
 20
-8.3149970013216645
 30
0.0
  0
INSERT
  5
2AB
100
AcDbEntity
  8
None
390
0
 62
               7
100
AcDbBlockReference
  2
pad
 10
6.6899970013216592
 20
-8.3149970013216645
 30
0.0
  0
INSERT
  5
2AC
100
AcDbEntity
  8
None
390
0
 62
               7
100
AcDbBlockReference
  2
pad
 10
7.6899970013216592
 20
-8.3149970013216645
 30
0.0
  0
INSERT
  5
2AD
100
AcDbEntity
  8
None
390
0
 62
               7
100
AcDbBlockReference
  2
pad
 10
8.6899970013216592
 20
-8.3149970013216645
 30
0.0
  0
INSERT
  5
2AE
100
AcDbEntity
  8
None
390
0
 62
               7
100
AcDbBlockReference
  2
pad
 10
9.6899970013216592
 20
-8.3149970013216645
 30
0.0
  0
INSERT
  5
2AF
100
AcDbEntity
  8
None
390
0
 62
               7
100
AcDbBlockReference
  2
pad
 10
10.689997001321659
 20
-8.3149970013216645
 30
0.0
  0
INSERT
  5
2B0
100
AcDbEntity
  8
None
390
0
 62
               7
100
AcDbBlockReference
  2
pad
 10
11.689997001321659
 20
-8.3149970013216645
 30
0.0
  0
INSERT
  5
2B1
100
AcDbEntity
  8
None
390
0
 62
               7
100
AcDbBlockReference
  2
pad
 10
12.689997001321657
 20
-8.3149970013216645
 30
0.0
  0
INSERT
  5
2B2
100
AcDbEntity
  8
None
390
0
 62
               7
100
AcDbBlockReference
  2
pad
 10
13.689997001321657
 20
-8.3149970013216645
 30
0.0
  0
INSERT
  5
2B3
100
AcDbEntity
  8
None
390
0
 62
               7
100
AcDbBlockReference
  2
pad
 10
14.689997001321657
 20
-8.3149970013216645
 30
0.0
  0
INSERT
  5
2B4
100
AcDbEntity
  8
None
390
0
 62
               7
100
AcDbBlockReference
  2
pad
 10
15.689997001321657
 20
-8.3149970013216645
 30
0.0
  0
INSERT
  5
2B5
100
AcDbEntity
  8
None
390
0
 62
               7
100
AcDbBlockReference
  2
pad
 10
16.689997001321657
 20
-8.3149970013216645
 30
0.0
  0
INSERT
  5
2B6
100
AcDbEntity
  8
None
390
0
 62
               7
100
AcDbBlockReference
  2
pad
 10
17.689997001321657
 20
-8.3149970013216645
 30
0.0
  0
INSERT
  5
2B7
100
AcDbEntity
  8
None
390
0
 62
               7
100
AcDbBlockReference
  2
pad
 10
18.689997001321657
 20
-8.3149970013216645
 30
0.0
  0
INSERT
  5
2B8
100
AcDbEntity
  8
None
390
0
 62
               7
100
AcDbBlockReference
  2
pad
 10
19.689997001321657
 20
-8.3149970013216645
 30
0.0
  0
INSERT
  5
2B9
100
AcDbEntity
  8
None
390
0
 62
               7
100
AcDbBlockReference
  2
pad
 10
20.689997001321657
 20
15.685002998678328
 30
0.0
  0
INSERT
  5
2BA
100
AcDbEntity
  8
None
390
0
 62
               7
100
AcDbBlockReference
  2
pad
 10
20.689997001321657
 20
14.685002998678328
 30
0.0
  0
INSERT
  5
2BB
100
AcDbEntity
  8
None
390
0
 62
               7
100
AcDbBlockReference
  2
pad
 10
20.689997001321657
 20
13.685002998678328
 30
0.0
  0
INSERT
  5
2BC
100
AcDbEntity
  8
None
390
0
 62
               7
100
AcDbBlockReference
  2
pad
 10
20.689997001321657
 20
12.685002998678328
 30
0.0
  0
INSERT
  5
2BD
100
AcDbEntity
  8
None
390
0
 62
               7
100
AcDbBlockReference
  2
pad
 10
20.689997001321657
 20
11.685002998678328
 30
0.0
  0
INSERT
  5
2BE
100
AcDbEntity
  8
None
390
0
 62
               7
100
AcDbBlockReference
  2
pad
 10
20.689997001321657
 20
10.685002998678328
 30
0.0
  0
INSERT
  5
2BF
100
AcDbEntity
  8
None
390
0
 62
               7
100
AcDbBlockReference
  2
pad
 10
20.689997001321657
 20
9.6850029986783284
 30
0.0
  0
INSERT
  5
2C0
100
AcDbEntity
  8
None
390
0
 62
               7
100
AcDbBlockReference
  2
pad
 10
20.689997001321657
 20
8.6850029986783284
 30
0.0
  0
INSERT
  5
2C1
100
AcDbEntity
  8
None
390
0
 62
               7
100
AcDbBlockReference
  2
pad
 10
20.689997001321657
 20
7.6850029986783284
 30
0.0
  0
INSERT
  5
2C2
100
AcDbEntity
  8
None
390
0
 62
               7
100
AcDbBlockReference
  2
pad
 10
20.689997001321657
 20
6.6850029986783284
 30
0.0
  0
INSERT
  5
2C3
100
AcDbEntity
  8
None
390
0
 62
               7
100
AcDbBlockReference
  2
pad
 10
20.689997001321657
 20
5.6850029986783284
 30
0.0
  0
INSERT
  5
2C4
100
AcDbEntity
  8
None
390
0
 62
               7
100
AcDbBlockReference
  2
pad
 10
20.689997001321657
 20
4.6850029986783284
 30
0.0
  0
INSERT
  5
2C5
100
AcDbEntity
  8
None
390
0
 62
               7
100
AcDbBlockReference
  2
pad
 10
20.689997001321657
 20
3.6850029986783284
 30
0.0
  0
INSERT
  5
2C6
100
AcDbEntity
  8
None
390
0
 62
               7
100
AcDbBlockReference
  2
pad
 10
20.689997001321657
 20
2.6850029986783284
 30
0.0
  0
INSERT
  5
2C7
100
AcDbEntity
  8
None
390
0
 62
               7
100
AcDbBlockReference
  2
pad
 10
20.689997001321657
 20
1.6850029986783284
 30
0.0
  0
INSERT
  5
2C8
100
AcDbEntity
  8
None
390
0
 62
               7
100
AcDbBlockReference
  2
pad
 10
20.689997001321657
 20
0.6850029986783284
 30
0.0
  0
INSERT
  5
2C9
100
AcDbEntity
  8
None
390
0
 62
               7
100
AcDbBlockReference
  2
pad
 10
20.689997001321657
 20
-0.3149970013216716
 30
0.0
  0
INSERT
  5
2CA
100
AcDbEntity
  8
None
390
0
 62
               7
100
AcDbBlockReference
  2
pad
 10
20.689997001321657
 20
-1.3149970013216716
 30
0.0
  0
INSERT
  5
2CB
100
AcDbEntity
  8
None
390
0
 62
               7
100
AcDbBlockReference
  2
pad
 10
20.689997001321657
 20
-2.3149970013216716
 30
0.0
  0
INSERT
  5
2CC
100
AcDbEntity
  8
None
390
0
 62
               7
100
AcDbBlockReference
  2
pad
 10
20.689997001321657
 20
-3.3149970013216716
 30
0.0
  0
INSERT
  5
2CD
100
AcDbEntity
  8
None
390
0
 62
               7
100
AcDbBlockReference
  2
pad
 10
20.689997001321657
 20
-4.3149970013216645
 30
0.0
  0
INSERT
  5
2CE
100
AcDbEntity
  8
None
390
0
 62
               7
100
AcDbBlockReference
  2
pad
 10
20.689997001321657
 20
-5.3149970013216645
 30
0.0
  0
INSERT
  5
2CF
100
AcDbEntity
  8
None
390
0
 62
               7
100
AcDbBlockReference
  2
pad
 10
20.689997001321657
 20
-6.3149970013216645
 30
0.0
  0
INSERT
  5
2D0
100
AcDbEntity
  8
None
390
0
 62
               7
100
AcDbBlockReference
  2
pad
 10
20.689997001321657
 20
-7.3149970013216645
 30
0.0
  0
INSERT
  5
2D1
100
AcDbEntity
  8
None
390
0
 62
               7
100
AcDbBlockReference
  2
pad
 10
20.689997001321657
 20
16.685002998678328
 30
0.0
  0
INSERT
  5
2D2
100
AcDbEntity
  8
None
390
0
 62
               7
100
AcDbBlockReference
  2
pad
 10
20.689997001321657
 20
-8.3149970013216645
 30
0.0
  0
INSERT
  5
2D3
100
AcDbEntity
  8
None
390
0
 62
               7
100
AcDbBlockReference
  2
pad
 10
-4.3100029986783408
 20
15.685002998678328
 30
0.0
  0
INSERT
  5
2D4
100
AcDbEntity
  8
None
390
0
 62
               7
100
AcDbBlockReference
  2
pad
 10
-4.3100029986783408
 20
14.685002998678328
 30
0.0
  0
INSERT
  5
2D5
100
AcDbEntity
  8
None
390
0
 62
               7
100
AcDbBlockReference
  2
pad
 10
-4.3100029986783408
 20
13.685002998678328
 30
0.0
  0
INSERT
  5
2D6
100
AcDbEntity
  8
None
390
0
 62
               7
100
AcDbBlockReference
  2
pad
 10
-4.3100029986783408
 20
12.685002998678328
 30
0.0
  0
INSERT
  5
2D7
100
AcDbEntity
  8
None
390
0
 62
               7
100
AcDbBlockReference
  2
pad
 10
-4.3100029986783408
 20
11.685002998678328
 30
0.0
  0
INSERT
  5
2D8
100
AcDbEntity
  8
None
390
0
 62
               7
100
AcDbBlockReference
  2
pad
 10
-4.3100029986783408
 20
10.685002998678328
 30
0.0
  0
INSERT
  5
2D9
100
AcDbEntity
  8
None
390
0
 62
               7
100
AcDbBlockReference
  2
pad
 10
-4.3100029986783408
 20
9.6850029986783284
 30
0.0
  0
INSERT
  5
2DA
100
AcDbEntity
  8
None
390
0
 62
               7
100
AcDbBlockReference
  2
pad
 10
-4.3100029986783408
 20
8.6850029986783284
 30
0.0
  0
INSERT
  5
2DB
100
AcDbEntity
  8
None
390
0
 62
               7
100
AcDbBlockReference
  2
pad
 10
-4.3100029986783408
 20
7.6850029986783284
 30
0.0
  0
INSERT
  5
2DC
100
AcDbEntity
  8
None
390
0
 62
               7
100
AcDbBlockReference
  2
pad
 10
-4.3100029986783408
 20
6.6850029986783284
 30
0.0
  0
INSERT
  5
2DD
100
AcDbEntity
  8
None
390
0
 62
               7
100
AcDbBlockReference
  2
pad
 10
-4.3100029986783408
 20
5.6850029986783284
 30
0.0
  0
INSERT
  5
2DE
100
AcDbEntity
  8
None
390
0
 62
               7
100
AcDbBlockReference
  2
pad
 10
-4.3100029986783408
 20
4.6850029986783284
 30
0.0
  0
INSERT
  5
2DF
100
AcDbEntity
  8
None
390
0
 62
               7
100
AcDbBlockReference
  2
pad
 10
-4.3100029986783408
 20
3.6850029986783284
 30
0.0
  0
INSERT
  5
2E0
100
AcDbEntity
  8
None
390
0
 62
               7
100
AcDbBlockReference
  2
pad
 10
-4.3100029986783408
 20
2.6850029986783284
 30
0.0
  0
INSERT
  5
2E1
100
AcDbEntity
  8
None
390
0
 62
               7
100
AcDbBlockReference
  2
pad
 10
-4.3100029986783408
 20
1.6850029986783284
 30
0.0
  0
INSERT
  5
2E2
100
AcDbEntity
  8
None
390
0
 62
               7
100
AcDbBlockReference
  2
pad
 10
-4.3100029986783408
 20
0.6850029986783284
 30
0.0
  0
INSERT
  5
2E3
100
AcDbEntity
  8
None
390
0
 62
               7
100
AcDbBlockReference
  2
pad
 10
-4.3100029986783408
 20
-0.3149970013216716
 30
0.0
  0
INSERT
  5
2E4
100
AcDbEntity
  8
None
390
0
 62
               7
100
AcDbBlockReference
  2
pad
 10
-4.3100029986783408
 20
-1.3149970013216716
 30
0.0
  0
INSERT
  5
2E5
100
AcDbEntity
  8
None
390
0
 62
               7
100
AcDbBlockReference
  2
pad
 10
-4.3100029986783408
 20
-2.3149970013216716
 30
0.0
  0
INSERT
  5
2E6
100
AcDbEntity
  8
None
390
0
 62
               7
100
AcDbBlockReference
  2
pad
 10
-4.3100029986783408
 20
-3.3149970013216716
 30
0.0
  0
INSERT
  5
2E7
100
AcDbEntity
  8
None
390
0
 62
               7
100
AcDbBlockReference
  2
pad
 10
-4.3100029986783408
 20
-4.3149970013216645
 30
0.0
  0
INSERT
  5
2E8
100
AcDbEntity
  8
None
390
0
 62
               7
100
AcDbBlockReference
  2
pad
 10
-4.3100029986783408
 20
-5.3149970013216645
 30
0.0
  0
INSERT
  5
2E9
100
AcDbEntity
  8
None
390
0
 62
               7
100
AcDbBlockReference
  2
pad
 10
-4.3100029986783408
 20
-6.3149970013216645
 30
0.0
  0
INSERT
  5
2EA
100
AcDbEntity
  8
None
390
0
 62
               7
100
AcDbBlockReference
  2
pad
 10
-4.3100029986783408
 20
-7.3149970013216645
 30
0.0
  0
INSERT
  5
2EB
100
AcDbEntity
  8
None
390
0
 62
               7
100
AcDbBlockReference
  2
pad
 10
-4.3100029986783408
 20
16.685002998678328
 30
0.0
  0
INSERT
  5
2EC
100
AcDbEntity
  8
None
390
0
 62
               7
100
AcDbBlockReference
  2
pad
 10
-4.3100029986783408
 20
-8.3149970013216645
 30
0.0
  0
INSERT
  5
2ED
100
AcDbEntity
  8
None
390
0
 62
               7
100
AcDbBlockReference
  2
pad
 10
-3.3100029986783408
 20
17.685002998678328
 30
0.0
  0
INSERT
  5
2EE
100
AcDbEntity
  8
None
390
0
 62
               7
100
AcDbBlockReference
  2
pad
 10
-2.3100029986783408
 20
17.685002998678328
 30
0.0
  0
INSERT
  5
2EF
100
AcDbEntity
  8
None
390
0
 62
               7
100
AcDbBlockReference
  2
pad
 10
-1.3100029986783408
 20
17.685002998678328
 30
0.0
  0
INSERT
  5
2F0
100
AcDbEntity
  8
None
390
0
 62
               7
100
AcDbBlockReference
  2
pad
 10
-0.3100029986783408
 20
17.685002998678328
 30
0.0
  0
INSERT
  5
2F1
100
AcDbEntity
  8
None
390
0
 62
               7
100
AcDbBlockReference
  2
pad
 10
0.6899970013216592
 20
17.685002998678328
 30
0.0
  0
INSERT
  5
2F2
100
AcDbEntity
  8
None
390
0
 62
               7
100
AcDbBlockReference
  2
pad
 10
1.6899970013216592
 20
17.685002998678328
 30
0.0
  0
INSERT
  5
2F3
100
AcDbEntity
  8
None
390
0
 62
               7
100
AcDbBlockReference
  2
pad
 10
2.6899970013216592
 20
17.685002998678328
 30
0.0
  0
INSERT
  5
2F4
100
AcDbEntity
  8
None
390
0
 62
               7
100
AcDbBlockReference
  2
pad
 10
3.6899970013216592
 20
17.685002998678328
 30
0.0
  0
INSERT
  5
2F5
100
AcDbEntity
  8
None
390
0
 62
               7
100
AcDbBlockReference
  2
pad
 10
4.6899970013216592
 20
17.685002998678328
 30
0.0
  0
INSERT
  5
2F6
100
AcDbEntity
  8
None
390
0
 62
               7
100
AcDbBlockReference
  2
pad
 10
5.6899970013216592
 20
17.685002998678328
 30
0.0
  0
INSERT
  5
2F7
100
AcDbEntity
  8
None
390
0
 62
               7
100
AcDbBlockReference
  2
pad
 10
6.6899970013216592
 20
17.685002998678328
 30
0.0
  0
INSERT
  5
2F8
100
AcDbEntity
  8
None
390
0
 62
               7
100
AcDbBlockReference
  2
pad
 10
7.6899970013216592
 20
17.685002998678328
 30
0.0
  0
INSERT
  5
2F9
100
AcDbEntity
  8
None
390
0
 62
               7
100
AcDbBlockReference
  2
pad
 10
8.6899970013216592
 20
17.685002998678328
 30
0.0
  0
INSERT
  5
2FA
100
AcDbEntity
  8
None
390
0
 62
               7
100
AcDbBlockReference
  2
pad
 10
9.6899970013216592
 20
17.685002998678328
 30
0.0
  0
INSERT
  5
2FB
100
AcDbEntity
  8
None
390
0
 62
               7
100
AcDbBlockReference
  2
pad
 10
10.689997001321659
 20
17.685002998678328
 30
0.0
  0
INSERT
  5
2FC
100
AcDbEntity
  8
None
390
0
 62
               7
100
AcDbBlockReference
  2
pad
 10
11.689997001321659
 20
17.685002998678328
 30
0.0
  0
INSERT
  5
2FD
100
AcDbEntity
  8
None
390
0
 62
               7
100
AcDbBlockReference
  2
pad
 10
12.689997001321657
 20
17.685002998678328
 30
0.0
  0
INSERT
  5
2FE
100
AcDbEntity
  8
None
390
0
 62
               7
100
AcDbBlockReference
  2
pad
 10
13.689997001321657
 20
17.685002998678328
 30
0.0
  0
INSERT
  5
2FF
100
AcDbEntity
  8
None
390
0
 62
               7
100
AcDbBlockReference
  2
pad
 10
14.689997001321657
 20
17.685002998678328
 30
0.0
  0
INSERT
  5
300
100
AcDbEntity
  8
None
390
0
 62
               7
100
AcDbBlockReference
  2
pad
 10
15.689997001321657
 20
17.685002998678328
 30
0.0
  0
INSERT
  5
301
100
AcDbEntity
  8
None
390
0
 62
               7
100
AcDbBlockReference
  2
pad
 10
16.689997001321657
 20
17.685002998678328
 30
0.0
  0
INSERT
  5
302
100
AcDbEntity
  8
None
390
0
 62
               7
100
AcDbBlockReference
  2
pad
 10
17.689997001321657
 20
17.685002998678328
 30
0.0
  0
INSERT
  5
303
100
AcDbEntity
  8
None
390
0
 62
               7
100
AcDbBlockReference
  2
pad
 10
18.689997001321657
 20
17.685002998678328
 30
0.0
  0
INSERT
  5
304
100
AcDbEntity
  8
None
390
0
 62
               7
100
AcDbBlockReference
  2
pad
 10
19.689997001321657
 20
17.685002998678328
 30
0.0
  0
INSERT
  5
305
100
AcDbEntity
  8
None
390
0
 62
               7
100
AcDbBlockReference
  2
pad
 10
20.689997001321657
 20
17.685002998678328
 30
0.0
  0
INSERT
  5
306
100
AcDbEntity
  8
None
390
0
 62
               7
100
AcDbBlockReference
  2
pad
 10
-4.3100029986783408
 20
17.685002998678328
 30
0.0
  0
INSERT
  5
307
100
AcDbEntity
  8
None
390
0
 62
               7
100
AcDbBlockReference
  2
pad
 10
-3.3100029986783408
 20
18.685002998678328
 30
0.0
  0
INSERT
  5
308
100
AcDbEntity
  8
None
390
0
 62
               7
100
AcDbBlockReference
  2
pad
 10
-2.3100029986783408
 20
18.685002998678328
 30
0.0
  0
INSERT
  5
309
100
AcDbEntity
  8
None
390
0
 62
               7
100
AcDbBlockReference
  2
pad
 10
-1.3100029986783408
 20
18.685002998678328
 30
0.0
  0
INSERT
  5
30A
100
AcDbEntity
  8
None
390
0
 62
               7
100
AcDbBlockReference
  2
pad
 10
-0.3100029986783408
 20
18.685002998678328
 30
0.0
  0
INSERT
  5
30B
100
AcDbEntity
  8
None
390
0
 62
               7
100
AcDbBlockReference
  2
pad
 10
0.6899970013216592
 20
18.685002998678328
 30
0.0
  0
INSERT
  5
30C
100
AcDbEntity
  8
None
390
0
 62
               7
100
AcDbBlockReference
  2
pad
 10
1.6899970013216592
 20
18.685002998678328
 30
0.0
  0
INSERT
  5
30D
100
AcDbEntity
  8
None
390
0
 62
               7
100
AcDbBlockReference
  2
pad
 10
2.6899970013216592
 20
18.685002998678328
 30
0.0
  0
INSERT
  5
30E
100
AcDbEntity
  8
None
390
0
 62
               7
100
AcDbBlockReference
  2
pad
 10
3.6899970013216592
 20
18.685002998678328
 30
0.0
  0
INSERT
  5
30F
100
AcDbEntity
  8
None
390
0
 62
               7
100
AcDbBlockReference
  2
pad
 10
4.6899970013216592
 20
18.685002998678328
 30
0.0
  0
INSERT
  5
310
100
AcDbEntity
  8
None
390
0
 62
               7
100
AcDbBlockReference
  2
pad
 10
5.6899970013216592
 20
18.685002998678328
 30
0.0
  0
INSERT
  5
311
100
AcDbEntity
  8
None
390
0
 62
               7
100
AcDbBlockReference
  2
pad
 10
6.6899970013216592
 20
18.685002998678328
 30
0.0
  0
INSERT
  5
312
100
AcDbEntity
  8
None
390
0
 62
               7
100
AcDbBlockReference
  2
pad
 10
7.6899970013216592
 20
18.685002998678328
 30
0.0
  0
INSERT
  5
313
100
AcDbEntity
  8
None
390
0
 62
               7
100
AcDbBlockReference
  2
pad
 10
8.6899970013216592
 20
18.685002998678328
 30
0.0
  0
INSERT
  5
314
100
AcDbEntity
  8
None
390
0
 62
               7
100
AcDbBlockReference
  2
pad
 10
9.6899970013216592
 20
18.685002998678328
 30
0.0
  0
INSERT
  5
315
100
AcDbEntity
  8
None
390
0
 62
               7
100
AcDbBlockReference
  2
pad
 10
10.689997001321659
 20
18.685002998678328
 30
0.0
  0
INSERT
  5
316
100
AcDbEntity
  8
None
390
0
 62
               7
100
AcDbBlockReference
  2
pad
 10
11.689997001321659
 20
18.685002998678328
 30
0.0
  0
INSERT
  5
317
100
AcDbEntity
  8
None
390
0
 62
               7
100
AcDbBlockReference
  2
pad
 10
12.689997001321657
 20
18.685002998678328
 30
0.0
  0
INSERT
  5
318
100
AcDbEntity
  8
None
390
0
 62
               7
100
AcDbBlockReference
  2
pad
 10
13.689997001321657
 20
18.685002998678328
 30
0.0
  0
INSERT
  5
319
100
AcDbEntity
  8
None
390
0
 62
               7
100
AcDbBlockReference
  2
pad
 10
14.689997001321657
 20
18.685002998678328
 30
0.0
  0
INSERT
  5
31A
100
AcDbEntity
  8
None
390
0
 62
               7
100
AcDbBlockReference
  2
pad
 10
15.689997001321657
 20
18.685002998678328
 30
0.0
  0
INSERT
  5
31B
100
AcDbEntity
  8
None
390
0
 62
               7
100
AcDbBlockReference
  2
pad
 10
16.689997001321657
 20
18.685002998678328
 30
0.0
  0
INSERT
  5
31C
100
AcDbEntity
  8
None
390
0
 62
               7
100
AcDbBlockReference
  2
pad
 10
17.689997001321657
 20
18.685002998678328
 30
0.0
  0
INSERT
  5
31D
100
AcDbEntity
  8
None
390
0
 62
               7
100
AcDbBlockReference
  2
pad
 10
18.689997001321657
 20
18.685002998678328
 30
0.0
  0
INSERT
  5
31E
100
AcDbEntity
  8
None
390
0
 62
               7
100
AcDbBlockReference
  2
pad
 10
19.689997001321657
 20
18.685002998678328
 30
0.0
  0
INSERT
  5
31F
100
AcDbEntity
  8
None
390
0
 62
               7
100
AcDbBlockReference
  2
pad
 10
20.689997001321657
 20
18.685002998678328
 30
0.0
  0
INSERT
  5
320
100
AcDbEntity
  8
None
390
0
 62
               7
100
AcDbBlockReference
  2
pad
 10
-4.3100029986783408
 20
18.685002998678328
 30
0.0
  0
INSERT
  5
321
100
AcDbEntity
  8
None
390
0
 62
               7
100
AcDbBlockReference
  2
pad
 10
-3.3100029986783408
 20
-9.3149970013216645
 30
0.0
  0
INSERT
  5
322
100
AcDbEntity
  8
None
390
0
 62
               7
100
AcDbBlockReference
  2
pad
 10
-2.3100029986783408
 20
-9.3149970013216645
 30
0.0
  0
INSERT
  5
323
100
AcDbEntity
  8
None
390
0
 62
               7
100
AcDbBlockReference
  2
pad
 10
-1.3100029986783408
 20
-9.3149970013216645
 30
0.0
  0
INSERT
  5
324
100
AcDbEntity
  8
None
390
0
 62
               7
100
AcDbBlockReference
  2
pad
 10
-0.3100029986783408
 20
-9.3149970013216645
 30
0.0
  0
INSERT
  5
325
100
AcDbEntity
  8
None
390
0
 62
               7
100
AcDbBlockReference
  2
pad
 10
0.6899970013216592
 20
-9.3149970013216645
 30
0.0
  0
INSERT
  5
326
100
AcDbEntity
  8
None
390
0
 62
               7
100
AcDbBlockReference
  2
pad
 10
1.6899970013216592
 20
-9.3149970013216645
 30
0.0
  0
INSERT
  5
327
100
AcDbEntity
  8
None
390
0
 62
               7
100
AcDbBlockReference
  2
pad
 10
2.6899970013216592
 20
-9.3149970013216645
 30
0.0
  0
INSERT
  5
328
100
AcDbEntity
  8
None
390
0
 62
               7
100
AcDbBlockReference
  2
pad
 10
3.6899970013216592
 20
-9.3149970013216645
 30
0.0
  0
INSERT
  5
329
100
AcDbEntity
  8
None
390
0
 62
               7
100
AcDbBlockReference
  2
pad
 10
4.6899970013216592
 20
-9.3149970013216645
 30
0.0
  0
INSERT
  5
32A
100
AcDbEntity
  8
None
390
0
 62
               7
100
AcDbBlockReference
  2
pad
 10
5.6899970013216592
 20
-9.3149970013216645
 30
0.0
  0
INSERT
  5
32B
100
AcDbEntity
  8
None
390
0
 62
               7
100
AcDbBlockReference
  2
pad
 10
6.6899970013216592
 20
-9.3149970013216645
 30
0.0
  0
INSERT
  5
32C
100
AcDbEntity
  8
None
390
0
 62
               7
100
AcDbBlockReference
  2
pad
 10
7.6899970013216592
 20
-9.3149970013216645
 30
0.0
  0
INSERT
  5
32D
100
AcDbEntity
  8
None
390
0
 62
               7
100
AcDbBlockReference
  2
pad
 10
8.6899970013216592
 20
-9.3149970013216645
 30
0.0
  0
INSERT
  5
32E
100
AcDbEntity
  8
None
390
0
 62
               7
100
AcDbBlockReference
  2
pad
 10
9.6899970013216592
 20
-9.3149970013216645
 30
0.0
  0
INSERT
  5
32F
100
AcDbEntity
  8
None
390
0
 62
               7
100
AcDbBlockReference
  2
pad
 10
10.689997001321659
 20
-9.3149970013216645
 30
0.0
  0
INSERT
  5
330
100
AcDbEntity
  8
None
390
0
 62
               7
100
AcDbBlockReference
  2
pad
 10
11.689997001321659
 20
-9.3149970013216645
 30
0.0
  0
INSERT
  5
331
100
AcDbEntity
  8
None
390
0
 62
               7
100
AcDbBlockReference
  2
pad
 10
12.689997001321657
 20
-9.3149970013216645
 30
0.0
  0
INSERT
  5
332
100
AcDbEntity
  8
None
390
0
 62
               7
100
AcDbBlockReference
  2
pad
 10
13.689997001321657
 20
-9.3149970013216645
 30
0.0
  0
INSERT
  5
333
100
AcDbEntity
  8
None
390
0
 62
               7
100
AcDbBlockReference
  2
pad
 10
14.689997001321657
 20
-9.3149970013216645
 30
0.0
  0
INSERT
  5
334
100
AcDbEntity
  8
None
390
0
 62
               7
100
AcDbBlockReference
  2
pad
 10
15.689997001321657
 20
-9.3149970013216645
 30
0.0
  0
INSERT
  5
335
100
AcDbEntity
  8
None
390
0
 62
               7
100
AcDbBlockReference
  2
pad
 10
16.689997001321657
 20
-9.3149970013216645
 30
0.0
  0
INSERT
  5
336
100
AcDbEntity
  8
None
390
0
 62
               7
100
AcDbBlockReference
  2
pad
 10
17.689997001321657
 20
-9.3149970013216645
 30
0.0
  0
INSERT
  5
337
100
AcDbEntity
  8
None
390
0
 62
               7
100
AcDbBlockReference
  2
pad
 10
18.689997001321657
 20
-9.3149970013216645
 30
0.0
  0
INSERT
  5
338
100
AcDbEntity
  8
None
390
0
 62
               7
100
AcDbBlockReference
  2
pad
 10
19.689997001321657
 20
-9.3149970013216645
 30
0.0
  0
INSERT
  5
339
100
AcDbEntity
  8
None
390
0
 62
               7
100
AcDbBlockReference
  2
pad
 10
20.689997001321657
 20
-9.3149970013216645
 30
0.0
  0
INSERT
  5
33A
100
AcDbEntity
  8
None
390
0
 62
               7
100
AcDbBlockReference
  2
pad
 10
-4.3100029986783408
 20
-9.3149970013216645
 30
0.0
  0
INSERT
  5
33B
100
AcDbEntity
  8
None
390
0
 62
               7
100
AcDbBlockReference
  2
pad
 10
-3.3100029986783408
 20
-10.314997001321665
 30
0.0
  0
INSERT
  5
33C
100
AcDbEntity
  8
None
390
0
 62
               7
100
AcDbBlockReference
  2
pad
 10
-2.3100029986783408
 20
-10.314997001321665
 30
0.0
  0
INSERT
  5
33D
100
AcDbEntity
  8
None
390
0
 62
               7
100
AcDbBlockReference
  2
pad
 10
-1.3100029986783408
 20
-10.314997001321665
 30
0.0
  0
INSERT
  5
33E
100
AcDbEntity
  8
None
390
0
 62
               7
100
AcDbBlockReference
  2
pad
 10
-0.3100029986783408
 20
-10.314997001321665
 30
0.0
  0
INSERT
  5
33F
100
AcDbEntity
  8
None
390
0
 62
               7
100
AcDbBlockReference
  2
pad
 10
0.6899970013216592
 20
-10.314997001321665
 30
0.0
  0
INSERT
  5
340
100
AcDbEntity
  8
None
390
0
 62
               7
100
AcDbBlockReference
  2
pad
 10
1.6899970013216592
 20
-10.314997001321665
 30
0.0
  0
INSERT
  5
341
100
AcDbEntity
  8
None
390
0
 62
               7
100
AcDbBlockReference
  2
pad
 10
2.6899970013216592
 20
-10.314997001321665
 30
0.0
  0
INSERT
  5
342
100
AcDbEntity
  8
None
390
0
 62
               7
100
AcDbBlockReference
  2
pad
 10
3.6899970013216592
 20
-10.314997001321665
 30
0.0
  0
INSERT
  5
343
100
AcDbEntity
  8
None
390
0
 62
               7
100
AcDbBlockReference
  2
pad
 10
4.6899970013216592
 20
-10.314997001321665
 30
0.0
  0
INSERT
  5
344
100
AcDbEntity
  8
None
390
0
 62
               7
100
AcDbBlockReference
  2
pad
 10
5.6899970013216592
 20
-10.314997001321665
 30
0.0
  0
INSERT
  5
345
100
AcDbEntity
  8
None
390
0
 62
               7
100
AcDbBlockReference
  2
pad
 10
6.6899970013216592
 20
-10.314997001321665
 30
0.0
  0
INSERT
  5
346
100
AcDbEntity
  8
None
390
0
 62
               7
100
AcDbBlockReference
  2
pad
 10
7.6899970013216592
 20
-10.314997001321665
 30
0.0
  0
INSERT
  5
347
100
AcDbEntity
  8
None
390
0
 62
               7
100
AcDbBlockReference
  2
pad
 10
8.6899970013216592
 20
-10.314997001321665
 30
0.0
  0
INSERT
  5
348
100
AcDbEntity
  8
None
390
0
 62
               7
100
AcDbBlockReference
  2
pad
 10
9.6899970013216592
 20
-10.314997001321665
 30
0.0
  0
INSERT
  5
349
100
AcDbEntity
  8
None
390
0
 62
               7
100
AcDbBlockReference
  2
pad
 10
10.689997001321659
 20
-10.314997001321665
 30
0.0
  0
INSERT
  5
34A
100
AcDbEntity
  8
None
390
0
 62
               7
100
AcDbBlockReference
  2
pad
 10
11.689997001321659
 20
-10.314997001321665
 30
0.0
  0
INSERT
  5
34B
100
AcDbEntity
  8
None
390
0
 62
               7
100
AcDbBlockReference
  2
pad
 10
12.689997001321657
 20
-10.314997001321665
 30
0.0
  0
INSERT
  5
34C
100
AcDbEntity
  8
None
390
0
 62
               7
100
AcDbBlockReference
  2
pad
 10
13.689997001321657
 20
-10.314997001321665
 30
0.0
  0
INSERT
  5
34D
100
AcDbEntity
  8
None
390
0
 62
               7
100
AcDbBlockReference
  2
pad
 10
14.689997001321657
 20
-10.314997001321665
 30
0.0
  0
INSERT
  5
34E
100
AcDbEntity
  8
None
390
0
 62
               7
100
AcDbBlockReference
  2
pad
 10
15.689997001321657
 20
-10.314997001321665
 30
0.0
  0
INSERT
  5
34F
100
AcDbEntity
  8
None
390
0
 62
               7
100
AcDbBlockReference
  2
pad
 10
16.689997001321657
 20
-10.314997001321665
 30
0.0
  0
INSERT
  5
350
100
AcDbEntity
  8
None
390
0
 62
               7
100
AcDbBlockReference
  2
pad
 10
17.689997001321657
 20
-10.314997001321665
 30
0.0
  0
INSERT
  5
351
100
AcDbEntity
  8
None
390
0
 62
               7
100
AcDbBlockReference
  2
pad
 10
18.689997001321657
 20
-10.314997001321665
 30
0.0
  0
INSERT
  5
352
100
AcDbEntity
  8
None
390
0
 62
               7
100
AcDbBlockReference
  2
pad
 10
19.689997001321657
 20
-10.314997001321665
 30
0.0
  0
INSERT
  5
353
100
AcDbEntity
  8
None
390
0
 62
               7
100
AcDbBlockReference
  2
pad
 10
20.689997001321657
 20
-10.314997001321665
 30
0.0
  0
INSERT
  5
354
100
AcDbEntity
  8
None
390
0
 62
               7
100
AcDbBlockReference
  2
pad
 10
-4.3100029986783408
 20
-10.314997001321665
 30
0.0
  0
INSERT
  5
355
100
AcDbEntity
  8
None
390
0
 62
               7
100
AcDbBlockReference
  2
pad
 10
21.689997001321657
 20
15.685002998678328
 30
0.0
  0
INSERT
  5
356
100
AcDbEntity
  8
None
390
0
 62
               7
100
AcDbBlockReference
  2
pad
 10
21.689997001321657
 20
14.685002998678328
 30
0.0
  0
INSERT
  5
357
100
AcDbEntity
  8
None
390
0
 62
               7
100
AcDbBlockReference
  2
pad
 10
21.689997001321657
 20
13.685002998678328
 30
0.0
  0
INSERT
  5
358
100
AcDbEntity
  8
None
390
0
 62
               7
100
AcDbBlockReference
  2
pad
 10
21.689997001321657
 20
12.685002998678328
 30
0.0
  0
INSERT
  5
359
100
AcDbEntity
  8
None
390
0
 62
               7
100
AcDbBlockReference
  2
pad
 10
21.689997001321657
 20
11.685002998678328
 30
0.0
  0
INSERT
  5
35A
100
AcDbEntity
  8
None
390
0
 62
               7
100
AcDbBlockReference
  2
pad
 10
21.689997001321657
 20
10.685002998678328
 30
0.0
  0
INSERT
  5
35B
100
AcDbEntity
  8
None
390
0
 62
               7
100
AcDbBlockReference
  2
pad
 10
21.689997001321657
 20
9.6850029986783284
 30
0.0
  0
INSERT
  5
35C
100
AcDbEntity
  8
None
390
0
 62
               7
100
AcDbBlockReference
  2
pad
 10
21.689997001321657
 20
8.6850029986783284
 30
0.0
  0
INSERT
  5
35D
100
AcDbEntity
  8
None
390
0
 62
               7
100
AcDbBlockReference
  2
pad
 10
21.689997001321657
 20
7.6850029986783284
 30
0.0
  0
INSERT
  5
35E
100
AcDbEntity
  8
None
390
0
 62
               7
100
AcDbBlockReference
  2
pad
 10
21.689997001321657
 20
6.6850029986783284
 30
0.0
  0
INSERT
  5
35F
100
AcDbEntity
  8
None
390
0
 62
               7
100
AcDbBlockReference
  2
pad
 10
21.689997001321657
 20
5.6850029986783284
 30
0.0
  0
INSERT
  5
360
100
AcDbEntity
  8
None
390
0
 62
               7
100
AcDbBlockReference
  2
pad
 10
21.689997001321657
 20
4.6850029986783284
 30
0.0
  0
INSERT
  5
361
100
AcDbEntity
  8
None
390
0
 62
               7
100
AcDbBlockReference
  2
pad
 10
21.689997001321657
 20
3.6850029986783284
 30
0.0
  0
INSERT
  5
362
100
AcDbEntity
  8
None
390
0
 62
               7
100
AcDbBlockReference
  2
pad
 10
21.689997001321657
 20
2.6850029986783284
 30
0.0
  0
INSERT
  5
363
100
AcDbEntity
  8
None
390
0
 62
               7
100
AcDbBlockReference
  2
pad
 10
21.689997001321657
 20
1.6850029986783284
 30
0.0
  0
INSERT
  5
364
100
AcDbEntity
  8
None
390
0
 62
               7
100
AcDbBlockReference
  2
pad
 10
21.689997001321657
 20
0.6850029986783284
 30
0.0
  0
INSERT
  5
365
100
AcDbEntity
  8
None
390
0
 62
               7
100
AcDbBlockReference
  2
pad
 10
21.689997001321657
 20
-0.3149970013216716
 30
0.0
  0
INSERT
  5
366
100
AcDbEntity
  8
None
390
0
 62
               7
100
AcDbBlockReference
  2
pad
 10
21.689997001321657
 20
-1.3149970013216716
 30
0.0
  0
INSERT
  5
367
100
AcDbEntity
  8
None
390
0
 62
               7
100
AcDbBlockReference
  2
pad
 10
21.689997001321657
 20
-2.3149970013216716
 30
0.0
  0
INSERT
  5
368
100
AcDbEntity
  8
None
390
0
 62
               7
100
AcDbBlockReference
  2
pad
 10
21.689997001321657
 20
-3.3149970013216716
 30
0.0
  0
INSERT
  5
369
100
AcDbEntity
  8
None
390
0
 62
               7
100
AcDbBlockReference
  2
pad
 10
21.689997001321657
 20
-4.3149970013216645
 30
0.0
  0
INSERT
  5
36A
100
AcDbEntity
  8
None
390
0
 62
               7
100
AcDbBlockReference
  2
pad
 10
21.689997001321657
 20
-5.3149970013216645
 30
0.0
  0
INSERT
  5
36B
100
AcDbEntity
  8
None
390
0
 62
               7
100
AcDbBlockReference
  2
pad
 10
21.689997001321657
 20
-6.3149970013216645
 30
0.0
  0
INSERT
  5
36C
100
AcDbEntity
  8
None
390
0
 62
               7
100
AcDbBlockReference
  2
pad
 10
21.689997001321657
 20
-7.3149970013216645
 30
0.0
  0
INSERT
  5
36D
100
AcDbEntity
  8
None
390
0
 62
               7
100
AcDbBlockReference
  2
pad
 10
21.689997001321657
 20
16.685002998678328
 30
0.0
  0
INSERT
  5
36E
100
AcDbEntity
  8
None
390
0
 62
               7
100
AcDbBlockReference
  2
pad
 10
21.689997001321657
 20
-8.3149970013216645
 30
0.0
  0
INSERT
  5
36F
100
AcDbEntity
  8
None
390
0
 62
               7
100
AcDbBlockReference
  2
pad
 10
21.689997001321657
 20
17.685002998678328
 30
0.0
  0
INSERT
  5
370
100
AcDbEntity
  8
None
390
0
 62
               7
100
AcDbBlockReference
  2
pad
 10
21.689997001321657
 20
18.685002998678328
 30
0.0
  0
INSERT
  5
371
100
AcDbEntity
  8
None
390
0
 62
               7
100
AcDbBlockReference
  2
pad
 10
21.689997001321657
 20
-9.3149970013216645
 30
0.0
  0
INSERT
  5
372
100
AcDbEntity
  8
None
390
0
 62
               7
100
AcDbBlockReference
  2
pad
 10
21.689997001321657
 20
-10.314997001321665
 30
0.0
  0
INSERT
  5
373
100
AcDbEntity
  8
None
390
0
 62
               7
100
AcDbBlockReference
  2
pad
 10
22.689997001321657
 20
15.685002998678328
 30
0.0
  0
INSERT
  5
374
100
AcDbEntity
  8
None
390
0
 62
               7
100
AcDbBlockReference
  2
pad
 10
22.689997001321657
 20
14.685002998678328
 30
0.0
  0
INSERT
  5
375
100
AcDbEntity
  8
None
390
0
 62
               7
100
AcDbBlockReference
  2
pad
 10
22.689997001321657
 20
13.685002998678328
 30
0.0
  0
INSERT
  5
376
100
AcDbEntity
  8
None
390
0
 62
               7
100
AcDbBlockReference
  2
pad
 10
22.689997001321657
 20
12.685002998678328
 30
0.0
  0
INSERT
  5
377
100
AcDbEntity
  8
None
390
0
 62
               7
100
AcDbBlockReference
  2
pad
 10
22.689997001321657
 20
11.685002998678328
 30
0.0
  0
INSERT
  5
378
100
AcDbEntity
  8
None
390
0
 62
               7
100
AcDbBlockReference
  2
pad
 10
22.689997001321657
 20
10.685002998678328
 30
0.0
  0
INSERT
  5
379
100
AcDbEntity
  8
None
390
0
 62
               7
100
AcDbBlockReference
  2
pad
 10
22.689997001321657
 20
9.6850029986783284
 30
0.0
  0
INSERT
  5
37A
100
AcDbEntity
  8
None
390
0
 62
               7
100
AcDbBlockReference
  2
pad
 10
22.689997001321657
 20
8.6850029986783284
 30
0.0
  0
INSERT
  5
37B
100
AcDbEntity
  8
None
390
0
 62
               7
100
AcDbBlockReference
  2
pad
 10
22.689997001321657
 20
7.6850029986783284
 30
0.0
  0
INSERT
  5
37C
100
AcDbEntity
  8
None
390
0
 62
               7
100
AcDbBlockReference
  2
pad
 10
22.689997001321657
 20
6.6850029986783284
 30
0.0
  0
INSERT
  5
37D
100
AcDbEntity
  8
None
390
0
 62
               7
100
AcDbBlockReference
  2
pad
 10
22.689997001321657
 20
5.6850029986783284
 30
0.0
  0
INSERT
  5
37E
100
AcDbEntity
  8
None
390
0
 62
               7
100
AcDbBlockReference
  2
pad
 10
22.689997001321657
 20
4.6850029986783284
 30
0.0
  0
INSERT
  5
37F
100
AcDbEntity
  8
None
390
0
 62
               7
100
AcDbBlockReference
  2
pad
 10
22.689997001321657
 20
3.6850029986783284
 30
0.0
  0
INSERT
  5
380
100
AcDbEntity
  8
None
390
0
 62
               7
100
AcDbBlockReference
  2
pad
 10
22.689997001321657
 20
2.6850029986783284
 30
0.0
  0
INSERT
  5
381
100
AcDbEntity
  8
None
390
0
 62
               7
100
AcDbBlockReference
  2
pad
 10
22.689997001321657
 20
1.6850029986783284
 30
0.0
  0
INSERT
  5
382
100
AcDbEntity
  8
None
390
0
 62
               7
100
AcDbBlockReference
  2
pad
 10
22.689997001321657
 20
0.6850029986783284
 30
0.0
  0
INSERT
  5
383
100
AcDbEntity
  8
None
390
0
 62
               7
100
AcDbBlockReference
  2
pad
 10
22.689997001321657
 20
-0.3149970013216716
 30
0.0
  0
INSERT
  5
384
100
AcDbEntity
  8
None
390
0
 62
               7
100
AcDbBlockReference
  2
pad
 10
22.689997001321657
 20
-1.3149970013216716
 30
0.0
  0
INSERT
  5
385
100
AcDbEntity
  8
None
390
0
 62
               7
100
AcDbBlockReference
  2
pad
 10
22.689997001321657
 20
-2.3149970013216716
 30
0.0
  0
INSERT
  5
386
100
AcDbEntity
  8
None
390
0
 62
               7
100
AcDbBlockReference
  2
pad
 10
22.689997001321657
 20
-3.3149970013216716
 30
0.0
  0
INSERT
  5
387
100
AcDbEntity
  8
None
390
0
 62
               7
100
AcDbBlockReference
  2
pad
 10
22.689997001321657
 20
-4.3149970013216645
 30
0.0
  0
INSERT
  5
388
100
AcDbEntity
  8
None
390
0
 62
               7
100
AcDbBlockReference
  2
pad
 10
22.689997001321657
 20
-5.3149970013216645
 30
0.0
  0
INSERT
  5
389
100
AcDbEntity
  8
None
390
0
 62
               7
100
AcDbBlockReference
  2
pad
 10
22.689997001321657
 20
-6.3149970013216645
 30
0.0
  0
INSERT
  5
38A
100
AcDbEntity
  8
None
390
0
 62
               7
100
AcDbBlockReference
  2
pad
 10
22.689997001321657
 20
-7.3149970013216645
 30
0.0
  0
INSERT
  5
38B
100
AcDbEntity
  8
None
390
0
 62
               7
100
AcDbBlockReference
  2
pad
 10
22.689997001321657
 20
16.685002998678328
 30
0.0
  0
INSERT
  5
38C
100
AcDbEntity
  8
None
390
0
 62
               7
100
AcDbBlockReference
  2
pad
 10
22.689997001321657
 20
-8.3149970013216645
 30
0.0
  0
INSERT
  5
38D
100
AcDbEntity
  8
None
390
0
 62
               7
100
AcDbBlockReference
  2
pad
 10
22.689997001321657
 20
17.685002998678328
 30
0.0
  0
INSERT
  5
38E
100
AcDbEntity
  8
None
390
0
 62
               7
100
AcDbBlockReference
  2
pad
 10
22.689997001321657
 20
18.685002998678328
 30
0.0
  0
INSERT
  5
38F
100
AcDbEntity
  8
None
390
0
 62
               7
100
AcDbBlockReference
  2
pad
 10
22.689997001321657
 20
-9.3149970013216645
 30
0.0
  0
INSERT
  5
390
100
AcDbEntity
  8
None
390
0
 62
               7
100
AcDbBlockReference
  2
pad
 10
22.689997001321657
 20
-10.314997001321665
 30
0.0
  0
INSERT
  5
391
100
AcDbEntity
  8
None
390
0
 62
               7
100
AcDbBlockReference
  2
pad
 10
-5.3100029986783408
 20
15.685002998678328
 30
0.0
  0
INSERT
  5
392
100
AcDbEntity
  8
None
390
0
 62
               7
100
AcDbBlockReference
  2
pad
 10
-5.3100029986783408
 20
14.685002998678328
 30
0.0
  0
INSERT
  5
393
100
AcDbEntity
  8
None
390
0
 62
               7
100
AcDbBlockReference
  2
pad
 10
-5.3100029986783408
 20
13.685002998678328
 30
0.0
  0
INSERT
  5
394
100
AcDbEntity
  8
None
390
0
 62
               7
100
AcDbBlockReference
  2
pad
 10
-5.3100029986783408
 20
12.685002998678328
 30
0.0
  0
INSERT
  5
395
100
AcDbEntity
  8
None
390
0
 62
               7
100
AcDbBlockReference
  2
pad
 10
-5.3100029986783408
 20
11.685002998678328
 30
0.0
  0
INSERT
  5
396
100
AcDbEntity
  8
None
390
0
 62
               7
100
AcDbBlockReference
  2
pad
 10
-5.3100029986783408
 20
10.685002998678328
 30
0.0
  0
INSERT
  5
397
100
AcDbEntity
  8
None
390
0
 62
               7
100
AcDbBlockReference
  2
pad
 10
-5.3100029986783408
 20
9.6850029986783284
 30
0.0
  0
INSERT
  5
398
100
AcDbEntity
  8
None
390
0
 62
               7
100
AcDbBlockReference
  2
pad
 10
-5.3100029986783408
 20
8.6850029986783284
 30
0.0
  0
INSERT
  5
399
100
AcDbEntity
  8
None
390
0
 62
               7
100
AcDbBlockReference
  2
pad
 10
-5.3100029986783408
 20
7.6850029986783284
 30
0.0
  0
INSERT
  5
39A
100
AcDbEntity
  8
None
390
0
 62
               7
100
AcDbBlockReference
  2
pad
 10
-5.3100029986783408
 20
6.6850029986783284
 30
0.0
  0
INSERT
  5
39B
100
AcDbEntity
  8
None
390
0
 62
               7
100
AcDbBlockReference
  2
pad
 10
-5.3100029986783408
 20
5.6850029986783284
 30
0.0
  0
INSERT
  5
39C
100
AcDbEntity
  8
None
390
0
 62
               7
100
AcDbBlockReference
  2
pad
 10
-5.3100029986783408
 20
4.6850029986783284
 30
0.0
  0
INSERT
  5
39D
100
AcDbEntity
  8
None
390
0
 62
               7
100
AcDbBlockReference
  2
pad
 10
-5.3100029986783408
 20
3.6850029986783284
 30
0.0
  0
INSERT
  5
39E
100
AcDbEntity
  8
None
390
0
 62
               7
100
AcDbBlockReference
  2
pad
 10
-5.3100029986783408
 20
2.6850029986783284
 30
0.0
  0
INSERT
  5
39F
100
AcDbEntity
  8
None
390
0
 62
               7
100
AcDbBlockReference
  2
pad
 10
-5.3100029986783408
 20
1.6850029986783284
 30
0.0
  0
INSERT
  5
3A0
100
AcDbEntity
  8
None
390
0
 62
               7
100
AcDbBlockReference
  2
pad
 10
-5.3100029986783408
 20
0.6850029986783284
 30
0.0
  0
INSERT
  5
3A1
100
AcDbEntity
  8
None
390
0
 62
               7
100
AcDbBlockReference
  2
pad
 10
-5.3100029986783408
 20
-0.3149970013216716
 30
0.0
  0
INSERT
  5
3A2
100
AcDbEntity
  8
None
390
0
 62
               7
100
AcDbBlockReference
  2
pad
 10
-5.3100029986783408
 20
-1.3149970013216716
 30
0.0
  0
INSERT
  5
3A3
100
AcDbEntity
  8
None
390
0
 62
               7
100
AcDbBlockReference
  2
pad
 10
-5.3100029986783408
 20
-2.3149970013216716
 30
0.0
  0
INSERT
  5
3A4
100
AcDbEntity
  8
None
390
0
 62
               7
100
AcDbBlockReference
  2
pad
 10
-5.3100029986783408
 20
-3.3149970013216716
 30
0.0
  0
INSERT
  5
3A5
100
AcDbEntity
  8
None
390
0
 62
               7
100
AcDbBlockReference
  2
pad
 10
-5.3100029986783408
 20
-4.3149970013216645
 30
0.0
  0
INSERT
  5
3A6
100
AcDbEntity
  8
None
390
0
 62
               7
100
AcDbBlockReference
  2
pad
 10
-5.3100029986783408
 20
-5.3149970013216645
 30
0.0
  0
INSERT
  5
3A7
100
AcDbEntity
  8
None
390
0
 62
               7
100
AcDbBlockReference
  2
pad
 10
-5.3100029986783408
 20
-6.3149970013216645
 30
0.0
  0
INSERT
  5
3A8
100
AcDbEntity
  8
None
390
0
 62
               7
100
AcDbBlockReference
  2
pad
 10
-5.3100029986783408
 20
-7.3149970013216645
 30
0.0
  0
INSERT
  5
3A9
100
AcDbEntity
  8
None
390
0
 62
               7
100
AcDbBlockReference
  2
pad
 10
-5.3100029986783408
 20
16.685002998678328
 30
0.0
  0
INSERT
  5
3AA
100
AcDbEntity
  8
None
390
0
 62
               7
100
AcDbBlockReference
  2
pad
 10
-5.3100029986783408
 20
-8.3149970013216645
 30
0.0
  0
INSERT
  5
3AB
100
AcDbEntity
  8
None
390
0
 62
               7
100
AcDbBlockReference
  2
pad
 10
-5.3100029986783408
 20
17.685002998678328
 30
0.0
  0
INSERT
  5
3AC
100
AcDbEntity
  8
None
390
0
 62
               7
100
AcDbBlockReference
  2
pad
 10
-5.3100029986783408
 20
18.685002998678328
 30
0.0
  0
INSERT
  5
3AD
100
AcDbEntity
  8
None
390
0
 62
               7
100
AcDbBlockReference
  2
pad
 10
-5.3100029986783408
 20
-9.3149970013216645
 30
0.0
  0
INSERT
  5
3AE
100
AcDbEntity
  8
None
390
0
 62
               7
100
AcDbBlockReference
  2
pad
 10
-5.3100029986783408
 20
-10.314997001321665
 30
0.0
  0
INSERT
  5
3AF
100
AcDbEntity
  8
None
390
0
 62
               7
100
AcDbBlockReference
  2
pad
 10
-6.3100029986783426
 20
15.685002998678328
 30
0.0
  0
INSERT
  5
3B0
100
AcDbEntity
  8
None
390
0
 62
               7
100
AcDbBlockReference
  2
pad
 10
-6.3100029986783426
 20
14.685002998678328
 30
0.0
  0
INSERT
  5
3B1
100
AcDbEntity
  8
None
390
0
 62
               7
100
AcDbBlockReference
  2
pad
 10
-6.3100029986783426
 20
13.685002998678328
 30
0.0
  0
INSERT
  5
3B2
100
AcDbEntity
  8
None
390
0
 62
               7
100
AcDbBlockReference
  2
pad
 10
-6.3100029986783426
 20
12.685002998678328
 30
0.0
  0
INSERT
  5
3B3
100
AcDbEntity
  8
None
390
0
 62
               7
100
AcDbBlockReference
  2
pad
 10
-6.3100029986783426
 20
11.685002998678328
 30
0.0
  0
INSERT
  5
3B4
100
AcDbEntity
  8
None
390
0
 62
               7
100
AcDbBlockReference
  2
pad
 10
-6.3100029986783426
 20
10.685002998678328
 30
0.0
  0
INSERT
  5
3B5
100
AcDbEntity
  8
None
390
0
 62
               7
100
AcDbBlockReference
  2
pad
 10
-6.3100029986783426
 20
9.6850029986783284
 30
0.0
  0
INSERT
  5
3B6
100
AcDbEntity
  8
None
390
0
 62
               7
100
AcDbBlockReference
  2
pad
 10
-6.3100029986783426
 20
8.6850029986783284
 30
0.0
  0
INSERT
  5
3B7
100
AcDbEntity
  8
None
390
0
 62
               7
100
AcDbBlockReference
  2
pad
 10
-6.3100029986783426
 20
7.6850029986783284
 30
0.0
  0
INSERT
  5
3B8
100
AcDbEntity
  8
None
390
0
 62
               7
100
AcDbBlockReference
  2
pad
 10
-6.3100029986783426
 20
6.6850029986783284
 30
0.0
  0
INSERT
  5
3B9
100
AcDbEntity
  8
None
390
0
 62
               7
100
AcDbBlockReference
  2
pad
 10
-6.3100029986783426
 20
5.6850029986783284
 30
0.0
  0
INSERT
  5
3BA
100
AcDbEntity
  8
None
390
0
 62
               7
100
AcDbBlockReference
  2
pad
 10
-6.3100029986783426
 20
4.6850029986783284
 30
0.0
  0
INSERT
  5
3BB
100
AcDbEntity
  8
None
390
0
 62
               7
100
AcDbBlockReference
  2
pad
 10
-6.3100029986783426
 20
3.6850029986783284
 30
0.0
  0
INSERT
  5
3BC
100
AcDbEntity
  8
None
390
0
 62
               7
100
AcDbBlockReference
  2
pad
 10
-6.3100029986783426
 20
2.6850029986783284
 30
0.0
  0
INSERT
  5
3BD
100
AcDbEntity
  8
None
390
0
 62
               7
100
AcDbBlockReference
  2
pad
 10
-6.3100029986783426
 20
1.6850029986783284
 30
0.0
  0
INSERT
  5
3BE
100
AcDbEntity
  8
None
390
0
 62
               7
100
AcDbBlockReference
  2
pad
 10
-6.3100029986783426
 20
0.6850029986783284
 30
0.0
  0
INSERT
  5
3BF
100
AcDbEntity
  8
None
390
0
 62
               7
100
AcDbBlockReference
  2
pad
 10
-6.3100029986783426
 20
-0.3149970013216716
 30
0.0
  0
INSERT
  5
3C0
100
AcDbEntity
  8
None
390
0
 62
               7
100
AcDbBlockReference
  2
pad
 10
-6.3100029986783426
 20
-1.3149970013216716
 30
0.0
  0
INSERT
  5
3C1
100
AcDbEntity
  8
None
390
0
 62
               7
100
AcDbBlockReference
  2
pad
 10
-6.3100029986783426
 20
-2.3149970013216716
 30
0.0
  0
INSERT
  5
3C2
100
AcDbEntity
  8
None
390
0
 62
               7
100
AcDbBlockReference
  2
pad
 10
-6.3100029986783426
 20
-3.3149970013216716
 30
0.0
  0
INSERT
  5
3C3
100
AcDbEntity
  8
None
390
0
 62
               7
100
AcDbBlockReference
  2
pad
 10
-6.3100029986783426
 20
-4.3149970013216645
 30
0.0
  0
INSERT
  5
3C4
100
AcDbEntity
  8
None
390
0
 62
               7
100
AcDbBlockReference
  2
pad
 10
-6.3100029986783426
 20
-5.3149970013216645
 30
0.0
  0
INSERT
  5
3C5
100
AcDbEntity
  8
None
390
0
 62
               7
100
AcDbBlockReference
  2
pad
 10
-6.3100029986783426
 20
-6.3149970013216645
 30
0.0
  0
INSERT
  5
3C6
100
AcDbEntity
  8
None
390
0
 62
               7
100
AcDbBlockReference
  2
pad
 10
-6.3100029986783426
 20
-7.3149970013216645
 30
0.0
  0
INSERT
  5
3C7
100
AcDbEntity
  8
None
390
0
 62
               7
100
AcDbBlockReference
  2
pad
 10
-6.3100029986783426
 20
16.685002998678328
 30
0.0
  0
INSERT
  5
3C8
100
AcDbEntity
  8
None
390
0
 62
               7
100
AcDbBlockReference
  2
pad
 10
-6.3100029986783426
 20
-8.3149970013216645
 30
0.0
  0
INSERT
  5
3C9
100
AcDbEntity
  8
None
390
0
 62
               7
100
AcDbBlockReference
  2
pad
 10
-6.3100029986783426
 20
17.685002998678328
 30
0.0
  0
INSERT
  5
3CA
100
AcDbEntity
  8
None
390
0
 62
               7
100
AcDbBlockReference
  2
pad
 10
-6.3100029986783426
 20
18.685002998678328
 30
0.0
  0
INSERT
  5
3CB
100
AcDbEntity
  8
None
390
0
 62
               7
100
AcDbBlockReference
  2
pad
 10
-6.3100029986783426
 20
-9.3149970013216645
 30
0.0
  0
INSERT
  5
3CC
100
AcDbEntity
  8
None
390
0
 62
               7
100
AcDbBlockReference
  2
pad
 10
-6.3100029986783426
 20
-10.314997001321665
 30
0.0
  0
ENDBLK
  5
3CD
100
AcDbEntity
  8
None
390
0
100
AcDbBlockEnd
  0
ENDSEC
  0
SECTION
  2
ENTITIES
  0
INSERT
  5
3CE
100
AcDbEntity
  8
None
390
0
 62
               7
100
AcDbBlockReference
  2
Group-1
 10
-7.8149970013216645
 20
-4.1850029986783355
 30
0.0
  0
INSERT
  5
3CF
100
AcDbEntity
  8
None
390
0
 62
               7
100
AcDbBlockReference
  2
Group-2
 10
-7.8149970013216645
 20
-4.1850029986783355
 30
0.0
  0
ENDSEC
  0
SECTION
  2
OBJECTS
  0
DICTIONARY
  5
19
100
AcDbDictionary
280
               0
281
               1
  3
ACAD_GROUP
350
1A
  3
ACAD_MLINESTYLE
350
1B
  3
ACAD_LAYOUT
350
1E
  3
ACAD_PLOTSETTINGS
350
22
  3
ACAD_PLOTSTYLENAME
350
1F
  0
DICTIONARY
  5
1A
102
{ACAD_REACTORS
330
19
102
}
100
AcDbDictionary
280
               0
281
               1
  0
DICTIONARY
  5
1B
102
{ACAD_REACTORS
330
19
102
}
100
AcDbDictionary
280
               0
281
               1
  3
Standard
350
1C
  0
MLINESTYLE
  5
1C
102
{ACAD_REACTORS
330
1B
102
}
100
AcDbMlineStyle
  2
Standard
 70
               0
  3

 62
               0
 51
90.0
 52
90.0
 71
               2
 49
0.5
 62
             256
  6
ByLayer
 49
-0.5
 62
             256
  6
ByLayer
  0
ACDBDICTIONARYWDFLT
  5
1F
102
{ACAD_REACTORS
330
19
102
}
100
AcDbDictionary
281
               1
  3
Normal
350
1D
100
AcDbDictionaryWithDefault
340
1D
  0
ACDBPLACEHOLDER
  5
1D
102
{ACAD_REACTORS
330
1F
102
}
  0
LAYOUT
  5
20
102
{ACAD_REACTORS
330
1E
102
}
100
AcDbPlotSettings
  1

  2

  4

  6

 40
0.0
 41
0.0
 42
0.0
 43
0.0
 44
0.0
 45
0.0
 46
0.0
 47
0.0
 48
0.0
 49
0.0
140
0.0
141
0.0
142
1.0
143
1.0
 70
            1024
 72
               0
 73
               0
 74
               0
  7

 75
               0
147
1.0
148
0.0
149
0.0
100
AcDbLayout
  1
Model
 70
               0
 71
               0
 10
0.0
 20
0.0
 11
0.0
 21
0.0
 12
0.0
 22
0.0
 32
0.0
 14
0.0
 24
0.0
 34
0.0
 15
0.0
 25
0.0
 35
0.0
146
0.0
 13
0.0
 23
0.0
 33
0.0
 16
0.0
 26
0.0
 36
0.0
 17
0.0
 27
0.0
 37
0.0
 76
               0
330
A
331
0
345
0
346
0
  0
LAYOUT
  5
21
102
{ACAD_REACTORS
330
1E
102
}
100
AcDbPlotSettings
  1

  2

  4

  6

 40
0.0
 41
0.0
 42
0.0
 43
0.0
 44
0.0
 45
0.0
 46
0.0
 47
0.0
 48
0.0
 49
0.0
140
0.0
141
0.0
142
1.0
143
1.0
 70
               0
 72
               0
 73
               0
 74
               0
  7

 75
               0
147
1.0
148
0.0
149
0.0
100
AcDbLayout
  1
Layout1
 70
               0
 71
               0
 10
0.0
 20
0.0
 11
0.0
 21
0.0
 12
0.0
 22
0.0
 32
0.0
 14
0.0
 24
0.0
 34
0.0
 15
0.0
 25
0.0
 35
0.0
146
0.0
 13
0.0
 23
0.0
 33
0.0
 16
0.0
 26
0.0
 36
0.0
 17
0.0
 27
0.0
 37
0.0
 76
               0
330
B
331
0
345
0
346
0
  0
DICTIONARY
  5
1E
102
{ACAD_REACTORS
330
19
102
}
100
AcDbDictionary
280
               0
281
               1
  3
Layout1
350
21
  3
Model
350
20
  0
DICTIONARY
  5
22
102
{ACAD_REACTORS
330
19
102
}
100
AcDbDictionary
280
               0
281
               1
  0
ENDSEC
  0
EOF
