  0
SECTION
  2
HEADER
  9
$ACADVER
  1
AC1015
  9
$ACADMAINTVER
 70
     6
  9
$DWGCODEPAGE
  3
ANSI_1252
  9
$INSBASE
 10
0.0
 20
0.0
 30
0.0
  9
$EXTMIN
 10
0.0
 20
0.0
 30
0.0
  9
$EXTMAX
 10
93.1333333333
 20
71.9666666667
 30
0.0
  9
$LIMMIN
 10
0.0
 20
0.0
  9
$LIMMAX
 10
93.1333333333
 20
71.9666666667
  9
$ORTHOMODE
 70
     0
  9
$REGENMODE
 70
     1
  9
$FILLMODE
 70
     1
  9
$QTEXTMODE
 70
     0
  9
$MIRRTEXT
 70
     1
  9
$LTSCALE
 40
0.3333333333
  9
$ATTMODE
 70
     1
  9
$TEXTSIZE
 40
1.1759259259
  9
$TRACEWID
 40
1.0
  9
$TEXTSTYLE
  7
Standard
  9
$CLAYER
  8
0
  9
$CELTYPE
  6
ByLayer
  9
$CECOLOR
 62
   256
  9
$CELTSCALE
 40
1.0
  9
$DISPSILH
 70
     0
  9
$DIMSCALE
 40
1.0
  9
$DIMASZ
 40
1.0583333333
  9
$DIMEXO
 40
0.4233333333
  9
$DIMDLI
 40
3.75
  9
$DIMRND
 40
0.0
  9
$DIMDLE
 40
0.0
  9
$DIMEXE
 40
1.0583333333
  9
$DIMTP
 40
0.0
  9
$DIMTM
 40
0.0
  9
$DIMTXT
 40
1.1759259259
  9
$DIMCEN
 40
2.5
  9
$DIMTSZ
 40
0.0
  9
$DIMTOL
 70
     0
  9
$DIMLIM
 70
     0
  9
$DIMTIH
 70
     1
  9
$DIMTOH
 70
     1
  9
$DIMSE1
 70
     0
  9
$DIMSE2
 70
     0
  9
$DIMTAD
 70
     0
  9
$DIMZIN
 70
     1
  9
$DIMBLK
  1

  9
$DIMASO
 70
     1
  9
$DIMSHO
 70
     1
  9
$DIMPOST
  1

  9
$DIMAPOST
  1

  9
$DIMALT
 70
     0
  9
$DIMALTD
 70
     3
  9
$DIMALTF
 40
0.0393700787
  9
$DIMLFAC
 40
1.0
  9
$DIMTOFL
 70
     1
  9
$DIMTVP
 40
0.0
  9
$DIMTIX
 70
     0
  9
$DIMSOXD
 70
     0
  9
$DIMSAH
 70
     0
  9
$DIMBLK1
  1

  9
$DIMBLK2
  1

  9
$DIMSTYLE
  2
ISO-25
  9
$DIMCLRD
 70
     0
  9
$DIMCLRE
 70
     0
  9
$DIMCLRT
 70
     0
  9
$DIMTFAC
 40
1.0
  9
$DIMGAP
 40
0.508
  9
$DIMJUST
 70
     0
  9
$DIMSD1
 70
     0
  9
$DIMSD2
 70
     0
  9
$DIMTOLJ
 70
     0
  9
$DIMTZIN
 70
     1
  9
$DIMALTZ
 70
     0
  9
$DIMALTTZ
 70
     0
  9
$DIMUPT
 70
     0
  9
$DIMDEC
 70
     3
  9
$DIMTDEC
 70
     3
  9
$DIMALTU
 70
     2
  9
$DIMALTTD
 70
     3
  9
$DIMTXSTY
  7
Standard
  9
$DIMAUNIT
 70
     0
  9
$DIMADEC
 70
     0
  9
$DIMALTRND
 40
0.0
  9
$DIMAZIN
 70
     0
  9
$DIMDSEP
 70
    44
  9
$DIMATFIT
 70
     3
  9
$DIMFRAC
 70
     0
  9
$DIMLDRBLK
  1

  9
$DIMLUNIT
 70
     2
  9
$DIMLWD
 70
    -2
  9
$DIMLWE
 70
    -2
  9
$DIMTMOVE
 70
     0
  9
$LUNITS
 70
     2
  9
$LUPREC
 70
     2
  9
$SKETCHINC
 40
1.0
  9
$FILLETRAD
 40
10.0
  9
$AUNITS
 70
     0
  9
$AUPREC
 70
     2
  9
$MENU
  1
.
  9
$ELEVATION
 40
0.0
  9
$PELEVATION
 40
0.0
  9
$THICKNESS
 40
0.0
  9
$LIMCHECK
 70
     0
  9
$CHAMFERA
 40
0.0
  9
$CHAMFERB
 40
0.0
  9
$CHAMFERC
 40
0.0
  9
$CHAMFERD
 40
0.0
  9
$SKPOLY
 70
     0
  9
$TDCREATE
 40
2457239.448544965
  9
$TDUCREATE
 40
2457239.656878299
  9
$TDUPDATE
 40
2457239.448546157
  9
$TDUUPDATE
 40
2457239.656879491
  9
$TDINDWG
 40
0.0000000116
  9
$TDUSRTIMER
 40
0.0000000116
  9
$USRTIMER
 70
     1
  9
$ANGBASE
 50
0.0
  9
$ANGDIR
 70
     0
  9
$PDMODE
 70
     0
  9
$PDSIZE
 40
-1.0
  9
$PLINEWID
 40
0.0
  9
$SPLFRAME
 70
     0
  9
$SPLINETYPE
 70
     6
  9
$SPLINESEGS
 70
     8
  9
$HANDSEED
  5
3A0
  9
$SURFTAB1
 70
     6
  9
$SURFTAB2
 70
     6
  9
$SURFTYPE
 70
     6
  9
$SURFU
 70
     6
  9
$SURFV
 70
     6
  9
$UCSBASE
  2

  9
$UCSNAME
  2

  9
$UCSORG
 10
0.0
 20
0.0
 30
0.0
  9
$UCSXDIR
 10
1.0
 20
0.0
 30
0.0
  9
$UCSYDIR
 10
0.0
 20
1.0
 30
0.0
  9
$UCSORTHOREF
  2

  9
$UCSORTHOVIEW
 70
     0
  9
$UCSORGTOP
 10
0.0
 20
0.0
 30
0.0
  9
$UCSORGBOTTOM
 10
0.0
 20
0.0
 30
0.0
  9
$UCSORGLEFT
 10
0.0
 20
0.0
 30
0.0
  9
$UCSORGRIGHT
 10
0.0
 20
0.0
 30
0.0
  9
$UCSORGFRONT
 10
0.0
 20
0.0
 30
0.0
  9
$UCSORGBACK
 10
0.0
 20
0.0
 30
0.0
  9
$PUCSBASE
  2

  9
$PUCSNAME
  2

  9
$PUCSORG
 10
0.0
 20
0.0
 30
0.0
  9
$PUCSXDIR
 10
1.0
 20
0.0
 30
0.0
  9
$PUCSYDIR
 10
0.0
 20
1.0
 30
0.0
  9
$PUCSORTHOREF
  2

  9
$PUCSORTHOVIEW
 70
     0
  9
$PUCSORGTOP
 10
0.0
 20
0.0
 30
0.0
  9
$PUCSORGBOTTOM
 10
0.0
 20
0.0
 30
0.0
  9
$PUCSORGLEFT
 10
0.0
 20
0.0
 30
0.0
  9
$PUCSORGRIGHT
 10
0.0
 20
0.0
 30
0.0
  9
$PUCSORGFRONT
 10
0.0
 20
0.0
 30
0.0
  9
$PUCSORGBACK
 10
0.0
 20
0.0
 30
0.0
  9
$USERI1
 70
     0
  9
$USERI2
 70
     0
  9
$USERI3
 70
     0
  9
$USERI4
 70
     0
  9
$USERI5
 70
     0
  9
$USERR1
 40
0.0
  9
$USERR2
 40
0.0
  9
$USERR3
 40
0.0
  9
$USERR4
 40
0.0
  9
$USERR5
 40
0.0
  9
$WORLDVIEW
 70
     1
  9
$SHADEDGE
 70
     3
  9
$SHADEDIF
 70
    70
  9
$TILEMODE
 70
     1
  9
$MAXACTVP
 70
    64
  9
$PINSBASE
 10
0.0
 20
0.0
 30
0.0
  9
$PLIMCHECK
 70
     0
  9
$PEXTMIN
 10
1.0000000000E+20
 20
1.0000000000E+20
 30
1.0000000000E+20
  9
$PEXTMAX
 10
-1.0000000000E+20
 20
-1.0000000000E+20
 30
-1.0000000000E+20
  9
$PLIMMIN
 10
0.0
 20
0.0
  9
$PLIMMAX
 10
420.0
 20
297.0
  9
$UNITMODE
 70
     0
  9
$VISRETAIN
 70
     1
  9
$PLINEGEN
 70
     0
  9
$PSLTSCALE
 70
     1
  9
$TREEDEPTH
 70
  3020
  9
$CMLSTYLE
  2
Standard
  9
$CMLJUST
 70
     0
  9
$CMLSCALE
 40
20.0
  9
$PROXYGRAPHICS
 70
     1
  9
$MEASUREMENT
 70
     1
  9
$CELWEIGHT
370
    -1
  9
$ENDCAPS
280
     0
  9
$JOINSTYLE
280
     0
  9
$LWDISPLAY
290
     1
  9
$INSUNITS
 70
     4
  9
$HYPERLINKBASE
  1

  9
$STYLESHEET
  1

  9
$XEDIT
290
     1
  9
$CEPSNTYPE
380
     0
  9
$PSTYLEMODE
290
     1
  9
$FINGERPRINTGUID
  2
{DC86377A-FAC2-46E5-86BD-F2A20F1286DB}
  9
$VERSIONGUID
  2
{FAEB1C32-E019-11D5-929B-00C0DF256EC4}
  9
$EXTNAMES
290
     1
  9
$PSVPSCALE
 40
0.0
  9
$OLESTARTUP
290
     0
  0
ENDSEC
  0
SECTION
  2
CLASSES
  0
CLASS
  1
ACDBDICTIONARYWDFLT
  2
AcDbDictionaryWithDefault
  3
ObjectDBX Classes
 90
        0
280
     0
281
     0
  0
CLASS
  1
VISUALSTYLE
  2
AcDbVisualStyle
  3
ObjectDBX Classes
 90
     4095
280
     0
281
     0
  0
CLASS
  1
MATERIAL
  2
AcDbMaterial
  3
ObjectDBX Classes
 90
     1153
280
     0
281
     0
  0
CLASS
  1
SCALE
  2
AcDbScale
  3
ObjectDBX Classes
 90
     1153
280
     0
281
     0
  0
CLASS
  1
SUN
  2
AcDbSun
  3
SCENEOE
 90
     1153
280
     0
281
     0
  0
CLASS
  1
ACDBPLACEHOLDER
  2
AcDbPlaceHolder
  3
ObjectDBX Classes
 90
        0
280
     0
281
     0
  0
CLASS
  1
LAYOUT
  2
AcDbLayout
  3
ObjectDBX Classes
 90
        0
280
     0
281
     0
  0
ENDSEC
  0
SECTION
  2
TABLES
  0
TABLE
  2
VPORT
  5
8
330
0
100
AcDbSymbolTable
 70
     1
  0
VPORT
  5
29
330
8
100
AcDbSymbolTableRecord
100
AcDbViewportTableRecord
  2
*Active
 70
     0
 10
0.0
 20
0.0
 11
1.0
 21
1.0
 12
46.5666666667
 22
35.9833333333
 13
0.0
 23
0.0
 14
10.0
 24
10.0
 15
10.0
 25
10.0
 16
0.0
 26
0.0
 36
1.0
 17
0.0
 27
0.0
 37
0.0
 40
71.9666666667
 41
1.2941176471
 42
50.0
 43
0.0
 44
0.0
 50
0.0
 51
0.0
 71
     0
 72
  2000
 73
     1
 74
     3
 75
     0
 76
     0
 77
     0
 78
     0
281
     0
 65
     1
110
0.0
120
0.0
130
0.0
111
1.0
121
0.0
131
0.0
112
0.0
122
1.0
132
0.0
 79
     0
146
0.0
  0
ENDTAB
  0
TABLE
  2
LTYPE
  5
5
330
0
100
AcDbSymbolTable
 70
     6
  0
LTYPE
  5
14
330
5
100
AcDbSymbolTableRecord
100
AcDbLinetypeTableRecord
  2
ByBlock
 70
     0
  3

 72
    65
 73
     0
 40
0.0
  0
LTYPE
  5
15
330
5
100
AcDbSymbolTableRecord
100
AcDbLinetypeTableRecord
  2
ByLayer
 70
     0
  3

 72
    65
 73
     0
 40
0.0
  0
LTYPE
  5
16
330
5
100
AcDbSymbolTableRecord
100
AcDbLinetypeTableRecord
  2
Continuous
 70
     0
  3
Solid line
 72
    65
 73
     0
 40
0.0
  0
LTYPE
  5
6A
330
5
100
AcDbSymbolTableRecord
100
AcDbLinetypeTableRecord
  2
HIDDEN
 70
     0
  3
Hidden __ __ __ __ __ __ __ __ __ __ __ __ __ __
 72
    65
 73
     2
 40
1.905
 49
1.27
 74
     0
 49
-0.635
 74
     0
  0
LTYPE
  5
6B
330
5
100
AcDbSymbolTableRecord
100
AcDbLinetypeTableRecord
  2
PHANTOM
 70
     0
  3
Phantom ______  __  __  ______  __  __  ______
 72
    65
 73
     6
 40
12.7
 49
6.35
 74
     0
 49
-1.27
 74
     0
 49
1.27
 74
     0
 49
-1.27
 74
     0
 49
1.27
 74
     0
 49
-1.27
 74
     0
  0
LTYPE
  5
6C
330
5
100
AcDbSymbolTableRecord
100
AcDbLinetypeTableRecord
  2
CENTER
 70
     0
  3
Center ____ _ ____ _ ____ _ ____ _ ____ _ ____
 72
    65
 73
     4
 40
10.16
 49
6.35
 74
     0
 49
-1.27
 74
     0
 49
1.27
 74
     0
 49
-1.27
 74
     0
  0
LTYPE
  5
6D
330
5
100
AcDbSymbolTableRecord
100
AcDbLinetypeTableRecord
  2
CENTERX2
 70
     0
  3
Center (2x) ________  __  ________  __  _____
 72
    65
 73
     4
 40
20.32
 49
12.7
 74
     0
 49
-2.54
 74
     0
 49
2.54
 74
     0
 49
-2.54
 74
     0
  0
LTYPE
  5
6E
330
5
100
AcDbSymbolTableRecord
100
AcDbLinetypeTableRecord
  2
DOT2
 70
     0
  3
Dot (.5x) ........................................
 72
    65
 73
     2
 40
0.635
 49
0.0
 74
     0
 49
-0.635
 74
     0
  0
ENDTAB
  0
TABLE
  2
LAYER
  5
2
330
0
100
AcDbSymbolTable
 70
     6
  0
LAYER
  5
10
330
2
100
AcDbSymbolTableRecord
100
AcDbLayerTableRecord
  2
0
 70
     0
 62
     7
  6
Continuous
370
    -3
390
F
  0
LAYER
  5
6F
330
2
100
AcDbSymbolTableRecord
100
AcDbLayerTableRecord
  2
FORMAT
 70
     0
 62
     7
  6
Continuous
370
    -3
390
F
  0
LAYER
  5
70
330
2
100
AcDbSymbolTableRecord
100
AcDbLayerTableRecord
  2
NONE
 70
     0
 62
   179
  6
Continuous
370
    -3
390
F
  0
LAYER
  5
71
330
2
100
AcDbSymbolTableRecord
100
AcDbLayerTableRecord
  2
DIMENSION
 70
     0
 62
   179
  6
Continuous
370
    -3
390
F
  0
LAYER
  5
72
330
2
100
AcDbSymbolTableRecord
100
AcDbLayerTableRecord
  2
PAGE_FRAME
 70
     0
 62
   179
  6
Continuous
370
    -3
390
F
  0
LAYER
  5
73
330
2
100
AcDbSymbolTableRecord
100
AcDbLayerTableRecord
  2
LAYOUT
 70
     0
 62
   179
  6
Continuous
370
    -3
390
F
  0
ENDTAB
  0
TABLE
  2
STYLE
  5
3
330
0
100
AcDbSymbolTable
 70
     1
  0
STYLE
  5
11
330
3
100
AcDbSymbolTableRecord
100
AcDbTextStyleTableRecord
  2
Standard
 70
     0
 40
0.0
 41
1.0
 50
0.0
 71
     0
 42
1.1759259259
  3
txt
  4

  0
ENDTAB
  0
TABLE
  2
VIEW
  5
6
330
0
100
AcDbSymbolTable
 70
     0
  0
ENDTAB
  0
TABLE
  2
UCS
  5
7
330
0
100
AcDbSymbolTable
 70
     0
  0
ENDTAB
  0
TABLE
  2
APPID
  5
9
330
0
100
AcDbSymbolTable
 70
     1
  0
APPID
  5
12
330
9
100
AcDbSymbolTableRecord
100
AcDbRegAppTableRecord
  2
ACAD
 70
     0
  0
ENDTAB
  0
TABLE
  2
DIMSTYLE
  5
A
330
0
100
AcDbSymbolTable
 70
     1
100
AcDbDimStyleTable
  0
DIMSTYLE
105
27
330
A
100
AcDbSymbolTableRecord
100
AcDbDimStyleTableRecord
  2
ISO-25
 70
     0
 41
2.5
 42
0.625
 43
3.75
 44
1.25
 73
     0
 74
     0
 77
     1
 78
     8
140
2.5
141
2.5
143
0.0393700787
147
0.625
171
     3
172
     1
178
     0
271
     2
272
     2
274
     3
278
    44
283
     0
284
     8
340
11
  0
ENDTAB
  0
TABLE
  2
BLOCK_RECORD
  5
1
330
0
100
AcDbSymbolTable
 70
     1
  0
BLOCK_RECORD
  5
1F
330
1
100
AcDbSymbolTableRecord
100
AcDbBlockTableRecord
  2
*Model_Space
340
22
  0
BLOCK_RECORD
  5
1B
330
1
100
AcDbSymbolTableRecord
100
AcDbBlockTableRecord
  2
*Paper_Space
340
1E
  0
BLOCK_RECORD
  5
23
330
1
100
AcDbSymbolTableRecord
100
AcDbBlockTableRecord
  2
*Paper_Space0
340
26
  0
ENDTAB
  0
ENDSEC
  0
SECTION
  2
BLOCKS
  0
BLOCK
  5
20
330
1F
100
AcDbEntity
  8
0
100
AcDbBlockBegin
  2
*Model_Space
 70
     0
 10
0.0
 20
0.0
 30
0.0
  3
*Model_Space
  1
*Model_Space
  0
ENDBLK
  5
21
330
1F
100
AcDbEntity
  8
0
100
AcDbBlockEnd
  0
BLOCK
  5
1C
330
1B
100
AcDbEntity
 67
     1
  8
0
100
AcDbBlockBegin
  2
*Paper_Space
 70
     0
 10
0.0
 20
0.0
 30
0.0
  3
*Paper_Space
  1
*Paper_Space
  0
ENDBLK
  5
1D
330
1B
100
AcDbEntity
 67
     1
  8
0
100
AcDbBlockEnd
  0
BLOCK
  5
24
330
23
100
AcDbEntity
  8
0
100
AcDbBlockBegin
  2
*Paper_Space0
 70
     0
 10
0.0
 20
0.0
 30
0.0
  3
*Paper_Space0
  1
*Paper_Space0
  0
ENDBLK
  5
25
330
23
100
AcDbEntity
  8
0
100
AcDbBlockEnd
  0
ENDSEC
  0
SECTION
  2
ENTITIES
  0
LINE
  5
74
330
1F
100
AcDbEntity
  8
0
  6
Continuous
 62
     7
370
    15
100
AcDbLine
 10
41.0964665011
 20
32.064554583
 30
0.0
 11
47.7591910407
 21
32.064554583
 31
0.0
  0
ARC
  5
75
330
1F
100
AcDbEntity
  8
0
  6
Continuous
 62
     7
370
    15
100
AcDbCircle
 10
41.0964664601
 20
29.0645541553
 30
0.0
 40
2.999999999999999
100
AcDbArc
 50
90.0
 51
114.6493796064
  0
ARC
  5
76
330
1F
100
AcDbEntity
  8
0
  6
Continuous
 62
     7
370
    15
100
AcDbCircle
 10
39.1466910884
 20
33.3135541553
 30
0.0
 40
1.675000000000005
100
AcDbArc
 50
270.0
 51
294.6493796064
  0
LINE
  5
77
330
1F
100
AcDbEntity
  8
0
  6
Continuous
 62
     7
370
    15
100
AcDbLine
 10
38.7716910868
 20
31.6385545988
 30
0.0
 11
39.14669109
 21
31.6385545988
 31
0.0
  0
ARC
  5
78
330
1F
100
AcDbEntity
  8
0
  6
Continuous
 62
     7
370
    15
100
AcDbCircle
 10
38.7716910884
 20
33.3135541553
 30
0.0
 40
1.675000000000004
100
AcDbArc
 50
245.3506203936
 51
270.0
  0
ARC
  5
79
330
1F
100
AcDbEntity
  8
0
  6
Continuous
 62
     7
370
    15
100
AcDbCircle
 10
36.8219157167
 20
29.0645541553
 30
0.0
 40
2.999999999999999
100
AcDbArc
 50
65.3506203936
 51
90.0
  0
LINE
  5
7A
330
1F
100
AcDbEntity
  8
0
  6
Continuous
 62
     7
370
    15
100
AcDbLine
 10
30.1591911361
 20
32.064554583
 30
0.0
 11
36.8219156757
 21
32.064554583
 31
0.0
  0
LINE
  5
7B
330
1F
100
AcDbEntity
  8
0
  6
Continuous
 62
     7
370
    15
100
AcDbLine
 10
30.1591911361
 20
38.7294594652
 30
0.0
 11
30.1591911361
 21
32.064554583
 31
0.0
  0
ARC
  5
7C
330
1F
100
AcDbEntity
  8
0
  6
Continuous
 62
     7
370
    15
100
AcDbCircle
 10
27.1591910884
 20
38.7294594849
 30
0.0
 40
2.999999999999999
100
AcDbArc
 50
0.0
 51
24.6199773287
  0
ARC
  5
7D
330
1F
100
AcDbEntity
  8
0
  6
Continuous
 62
     7
370
    15
100
AcDbCircle
 10
31.4091910884
 20
40.6770541553
 30
0.0
 40
1.675000000000006
100
AcDbArc
 50
155.3800226713
 51
204.6199773287
  0
ARC
  5
7E
330
1F
100
AcDbEntity
  8
0
  6
Continuous
 62
     7
370
    15
100
AcDbCircle
 10
27.1591910884
 20
42.6246488257
 30
0.0
 40
2.999999999999999
100
AcDbArc
 50
335.3800226713
 51
0.0
  0
LINE
  5
7F
330
1F
100
AcDbEntity
  8
0
  6
Continuous
 62
     7
370
    15
100
AcDbLine
 10
30.1591911361
 20
49.2895537276
 30
0.0
 11
30.1591911361
 21
42.6246488454
 31
0.0
  0
LINE
  5
80
330
1F
100
AcDbEntity
  8
0
  6
Continuous
 62
     7
370
    15
100
AcDbLine
 10
36.8219156757
 20
49.2895537276
 30
0.0
 11
30.1591911361
 21
49.2895537276
 31
0.0
  0
ARC
  5
81
330
1F
100
AcDbEntity
  8
0
  6
Continuous
 62
     7
370
    15
100
AcDbCircle
 10
36.8219157167
 20
52.2895541553
 30
0.0
 40
2.999999999999997
100
AcDbArc
 50
270.0
 51
294.6493796064
  0
ARC
  5
82
330
1F
100
AcDbEntity
  8
0
  6
Continuous
 62
     7
370
    15
100
AcDbCircle
 10
38.7716910884
 20
48.0405541553
 30
0.0
 40
1.675000000000014
100
AcDbArc
 50
90.0
 51
114.6493796064
  0
LINE
  5
83
330
1F
100
AcDbEntity
  8
0
  6
Continuous
 62
     7
370
    15
100
AcDbLine
 10
39.14669109
 20
49.7155537118
 30
0.0
 11
38.7716910868
 21
49.7155537118
 31
0.0
  0
ARC
  5
84
330
1F
100
AcDbEntity
  8
0
  6
Continuous
 62
     7
370
    15
100
AcDbCircle
 10
39.1466910884
 20
48.0405541553
 30
0.0
 40
1.67500000000002
100
AcDbArc
 50
65.3506203936
 51
90.0
  0
ARC
  5
85
330
1F
100
AcDbEntity
  8
0
  6
Continuous
 62
     7
370
    15
100
AcDbCircle
 10
41.0964664601
 20
52.2895541553
 30
0.0
 40
2.999999999999994
100
AcDbArc
 50
245.3506203936
 51
270.0
  0
LINE
  5
86
330
1F
100
AcDbEntity
  8
0
  6
Continuous
 62
     7
370
    15
100
AcDbLine
 10
47.7591910407
 20
49.2895537276
 30
0.0
 11
41.0964665011
 21
49.2895537276
 31
0.0
  0
LINE
  5
87
330
1F
100
AcDbEntity
  8
0
  6
Continuous
 62
     7
370
    15
100
AcDbLine
 10
47.7591910407
 20
42.6246488454
 30
0.0
 11
47.7591910407
 21
49.2895537276
 31
0.0
  0
ARC
  5
88
330
1F
100
AcDbEntity
  8
0
  6
Continuous
 62
     7
370
    15
100
AcDbCircle
 10
50.7591910884
 20
42.6246488257
 30
0.0
 40
2.999999999999994
100
AcDbArc
 50
180.0
 51
204.6199773287
  0
ARC
  5
89
330
1F
100
AcDbEntity
  8
0
  6
Continuous
 62
     7
370
    15
100
AcDbCircle
 10
46.5091910884
 20
40.6770541553
 30
0.0
 40
1.675000000000007
100
AcDbArc
 50
335.3800226713
 51
24.6199773287
  0
ARC
  5
8A
330
1F
100
AcDbEntity
  8
0
  6
Continuous
 62
     7
370
    15
100
AcDbCircle
 10
50.7591910884
 20
38.7294594849
 30
0.0
 40
2.999999999999997
100
AcDbArc
 50
155.3800226713
 51
180.0
  0
LINE
  5
8B
330
1F
100
AcDbEntity
  8
0
  6
Continuous
 62
     7
370
    15
100
AcDbLine
 10
47.7591910407
 20
32.064554583
 30
0.0
 11
47.7591910407
 21
38.7294594652
 31
0.0
  0
CIRCLE
  5
8C
330
1F
100
AcDbEntity
  8
0
  6
Continuous
 62
     7
370
    15
100
AcDbCircle
 10
31.4091910884
 20
33.3145541553
 30
0.0
 40
0.8499999999999801
  0
CIRCLE
  5
8D
330
1F
100
AcDbEntity
  8
0
  6
Continuous
 62
     7
370
    15
100
AcDbCircle
 10
46.1341910884
 20
33.3145541553
 30
0.0
 40
0.8499999999999801
  0
CIRCLE
  5
8E
330
1F
100
AcDbEntity
  8
0
  6
Continuous
 62
     7
370
    15
100
AcDbCircle
 10
46.1341910884
 20
48.0405541553
 30
0.0
 40
0.8499999999999801
  0
CIRCLE
  5
8F
330
1F
100
AcDbEntity
  8
0
  6
Continuous
 62
     7
370
    15
100
AcDbCircle
 10
46.1341910884
 20
45.5005541553
 30
0.0
 40
0.4249999999999901
  0
CIRCLE
  5
90
330
1F
100
AcDbEntity
  8
0
  6
Continuous
 62
     7
370
    15
100
AcDbCircle
 10
33.9466910884
 20
45.8770541553
 30
0.0
 40
0.3250000000000028
  0
CIRCLE
  5
91
330
1F
100
AcDbEntity
  8
0
  6
Continuous
 62
     7
370
    15
100
AcDbCircle
 10
33.9466910884
 20
45.0770541553
 30
0.0
 40
0.3249999999999886
  0
CIRCLE
  5
92
330
1F
100
AcDbEntity
  8
0
  6
Continuous
 62
     7
370
    15
100
AcDbCircle
 10
33.9466910884
 20
44.2770541553
 30
0.0
 40
0.3249999999999957
  0
CIRCLE
  5
93
330
1F
100
AcDbEntity
  8
0
  6
Continuous
 62
     7
370
    15
100
AcDbCircle
 10
33.9466910884
 20
43.4770541553
 30
0.0
 40
0.3249999999999886
  0
CIRCLE
  5
94
330
1F
100
AcDbEntity
  8
0
  6
Continuous
 62
     7
370
    15
100
AcDbCircle
 10
33.9466910884
 20
42.6770541553
 30
0.0
 40
0.3250000000000028
  0
CIRCLE
  5
95
330
1F
100
AcDbEntity
  8
0
  6
Continuous
 62
     7
370
    15
100
AcDbCircle
 10
33.9466910884
 20
41.8770541553
 30
0.0
 40
0.3249999999999957
  0
CIRCLE
  5
96
330
1F
100
AcDbEntity
  8
0
  6
Continuous
 62
     7
370
    15
100
AcDbCircle
 10
33.9466910884
 20
41.0770541553
 30
0.0
 40
0.3250000000000028
  0
CIRCLE
  5
97
330
1F
100
AcDbEntity
  8
0
  6
Continuous
 62
     7
370
    15
100
AcDbCircle
 10
33.9466910884
 20
40.2770541553
 30
0.0
 40
0.3250000000000028
  0
CIRCLE
  5
98
330
1F
100
AcDbEntity
  8
0
  6
Continuous
 62
     7
370
    15
100
AcDbCircle
 10
33.9466910884
 20
39.4770541553
 30
0.0
 40
0.3249999999999957
  0
CIRCLE
  5
99
330
1F
100
AcDbEntity
  8
0
  6
Continuous
 62
     7
370
    15
100
AcDbCircle
 10
33.9466910884
 20
38.6770541553
 30
0.0
 40
0.3249999999999957
  0
CIRCLE
  5
9A
330
1F
100
AcDbEntity
  8
0
  6
Continuous
 62
     7
370
    15
100
AcDbCircle
 10
33.9466910884
 20
37.8770541553
 30
0.0
 40
0.3250000000000028
  0
CIRCLE
  5
9B
330
1F
100
AcDbEntity
  8
0
  6
Continuous
 62
     7
370
    15
100
AcDbCircle
 10
33.9466910884
 20
37.0770541553
 30
0.0
 40
0.3250000000000028
  0
CIRCLE
  5
9C
330
1F
100
AcDbEntity
  8
0
  6
Continuous
 62
     7
370
    15
100
AcDbCircle
 10
33.9466910884
 20
36.2770541553
 30
0.0
 40
0.3249999999999957
  0
CIRCLE
  5
9D
330
1F
100
AcDbEntity
  8
0
  6
Continuous
 62
     7
370
    15
100
AcDbCircle
 10
33.9466910884
 20
35.4770541553
 30
0.0
 40
0.3250000000000028
  0
CIRCLE
  5
9E
330
1F
100
AcDbEntity
  8
0
  6
Continuous
 62
     7
370
    15
100
AcDbCircle
 10
34.7466910884
 20
45.8770541553
 30
0.0
 40
0.3250000000000028
  0
CIRCLE
  5
9F
330
1F
100
AcDbEntity
  8
0
  6
Continuous
 62
     7
370
    15
100
AcDbCircle
 10
34.7466910884
 20
45.0770541553
 30
0.0
 40
0.3249999999999886
  0
CIRCLE
  5
A0
330
1F
100
AcDbEntity
  8
0
  6
Continuous
 62
     7
370
    15
100
AcDbCircle
 10
34.7466910884
 20
44.2770541553
 30
0.0
 40
0.3249999999999957
  0
CIRCLE
  5
A1
330
1F
100
AcDbEntity
  8
0
  6
Continuous
 62
     7
370
    15
100
AcDbCircle
 10
34.7466910884
 20
43.4770541553
 30
0.0
 40
0.3249999999999886
  0
CIRCLE
  5
A2
330
1F
100
AcDbEntity
  8
0
  6
Continuous
 62
     7
370
    15
100
AcDbCircle
 10
34.7466910884
 20
42.6770541553
 30
0.0
 40
0.3250000000000028
  0
CIRCLE
  5
A3
330
1F
100
AcDbEntity
  8
0
  6
Continuous
 62
     7
370
    15
100
AcDbCircle
 10
34.7466910884
 20
41.8770541553
 30
0.0
 40
0.3249999999999957
  0
CIRCLE
  5
A4
330
1F
100
AcDbEntity
  8
0
  6
Continuous
 62
     7
370
    15
100
AcDbCircle
 10
34.7466910884
 20
41.0770541553
 30
0.0
 40
0.3250000000000028
  0
CIRCLE
  5
A5
330
1F
100
AcDbEntity
  8
0
  6
Continuous
 62
     7
370
    15
100
AcDbCircle
 10
34.7466910884
 20
40.2770541553
 30
0.0
 40
0.3250000000000028
  0
CIRCLE
  5
A6
330
1F
100
AcDbEntity
  8
0
  6
Continuous
 62
     7
370
    15
100
AcDbCircle
 10
34.7466910884
 20
39.4770541553
 30
0.0
 40
0.3249999999999957
  0
CIRCLE
  5
A7
330
1F
100
AcDbEntity
  8
0
  6
Continuous
 62
     7
370
    15
100
AcDbCircle
 10
34.7466910884
 20
38.6770541553
 30
0.0
 40
0.3249999999999957
  0
CIRCLE
  5
A8
330
1F
100
AcDbEntity
  8
0
  6
Continuous
 62
     7
370
    15
100
AcDbCircle
 10
34.7466910884
 20
37.8770541553
 30
0.0
 40
0.3250000000000028
  0
CIRCLE
  5
A9
330
1F
100
AcDbEntity
  8
0
  6
Continuous
 62
     7
370
    15
100
AcDbCircle
 10
34.7466910884
 20
37.0770541553
 30
0.0
 40
0.3250000000000028
  0
CIRCLE
  5
AA
330
1F
100
AcDbEntity
  8
0
  6
Continuous
 62
     7
370
    15
100
AcDbCircle
 10
34.7466910884
 20
36.2770541553
 30
0.0
 40
0.3249999999999957
  0
CIRCLE
  5
AB
330
1F
100
AcDbEntity
  8
0
  6
Continuous
 62
     7
370
    15
100
AcDbCircle
 10
34.7466910884
 20
35.4770541553
 30
0.0
 40
0.3250000000000028
  0
CIRCLE
  5
AC
330
1F
100
AcDbEntity
  8
0
  6
Continuous
 62
     7
370
    15
100
AcDbCircle
 10
35.5466910884
 20
45.8770541553
 30
0.0
 40
0.3250000000000028
  0
CIRCLE
  5
AD
330
1F
100
AcDbEntity
  8
0
  6
Continuous
 62
     7
370
    15
100
AcDbCircle
 10
35.5466910884
 20
45.0770541553
 30
0.0
 40
0.3249999999999886
  0
CIRCLE
  5
AE
330
1F
100
AcDbEntity
  8
0
  6
Continuous
 62
     7
370
    15
100
AcDbCircle
 10
35.5466910884
 20
44.2770541553
 30
0.0
 40
0.3249999999999957
  0
CIRCLE
  5
AF
330
1F
100
AcDbEntity
  8
0
  6
Continuous
 62
     7
370
    15
100
AcDbCircle
 10
35.5466910884
 20
43.4770541553
 30
0.0
 40
0.3249999999999957
  0
CIRCLE
  5
B0
330
1F
100
AcDbEntity
  8
0
  6
Continuous
 62
     7
370
    15
100
AcDbCircle
 10
35.5466910884
 20
42.6770541553
 30
0.0
 40
0.3250000000000028
  0
CIRCLE
  5
B1
330
1F
100
AcDbEntity
  8
0
  6
Continuous
 62
     7
370
    15
100
AcDbCircle
 10
35.5466910884
 20
41.8770541553
 30
0.0
 40
0.3249999999999957
  0
CIRCLE
  5
B2
330
1F
100
AcDbEntity
  8
0
  6
Continuous
 62
     7
370
    15
100
AcDbCircle
 10
35.5466910884
 20
41.0770541553
 30
0.0
 40
0.3250000000000028
  0
CIRCLE
  5
B3
330
1F
100
AcDbEntity
  8
0
  6
Continuous
 62
     7
370
    15
100
AcDbCircle
 10
35.5466910884
 20
40.2770541553
 30
0.0
 40
0.3250000000000028
  0
CIRCLE
  5
B4
330
1F
100
AcDbEntity
  8
0
  6
Continuous
 62
     7
370
    15
100
AcDbCircle
 10
35.5466910884
 20
39.4770541553
 30
0.0
 40
0.3249999999999957
  0
CIRCLE
  5
B5
330
1F
100
AcDbEntity
  8
0
  6
Continuous
 62
     7
370
    15
100
AcDbCircle
 10
35.5466910884
 20
38.6770541553
 30
0.0
 40
0.3249999999999957
  0
CIRCLE
  5
B6
330
1F
100
AcDbEntity
  8
0
  6
Continuous
 62
     7
370
    15
100
AcDbCircle
 10
35.5466910884
 20
37.8770541553
 30
0.0
 40
0.3250000000000028
  0
CIRCLE
  5
B7
330
1F
100
AcDbEntity
  8
0
  6
Continuous
 62
     7
370
    15
100
AcDbCircle
 10
35.5466910884
 20
37.0770541553
 30
0.0
 40
0.3250000000000028
  0
CIRCLE
  5
B8
330
1F
100
AcDbEntity
  8
0
  6
Continuous
 62
     7
370
    15
100
AcDbCircle
 10
35.5466910884
 20
36.2770541553
 30
0.0
 40
0.3249999999999957
  0
CIRCLE
  5
B9
330
1F
100
AcDbEntity
  8
0
  6
Continuous
 62
     7
370
    15
100
AcDbCircle
 10
35.5466910884
 20
35.4770541553
 30
0.0
 40
0.3250000000000028
  0
CIRCLE
  5
BA
330
1F
100
AcDbEntity
  8
0
  6
Continuous
 62
     7
370
    15
100
AcDbCircle
 10
36.3466910884
 20
45.8770541553
 30
0.0
 40
0.3250000000000028
  0
CIRCLE
  5
BB
330
1F
100
AcDbEntity
  8
0
  6
Continuous
 62
     7
370
    15
100
AcDbCircle
 10
36.3466910884
 20
45.0770541553
 30
0.0
 40
0.3249999999999886
  0
CIRCLE
  5
BC
330
1F
100
AcDbEntity
  8
0
  6
Continuous
 62
     7
370
    15
100
AcDbCircle
 10
36.3466910884
 20
44.2770541553
 30
0.0
 40
0.3249999999999957
  0
CIRCLE
  5
BD
330
1F
100
AcDbEntity
  8
0
  6
Continuous
 62
     7
370
    15
100
AcDbCircle
 10
36.3466910884
 20
43.4770541553
 30
0.0
 40
0.3249999999999957
  0
CIRCLE
  5
BE
330
1F
100
AcDbEntity
  8
0
  6
Continuous
 62
     7
370
    15
100
AcDbCircle
 10
36.3466910884
 20
42.6770541553
 30
0.0
 40
0.3250000000000028
  0
CIRCLE
  5
BF
330
1F
100
AcDbEntity
  8
0
  6
Continuous
 62
     7
370
    15
100
AcDbCircle
 10
36.3466910884
 20
41.8770541553
 30
0.0
 40
0.3249999999999957
  0
CIRCLE
  5
C0
330
1F
100
AcDbEntity
  8
0
  6
Continuous
 62
     7
370
    15
100
AcDbCircle
 10
36.3466910884
 20
41.0770541553
 30
0.0
 40
0.3250000000000028
  0
CIRCLE
  5
C1
330
1F
100
AcDbEntity
  8
0
  6
Continuous
 62
     7
370
    15
100
AcDbCircle
 10
36.3466910884
 20
40.2770541553
 30
0.0
 40
0.3250000000000028
  0
CIRCLE
  5
C2
330
1F
100
AcDbEntity
  8
0
  6
Continuous
 62
     7
370
    15
100
AcDbCircle
 10
36.3466910884
 20
39.4770541553
 30
0.0
 40
0.3249999999999957
  0
CIRCLE
  5
C3
330
1F
100
AcDbEntity
  8
0
  6
Continuous
 62
     7
370
    15
100
AcDbCircle
 10
36.3466910884
 20
38.6770541553
 30
0.0
 40
0.3249999999999957
  0
CIRCLE
  5
C4
330
1F
100
AcDbEntity
  8
0
  6
Continuous
 62
     7
370
    15
100
AcDbCircle
 10
36.3466910884
 20
37.8770541553
 30
0.0
 40
0.3250000000000028
  0
CIRCLE
  5
C5
330
1F
100
AcDbEntity
  8
0
  6
Continuous
 62
     7
370
    15
100
AcDbCircle
 10
36.3466910884
 20
37.0770541553
 30
0.0
 40
0.3250000000000028
  0
CIRCLE
  5
C6
330
1F
100
AcDbEntity
  8
0
  6
Continuous
 62
     7
370
    15
100
AcDbCircle
 10
36.3466910884
 20
36.2770541553
 30
0.0
 40
0.3249999999999957
  0
CIRCLE
  5
C7
330
1F
100
AcDbEntity
  8
0
  6
Continuous
 62
     7
370
    15
100
AcDbCircle
 10
36.3466910884
 20
35.4770541553
 30
0.0
 40
0.3250000000000028
  0
CIRCLE
  5
C8
330
1F
100
AcDbEntity
  8
0
  6
Continuous
 62
     7
370
    15
100
AcDbCircle
 10
37.1466910884
 20
45.8770541553
 30
0.0
 40
0.3250000000000028
  0
CIRCLE
  5
C9
330
1F
100
AcDbEntity
  8
0
  6
Continuous
 62
     7
370
    15
100
AcDbCircle
 10
37.1466910884
 20
45.0770541553
 30
0.0
 40
0.3249999999999886
  0
CIRCLE
  5
CA
330
1F
100
AcDbEntity
  8
0
  6
Continuous
 62
     7
370
    15
100
AcDbCircle
 10
37.1466910884
 20
44.2770541553
 30
0.0
 40
0.3249999999999957
  0
CIRCLE
  5
CB
330
1F
100
AcDbEntity
  8
0
  6
Continuous
 62
     7
370
    15
100
AcDbCircle
 10
37.1466910884
 20
43.4770541553
 30
0.0
 40
0.3249999999999886
  0
CIRCLE
  5
CC
330
1F
100
AcDbEntity
  8
0
  6
Continuous
 62
     7
370
    15
100
AcDbCircle
 10
37.1466910884
 20
42.6770541553
 30
0.0
 40
0.3250000000000028
  0
CIRCLE
  5
CD
330
1F
100
AcDbEntity
  8
0
  6
Continuous
 62
     7
370
    15
100
AcDbCircle
 10
37.1466910884
 20
41.8770541553
 30
0.0
 40
0.3249999999999957
  0
CIRCLE
  5
CE
330
1F
100
AcDbEntity
  8
0
  6
Continuous
 62
     7
370
    15
100
AcDbCircle
 10
37.1466910884
 20
41.0770541553
 30
0.0
 40
0.3250000000000028
  0
CIRCLE
  5
CF
330
1F
100
AcDbEntity
  8
0
  6
Continuous
 62
     7
370
    15
100
AcDbCircle
 10
37.1466910884
 20
40.2770541553
 30
0.0
 40
0.3250000000000028
  0
CIRCLE
  5
D0
330
1F
100
AcDbEntity
  8
0
  6
Continuous
 62
     7
370
    15
100
AcDbCircle
 10
37.1466910884
 20
39.4770541553
 30
0.0
 40
0.3249999999999957
  0
CIRCLE
  5
D1
330
1F
100
AcDbEntity
  8
0
  6
Continuous
 62
     7
370
    15
100
AcDbCircle
 10
37.1466910884
 20
38.6770541553
 30
0.0
 40
0.3249999999999957
  0
CIRCLE
  5
D2
330
1F
100
AcDbEntity
  8
0
  6
Continuous
 62
     7
370
    15
100
AcDbCircle
 10
37.1466910884
 20
37.8770541553
 30
0.0
 40
0.3250000000000028
  0
CIRCLE
  5
D3
330
1F
100
AcDbEntity
  8
0
  6
Continuous
 62
     7
370
    15
100
AcDbCircle
 10
37.1466910884
 20
37.0770541553
 30
0.0
 40
0.3250000000000028
  0
CIRCLE
  5
D4
330
1F
100
AcDbEntity
  8
0
  6
Continuous
 62
     7
370
    15
100
AcDbCircle
 10
37.1466910884
 20
36.2770541553
 30
0.0
 40
0.3249999999999957
  0
CIRCLE
  5
D5
330
1F
100
AcDbEntity
  8
0
  6
Continuous
 62
     7
370
    15
100
AcDbCircle
 10
37.1466910884
 20
35.4770541553
 30
0.0
 40
0.3250000000000028
  0
CIRCLE
  5
D6
330
1F
100
AcDbEntity
  8
0
  6
Continuous
 62
     7
370
    15
100
AcDbCircle
 10
37.9466910884
 20
45.8770541553
 30
0.0
 40
0.3250000000000028
  0
CIRCLE
  5
D7
330
1F
100
AcDbEntity
  8
0
  6
Continuous
 62
     7
370
    15
100
AcDbCircle
 10
37.9466910884
 20
45.0770541553
 30
0.0
 40
0.3249999999999886
  0
CIRCLE
  5
D8
330
1F
100
AcDbEntity
  8
0
  6
Continuous
 62
     7
370
    15
100
AcDbCircle
 10
37.9466910884
 20
44.2770541553
 30
0.0
 40
0.3249999999999957
  0
CIRCLE
  5
D9
330
1F
100
AcDbEntity
  8
0
  6
Continuous
 62
     7
370
    15
100
AcDbCircle
 10
37.9466910884
 20
43.4770541553
 30
0.0
 40
0.3249999999999886
  0
CIRCLE
  5
DA
330
1F
100
AcDbEntity
  8
0
  6
Continuous
 62
     7
370
    15
100
AcDbCircle
 10
37.9466910884
 20
42.6770541553
 30
0.0
 40
0.3250000000000028
  0
CIRCLE
  5
DB
330
1F
100
AcDbEntity
  8
0
  6
Continuous
 62
     7
370
    15
100
AcDbCircle
 10
37.9466910884
 20
41.8770541553
 30
0.0
 40
0.3249999999999957
  0
CIRCLE
  5
DC
330
1F
100
AcDbEntity
  8
0
  6
Continuous
 62
     7
370
    15
100
AcDbCircle
 10
37.9466910884
 20
41.0770541553
 30
0.0
 40
0.3250000000000028
  0
CIRCLE
  5
DD
330
1F
100
AcDbEntity
  8
0
  6
Continuous
 62
     7
370
    15
100
AcDbCircle
 10
37.9466910884
 20
40.2770541553
 30
0.0
 40
0.3250000000000028
  0
CIRCLE
  5
DE
330
1F
100
AcDbEntity
  8
0
  6
Continuous
 62
     7
370
    15
100
AcDbCircle
 10
37.9466910884
 20
39.4770541553
 30
0.0
 40
0.3249999999999957
  0
CIRCLE
  5
DF
330
1F
100
AcDbEntity
  8
0
  6
Continuous
 62
     7
370
    15
100
AcDbCircle
 10
37.9466910884
 20
38.6770541553
 30
0.0
 40
0.3249999999999957
  0
CIRCLE
  5
E0
330
1F
100
AcDbEntity
  8
0
  6
Continuous
 62
     7
370
    15
100
AcDbCircle
 10
37.9466910884
 20
37.8770541553
 30
0.0
 40
0.3250000000000028
  0
CIRCLE
  5
E1
330
1F
100
AcDbEntity
  8
0
  6
Continuous
 62
     7
370
    15
100
AcDbCircle
 10
37.9466910884
 20
37.0770541553
 30
0.0
 40
0.3250000000000028
  0
CIRCLE
  5
E2
330
1F
100
AcDbEntity
  8
0
  6
Continuous
 62
     7
370
    15
100
AcDbCircle
 10
37.9466910884
 20
36.2770541553
 30
0.0
 40
0.3249999999999957
  0
CIRCLE
  5
E3
330
1F
100
AcDbEntity
  8
0
  6
Continuous
 62
     7
370
    15
100
AcDbCircle
 10
37.9466910884
 20
35.4770541553
 30
0.0
 40
0.3250000000000028
  0
CIRCLE
  5
E4
330
1F
100
AcDbEntity
  8
0
  6
Continuous
 62
     7
370
    15
100
AcDbCircle
 10
38.7466910884
 20
45.8770541553
 30
0.0
 40
0.3250000000000028
  0
CIRCLE
  5
E5
330
1F
100
AcDbEntity
  8
0
  6
Continuous
 62
     7
370
    15
100
AcDbCircle
 10
38.7466910884
 20
45.0770541553
 30
0.0
 40
0.3249999999999886
  0
CIRCLE
  5
E6
330
1F
100
AcDbEntity
  8
0
  6
Continuous
 62
     7
370
    15
100
AcDbCircle
 10
38.7466910884
 20
44.2770541553
 30
0.0
 40
0.3249999999999957
  0
CIRCLE
  5
E7
330
1F
100
AcDbEntity
  8
0
  6
Continuous
 62
     7
370
    15
100
AcDbCircle
 10
38.7466910884
 20
43.4770541553
 30
0.0
 40
0.3249999999999886
  0
CIRCLE
  5
E8
330
1F
100
AcDbEntity
  8
0
  6
Continuous
 62
     7
370
    15
100
AcDbCircle
 10
38.7466910884
 20
42.6770541553
 30
0.0
 40
0.3250000000000028
  0
CIRCLE
  5
E9
330
1F
100
AcDbEntity
  8
0
  6
Continuous
 62
     7
370
    15
100
AcDbCircle
 10
38.7466910884
 20
41.8770541553
 30
0.0
 40
0.3249999999999957
  0
CIRCLE
  5
EA
330
1F
100
AcDbEntity
  8
0
  6
Continuous
 62
     7
370
    15
100
AcDbCircle
 10
38.7466910884
 20
41.0770541553
 30
0.0
 40
0.3250000000000028
  0
CIRCLE
  5
EB
330
1F
100
AcDbEntity
  8
0
  6
Continuous
 62
     7
370
    15
100
AcDbCircle
 10
38.7466910884
 20
40.2770541553
 30
0.0
 40
0.3250000000000028
  0
CIRCLE
  5
EC
330
1F
100
AcDbEntity
  8
0
  6
Continuous
 62
     7
370
    15
100
AcDbCircle
 10
38.7466910884
 20
39.4770541553
 30
0.0
 40
0.3249999999999957
  0
CIRCLE
  5
ED
330
1F
100
AcDbEntity
  8
0
  6
Continuous
 62
     7
370
    15
100
AcDbCircle
 10
38.7466910884
 20
38.6770541553
 30
0.0
 40
0.3249999999999957
  0
CIRCLE
  5
EE
330
1F
100
AcDbEntity
  8
0
  6
Continuous
 62
     7
370
    15
100
AcDbCircle
 10
38.7466910884
 20
37.8770541553
 30
0.0
 40
0.3250000000000028
  0
CIRCLE
  5
EF
330
1F
100
AcDbEntity
  8
0
  6
Continuous
 62
     7
370
    15
100
AcDbCircle
 10
38.7466910884
 20
37.0770541553
 30
0.0
 40
0.3250000000000028
  0
CIRCLE
  5
F0
330
1F
100
AcDbEntity
  8
0
  6
Continuous
 62
     7
370
    15
100
AcDbCircle
 10
38.7466910884
 20
36.2770541553
 30
0.0
 40
0.3249999999999957
  0
CIRCLE
  5
F1
330
1F
100
AcDbEntity
  8
0
  6
Continuous
 62
     7
370
    15
100
AcDbCircle
 10
38.7466910884
 20
35.4770541553
 30
0.0
 40
0.3250000000000028
  0
CIRCLE
  5
F2
330
1F
100
AcDbEntity
  8
0
  6
Continuous
 62
     7
370
    15
100
AcDbCircle
 10
39.5466910884
 20
45.8770541553
 30
0.0
 40
0.3250000000000028
  0
CIRCLE
  5
F3
330
1F
100
AcDbEntity
  8
0
  6
Continuous
 62
     7
370
    15
100
AcDbCircle
 10
39.5466910884
 20
45.0770541553
 30
0.0
 40
0.3249999999999886
  0
CIRCLE
  5
F4
330
1F
100
AcDbEntity
  8
0
  6
Continuous
 62
     7
370
    15
100
AcDbCircle
 10
39.5466910884
 20
44.2770541553
 30
0.0
 40
0.3249999999999957
  0
CIRCLE
  5
F5
330
1F
100
AcDbEntity
  8
0
  6
Continuous
 62
     7
370
    15
100
AcDbCircle
 10
39.5466910884
 20
43.4770541553
 30
0.0
 40
0.3249999999999886
  0
CIRCLE
  5
F6
330
1F
100
AcDbEntity
  8
0
  6
Continuous
 62
     7
370
    15
100
AcDbCircle
 10
39.5466910884
 20
42.6770541553
 30
0.0
 40
0.3250000000000028
  0
CIRCLE
  5
F7
330
1F
100
AcDbEntity
  8
0
  6
Continuous
 62
     7
370
    15
100
AcDbCircle
 10
39.5466910884
 20
41.8770541553
 30
0.0
 40
0.3249999999999957
  0
CIRCLE
  5
F8
330
1F
100
AcDbEntity
  8
0
  6
Continuous
 62
     7
370
    15
100
AcDbCircle
 10
39.5466910884
 20
41.0770541553
 30
0.0
 40
0.3250000000000028
  0
CIRCLE
  5
F9
330
1F
100
AcDbEntity
  8
0
  6
Continuous
 62
     7
370
    15
100
AcDbCircle
 10
39.5466910884
 20
40.2770541553
 30
0.0
 40
0.3250000000000028
  0
CIRCLE
  5
FA
330
1F
100
AcDbEntity
  8
0
  6
Continuous
 62
     7
370
    15
100
AcDbCircle
 10
39.5466910884
 20
39.4770541553
 30
0.0
 40
0.3249999999999957
  0
CIRCLE
  5
FB
330
1F
100
AcDbEntity
  8
0
  6
Continuous
 62
     7
370
    15
100
AcDbCircle
 10
39.5466910884
 20
38.6770541553
 30
0.0
 40
0.3249999999999957
  0
CIRCLE
  5
FC
330
1F
100
AcDbEntity
  8
0
  6
Continuous
 62
     7
370
    15
100
AcDbCircle
 10
39.5466910884
 20
37.8770541553
 30
0.0
 40
0.3250000000000028
  0
CIRCLE
  5
FD
330
1F
100
AcDbEntity
  8
0
  6
Continuous
 62
     7
370
    15
100
AcDbCircle
 10
39.5466910884
 20
37.0770541553
 30
0.0
 40
0.3250000000000028
  0
CIRCLE
  5
FE
330
1F
100
AcDbEntity
  8
0
  6
Continuous
 62
     7
370
    15
100
AcDbCircle
 10
39.5466910884
 20
36.2770541553
 30
0.0
 40
0.3249999999999957
  0
CIRCLE
  5
FF
330
1F
100
AcDbEntity
  8
0
  6
Continuous
 62
     7
370
    15
100
AcDbCircle
 10
39.5466910884
 20
35.4770541553
 30
0.0
 40
0.3250000000000028
  0
CIRCLE
  5
100
330
1F
100
AcDbEntity
  8
0
  6
Continuous
 62
     7
370
    15
100
AcDbCircle
 10
40.3466910884
 20
45.8770541553
 30
0.0
 40
0.3250000000000028
  0
CIRCLE
  5
101
330
1F
100
AcDbEntity
  8
0
  6
Continuous
 62
     7
370
    15
100
AcDbCircle
 10
40.3466910884
 20
45.0770541553
 30
0.0
 40
0.3249999999999886
  0
CIRCLE
  5
102
330
1F
100
AcDbEntity
  8
0
  6
Continuous
 62
     7
370
    15
100
AcDbCircle
 10
40.3466910884
 20
44.2770541553
 30
0.0
 40
0.3249999999999957
  0
CIRCLE
  5
103
330
1F
100
AcDbEntity
  8
0
  6
Continuous
 62
     7
370
    15
100
AcDbCircle
 10
40.3466910884
 20
43.4770541553
 30
0.0
 40
0.3249999999999886
  0
CIRCLE
  5
104
330
1F
100
AcDbEntity
  8
0
  6
Continuous
 62
     7
370
    15
100
AcDbCircle
 10
40.3466910884
 20
42.6770541553
 30
0.0
 40
0.3250000000000028
  0
CIRCLE
  5
105
330
1F
100
AcDbEntity
  8
0
  6
Continuous
 62
     7
370
    15
100
AcDbCircle
 10
40.3466910884
 20
41.8770541553
 30
0.0
 40
0.3249999999999957
  0
CIRCLE
  5
106
330
1F
100
AcDbEntity
  8
0
  6
Continuous
 62
     7
370
    15
100
AcDbCircle
 10
40.3466910884
 20
41.0770541553
 30
0.0
 40
0.3250000000000028
  0
CIRCLE
  5
107
330
1F
100
AcDbEntity
  8
0
  6
Continuous
 62
     7
370
    15
100
AcDbCircle
 10
40.3466910884
 20
40.2770541553
 30
0.0
 40
0.3250000000000028
  0
CIRCLE
  5
108
330
1F
100
AcDbEntity
  8
0
  6
Continuous
 62
     7
370
    15
100
AcDbCircle
 10
40.3466910884
 20
39.4770541553
 30
0.0
 40
0.3249999999999957
  0
CIRCLE
  5
109
330
1F
100
AcDbEntity
  8
0
  6
Continuous
 62
     7
370
    15
100
AcDbCircle
 10
40.3466910884
 20
38.6770541553
 30
0.0
 40
0.3249999999999957
  0
CIRCLE
  5
10A
330
1F
100
AcDbEntity
  8
0
  6
Continuous
 62
     7
370
    15
100
AcDbCircle
 10
40.3466910884
 20
37.8770541553
 30
0.0
 40
0.3250000000000028
  0
CIRCLE
  5
10B
330
1F
100
AcDbEntity
  8
0
  6
Continuous
 62
     7
370
    15
100
AcDbCircle
 10
40.3466910884
 20
37.0770541553
 30
0.0
 40
0.3250000000000028
  0
CIRCLE
  5
10C
330
1F
100
AcDbEntity
  8
0
  6
Continuous
 62
     7
370
    15
100
AcDbCircle
 10
40.3466910884
 20
36.2770541553
 30
0.0
 40
0.3249999999999957
  0
CIRCLE
  5
10D
330
1F
100
AcDbEntity
  8
0
  6
Continuous
 62
     7
370
    15
100
AcDbCircle
 10
40.3466910884
 20
35.4770541553
 30
0.0
 40
0.3250000000000028
  0
CIRCLE
  5
10E
330
1F
100
AcDbEntity
  8
0
  6
Continuous
 62
     7
370
    15
100
AcDbCircle
 10
41.1466910884
 20
45.8770541553
 30
0.0
 40
0.3250000000000028
  0
CIRCLE
  5
10F
330
1F
100
AcDbEntity
  8
0
  6
Continuous
 62
     7
370
    15
100
AcDbCircle
 10
41.1466910884
 20
45.0770541553
 30
0.0
 40
0.3249999999999886
  0
CIRCLE
  5
110
330
1F
100
AcDbEntity
  8
0
  6
Continuous
 62
     7
370
    15
100
AcDbCircle
 10
41.1466910884
 20
44.2770541553
 30
0.0
 40
0.3249999999999957
  0
CIRCLE
  5
111
330
1F
100
AcDbEntity
  8
0
  6
Continuous
 62
     7
370
    15
100
AcDbCircle
 10
41.1466910884
 20
43.4770541553
 30
0.0
 40
0.3249999999999886
  0
CIRCLE
  5
112
330
1F
100
AcDbEntity
  8
0
  6
Continuous
 62
     7
370
    15
100
AcDbCircle
 10
41.1466910884
 20
42.6770541553
 30
0.0
 40
0.3250000000000028
  0
CIRCLE
  5
113
330
1F
100
AcDbEntity
  8
0
  6
Continuous
 62
     7
370
    15
100
AcDbCircle
 10
41.1466910884
 20
41.8770541553
 30
0.0
 40
0.3249999999999957
  0
CIRCLE
  5
114
330
1F
100
AcDbEntity
  8
0
  6
Continuous
 62
     7
370
    15
100
AcDbCircle
 10
41.1466910884
 20
41.0770541553
 30
0.0
 40
0.3250000000000028
  0
CIRCLE
  5
115
330
1F
100
AcDbEntity
  8
0
  6
Continuous
 62
     7
370
    15
100
AcDbCircle
 10
41.1466910884
 20
40.2770541553
 30
0.0
 40
0.3250000000000028
  0
CIRCLE
  5
116
330
1F
100
AcDbEntity
  8
0
  6
Continuous
 62
     7
370
    15
100
AcDbCircle
 10
41.1466910884
 20
39.4770541553
 30
0.0
 40
0.3249999999999957
  0
CIRCLE
  5
117
330
1F
100
AcDbEntity
  8
0
  6
Continuous
 62
     7
370
    15
100
AcDbCircle
 10
41.1466910884
 20
38.6770541553
 30
0.0
 40
0.3249999999999957
  0
CIRCLE
  5
118
330
1F
100
AcDbEntity
  8
0
  6
Continuous
 62
     7
370
    15
100
AcDbCircle
 10
41.1466910884
 20
37.8770541553
 30
0.0
 40
0.3250000000000028
  0
CIRCLE
  5
119
330
1F
100
AcDbEntity
  8
0
  6
Continuous
 62
     7
370
    15
100
AcDbCircle
 10
41.1466910884
 20
37.0770541553
 30
0.0
 40
0.3250000000000028
  0
CIRCLE
  5
11A
330
1F
100
AcDbEntity
  8
0
  6
Continuous
 62
     7
370
    15
100
AcDbCircle
 10
41.1466910884
 20
36.2770541553
 30
0.0
 40
0.3249999999999957
  0
CIRCLE
  5
11B
330
1F
100
AcDbEntity
  8
0
  6
Continuous
 62
     7
370
    15
100
AcDbCircle
 10
41.1466910884
 20
35.4770541553
 30
0.0
 40
0.3250000000000028
  0
CIRCLE
  5
11C
330
1F
100
AcDbEntity
  8
0
  6
Continuous
 62
     7
370
    15
100
AcDbCircle
 10
41.9466910884
 20
45.8770541553
 30
0.0
 40
0.3250000000000028
  0
CIRCLE
  5
11D
330
1F
100
AcDbEntity
  8
0
  6
Continuous
 62
     7
370
    15
100
AcDbCircle
 10
41.9466910884
 20
45.0770541553
 30
0.0
 40
0.3249999999999886
  0
CIRCLE
  5
11E
330
1F
100
AcDbEntity
  8
0
  6
Continuous
 62
     7
370
    15
100
AcDbCircle
 10
41.9466910884
 20
44.2770541553
 30
0.0
 40
0.3249999999999957
  0
CIRCLE
  5
11F
330
1F
100
AcDbEntity
  8
0
  6
Continuous
 62
     7
370
    15
100
AcDbCircle
 10
41.9466910884
 20
43.4770541553
 30
0.0
 40
0.3249999999999886
  0
CIRCLE
  5
120
330
1F
100
AcDbEntity
  8
0
  6
Continuous
 62
     7
370
    15
100
AcDbCircle
 10
41.9466910884
 20
42.6770541553
 30
0.0
 40
0.3250000000000028
  0
CIRCLE
  5
121
330
1F
100
AcDbEntity
  8
0
  6
Continuous
 62
     7
370
    15
100
AcDbCircle
 10
41.9466910884
 20
41.8770541553
 30
0.0
 40
0.3249999999999957
  0
CIRCLE
  5
122
330
1F
100
AcDbEntity
  8
0
  6
Continuous
 62
     7
370
    15
100
AcDbCircle
 10
41.9466910884
 20
41.0770541553
 30
0.0
 40
0.3250000000000028
  0
CIRCLE
  5
123
330
1F
100
AcDbEntity
  8
0
  6
Continuous
 62
     7
370
    15
100
AcDbCircle
 10
41.9466910884
 20
40.2770541553
 30
0.0
 40
0.3250000000000028
  0
CIRCLE
  5
124
330
1F
100
AcDbEntity
  8
0
  6
Continuous
 62
     7
370
    15
100
AcDbCircle
 10
41.9466910884
 20
39.4770541553
 30
0.0
 40
0.3249999999999957
  0
CIRCLE
  5
125
330
1F
100
AcDbEntity
  8
0
  6
Continuous
 62
     7
370
    15
100
AcDbCircle
 10
41.9466910884
 20
38.6770541553
 30
0.0
 40
0.3249999999999957
  0
CIRCLE
  5
126
330
1F
100
AcDbEntity
  8
0
  6
Continuous
 62
     7
370
    15
100
AcDbCircle
 10
41.9466910884
 20
37.8770541553
 30
0.0
 40
0.3250000000000028
  0
CIRCLE
  5
127
330
1F
100
AcDbEntity
  8
0
  6
Continuous
 62
     7
370
    15
100
AcDbCircle
 10
41.9466910884
 20
37.0770541553
 30
0.0
 40
0.3250000000000028
  0
CIRCLE
  5
128
330
1F
100
AcDbEntity
  8
0
  6
Continuous
 62
     7
370
    15
100
AcDbCircle
 10
41.9466910884
 20
36.2770541553
 30
0.0
 40
0.3249999999999957
  0
CIRCLE
  5
129
330
1F
100
AcDbEntity
  8
0
  6
Continuous
 62
     7
370
    15
100
AcDbCircle
 10
41.9466910884
 20
35.4770541553
 30
0.0
 40
0.3250000000000028
  0
CIRCLE
  5
12A
330
1F
100
AcDbEntity
  8
0
  6
Continuous
 62
     7
370
    15
100
AcDbCircle
 10
42.7466910884
 20
45.8770541553
 30
0.0
 40
0.3250000000000028
  0
CIRCLE
  5
12B
330
1F
100
AcDbEntity
  8
0
  6
Continuous
 62
     7
370
    15
100
AcDbCircle
 10
42.7466910884
 20
45.0770541553
 30
0.0
 40
0.3249999999999886
  0
CIRCLE
  5
12C
330
1F
100
AcDbEntity
  8
0
  6
Continuous
 62
     7
370
    15
100
AcDbCircle
 10
42.7466910884
 20
44.2770541553
 30
0.0
 40
0.3249999999999957
  0
CIRCLE
  5
12D
330
1F
100
AcDbEntity
  8
0
  6
Continuous
 62
     7
370
    15
100
AcDbCircle
 10
42.7466910884
 20
43.4770541553
 30
0.0
 40
0.3249999999999886
  0
CIRCLE
  5
12E
330
1F
100
AcDbEntity
  8
0
  6
Continuous
 62
     7
370
    15
100
AcDbCircle
 10
42.7466910884
 20
42.6770541553
 30
0.0
 40
0.3250000000000028
  0
CIRCLE
  5
12F
330
1F
100
AcDbEntity
  8
0
  6
Continuous
 62
     7
370
    15
100
AcDbCircle
 10
42.7466910884
 20
41.8770541553
 30
0.0
 40
0.3249999999999957
  0
CIRCLE
  5
130
330
1F
100
AcDbEntity
  8
0
  6
Continuous
 62
     7
370
    15
100
AcDbCircle
 10
42.7466910884
 20
41.0770541553
 30
0.0
 40
0.3250000000000028
  0
CIRCLE
  5
131
330
1F
100
AcDbEntity
  8
0
  6
Continuous
 62
     7
370
    15
100
AcDbCircle
 10
42.7466910884
 20
40.2770541553
 30
0.0
 40
0.3250000000000028
  0
CIRCLE
  5
132
330
1F
100
AcDbEntity
  8
0
  6
Continuous
 62
     7
370
    15
100
AcDbCircle
 10
42.7466910884
 20
39.4770541553
 30
0.0
 40
0.3249999999999957
  0
CIRCLE
  5
133
330
1F
100
AcDbEntity
  8
0
  6
Continuous
 62
     7
370
    15
100
AcDbCircle
 10
42.7466910884
 20
38.6770541553
 30
0.0
 40
0.3249999999999957
  0
CIRCLE
  5
134
330
1F
100
AcDbEntity
  8
0
  6
Continuous
 62
     7
370
    15
100
AcDbCircle
 10
42.7466910884
 20
37.8770541553
 30
0.0
 40
0.3250000000000028
  0
CIRCLE
  5
135
330
1F
100
AcDbEntity
  8
0
  6
Continuous
 62
     7
370
    15
100
AcDbCircle
 10
42.7466910884
 20
37.0770541553
 30
0.0
 40
0.3250000000000028
  0
CIRCLE
  5
136
330
1F
100
AcDbEntity
  8
0
  6
Continuous
 62
     7
370
    15
100
AcDbCircle
 10
42.7466910884
 20
36.2770541553
 30
0.0
 40
0.3249999999999957
  0
CIRCLE
  5
137
330
1F
100
AcDbEntity
  8
0
  6
Continuous
 62
     7
370
    15
100
AcDbCircle
 10
42.7466910884
 20
35.4770541553
 30
0.0
 40
0.3250000000000028
  0
CIRCLE
  5
138
330
1F
100
AcDbEntity
  8
0
  6
Continuous
 62
     7
370
    15
100
AcDbCircle
 10
43.5466910884
 20
45.8770541553
 30
0.0
 40
0.3250000000000028
  0
CIRCLE
  5
139
330
1F
100
AcDbEntity
  8
0
  6
Continuous
 62
     7
370
    15
100
AcDbCircle
 10
43.5466910884
 20
45.0770541553
 30
0.0
 40
0.3249999999999886
  0
CIRCLE
  5
13A
330
1F
100
AcDbEntity
  8
0
  6
Continuous
 62
     7
370
    15
100
AcDbCircle
 10
43.5466910884
 20
44.2770541553
 30
0.0
 40
0.3249999999999957
  0
CIRCLE
  5
13B
330
1F
100
AcDbEntity
  8
0
  6
Continuous
 62
     7
370
    15
100
AcDbCircle
 10
43.5466910884
 20
43.4770541553
 30
0.0
 40
0.3249999999999886
  0
CIRCLE
  5
13C
330
1F
100
AcDbEntity
  8
0
  6
Continuous
 62
     7
370
    15
100
AcDbCircle
 10
43.5466910884
 20
42.6770541553
 30
0.0
 40
0.3250000000000028
  0
CIRCLE
  5
13D
330
1F
100
AcDbEntity
  8
0
  6
Continuous
 62
     7
370
    15
100
AcDbCircle
 10
43.5466910884
 20
41.8770541553
 30
0.0
 40
0.3249999999999957
  0
CIRCLE
  5
13E
330
1F
100
AcDbEntity
  8
0
  6
Continuous
 62
     7
370
    15
100
AcDbCircle
 10
43.5466910884
 20
41.0770541553
 30
0.0
 40
0.3250000000000028
  0
CIRCLE
  5
13F
330
1F
100
AcDbEntity
  8
0
  6
Continuous
 62
     7
370
    15
100
AcDbCircle
 10
43.5466910884
 20
40.2770541553
 30
0.0
 40
0.3250000000000028
  0
CIRCLE
  5
140
330
1F
100
AcDbEntity
  8
0
  6
Continuous
 62
     7
370
    15
100
AcDbCircle
 10
43.5466910884
 20
39.4770541553
 30
0.0
 40
0.3249999999999957
  0
CIRCLE
  5
141
330
1F
100
AcDbEntity
  8
0
  6
Continuous
 62
     7
370
    15
100
AcDbCircle
 10
43.5466910884
 20
38.6770541553
 30
0.0
 40
0.3249999999999957
  0
CIRCLE
  5
142
330
1F
100
AcDbEntity
  8
0
  6
Continuous
 62
     7
370
    15
100
AcDbCircle
 10
43.5466910884
 20
37.8770541553
 30
0.0
 40
0.3250000000000028
  0
CIRCLE
  5
143
330
1F
100
AcDbEntity
  8
0
  6
Continuous
 62
     7
370
    15
100
AcDbCircle
 10
43.5466910884
 20
37.0770541553
 30
0.0
 40
0.3250000000000028
  0
CIRCLE
  5
144
330
1F
100
AcDbEntity
  8
0
  6
Continuous
 62
     7
370
    15
100
AcDbCircle
 10
43.5466910884
 20
36.2770541553
 30
0.0
 40
0.3249999999999957
  0
CIRCLE
  5
145
330
1F
100
AcDbEntity
  8
0
  6
Continuous
 62
     7
370
    15
100
AcDbCircle
 10
43.5466910884
 20
35.4770541553
 30
0.0
 40
0.3250000000000028
  0
CIRCLE
  5
146
330
1F
100
AcDbEntity
  8
0
  6
Continuous
 62
     7
370
    15
100
AcDbCircle
 10
44.3466910884
 20
45.8770541553
 30
0.0
 40
0.3250000000000028
  0
CIRCLE
  5
147
330
1F
100
AcDbEntity
  8
0
  6
Continuous
 62
     7
370
    15
100
AcDbCircle
 10
44.3466910884
 20
45.0770541553
 30
0.0
 40
0.3249999999999886
  0
CIRCLE
  5
148
330
1F
100
AcDbEntity
  8
0
  6
Continuous
 62
     7
370
    15
100
AcDbCircle
 10
44.3466910884
 20
44.2770541553
 30
0.0
 40
0.3249999999999957
  0
CIRCLE
  5
149
330
1F
100
AcDbEntity
  8
0
  6
Continuous
 62
     7
370
    15
100
AcDbCircle
 10
44.3466910884
 20
43.4770541553
 30
0.0
 40
0.3249999999999886
  0
CIRCLE
  5
14A
330
1F
100
AcDbEntity
  8
0
  6
Continuous
 62
     7
370
    15
100
AcDbCircle
 10
44.3466910884
 20
42.6770541553
 30
0.0
 40
0.3250000000000028
  0
CIRCLE
  5
14B
330
1F
100
AcDbEntity
  8
0
  6
Continuous
 62
     7
370
    15
100
AcDbCircle
 10
44.3466910884
 20
41.8770541553
 30
0.0
 40
0.3249999999999957
  0
CIRCLE
  5
14C
330
1F
100
AcDbEntity
  8
0
  6
Continuous
 62
     7
370
    15
100
AcDbCircle
 10
44.3466910884
 20
41.0770541553
 30
0.0
 40
0.3250000000000028
  0
CIRCLE
  5
14D
330
1F
100
AcDbEntity
  8
0
  6
Continuous
 62
     7
370
    15
100
AcDbCircle
 10
44.3466910884
 20
40.2770541553
 30
0.0
 40
0.3250000000000028
  0
CIRCLE
  5
14E
330
1F
100
AcDbEntity
  8
0
  6
Continuous
 62
     7
370
    15
100
AcDbCircle
 10
44.3466910884
 20
39.4770541553
 30
0.0
 40
0.3249999999999957
  0
CIRCLE
  5
14F
330
1F
100
AcDbEntity
  8
0
  6
Continuous
 62
     7
370
    15
100
AcDbCircle
 10
44.3466910884
 20
38.6770541553
 30
0.0
 40
0.3249999999999957
  0
CIRCLE
  5
150
330
1F
100
AcDbEntity
  8
0
  6
Continuous
 62
     7
370
    15
100
AcDbCircle
 10
44.3466910884
 20
37.8770541553
 30
0.0
 40
0.3250000000000028
  0
CIRCLE
  5
151
330
1F
100
AcDbEntity
  8
0
  6
Continuous
 62
     7
370
    15
100
AcDbCircle
 10
44.3466910884
 20
37.0770541553
 30
0.0
 40
0.3250000000000028
  0
CIRCLE
  5
152
330
1F
100
AcDbEntity
  8
0
  6
Continuous
 62
     7
370
    15
100
AcDbCircle
 10
44.3466910884
 20
36.2770541553
 30
0.0
 40
0.3249999999999957
  0
CIRCLE
  5
153
330
1F
100
AcDbEntity
  8
0
  6
Continuous
 62
     7
370
    15
100
AcDbCircle
 10
44.3466910884
 20
35.4770541553
 30
0.0
 40
0.3250000000000028
  0
ARC
  5
154
330
1F
100
AcDbEntity
  8
0
  6
Continuous
 62
     7
370
    15
100
AcDbCircle
 10
38.7716910884
 20
48.0405541553
 30
0.0
 40
0.8500000000000014
100
AcDbArc
 50
90.0
 51
270.0
  0
LINE
  5
155
330
1F
100
AcDbEntity
  8
0
  6
Continuous
 62
     7
370
    15
100
AcDbLine
 10
38.7716910868
 20
47.1905542758
 30
0.0
 11
39.14669109
 21
47.1905542758
 31
0.0
  0
ARC
  5
156
330
1F
100
AcDbEntity
  8
0
  6
Continuous
 62
     7
370
    15
100
AcDbCircle
 10
39.1466910884
 20
48.0405541553
 30
0.0
 40
0.8500000000000014
100
AcDbArc
 50
270.0
 51
90.0
  0
LINE
  5
157
330
1F
100
AcDbEntity
  8
0
  6
Continuous
 62
     7
370
    15
100
AcDbLine
 10
39.14669109
 20
48.8905537162
 30
0.0
 11
38.7716910868
 21
48.8905537162
 31
0.0
  0
ARC
  5
158
330
1F
100
AcDbEntity
  8
0
  6
Continuous
 62
     7
370
    15
100
AcDbCircle
 10
31.4091910884
 20
40.6770541553
 30
0.0
 40
0.8499999999999943
100
AcDbArc
 50
90.0
 51
270.0
  0
LINE
  5
159
330
1F
100
AcDbEntity
  8
0
  6
Continuous
 62
     7
370
    15
100
AcDbLine
 10
31.4091908753
 20
39.827054144
 30
0.0
 11
31.7841911696
 21
39.827054144
 31
0.0
  0
ARC
  5
15A
330
1F
100
AcDbEntity
  8
0
  6
Continuous
 62
     7
370
    15
100
AcDbCircle
 10
31.7841910884
 20
40.6770541553
 30
0.0
 40
0.8499999999999943
100
AcDbArc
 50
270.0
 51
90.0
  0
LINE
  5
15B
330
1F
100
AcDbEntity
  8
0
  6
Continuous
 62
     7
370
    15
100
AcDbLine
 10
31.7841911696
 20
41.5270541666
 30
0.0
 11
31.4091908753
 21
41.5270541666
 31
0.0
  0
ARC
  5
15C
330
1F
100
AcDbEntity
  8
0
  6
Continuous
 62
     7
370
    15
100
AcDbCircle
 10
46.1341910884
 20
40.6770541553
 30
0.0
 40
0.8499999999999872
100
AcDbArc
 50
90.0
 51
270.0
  0
LINE
  5
15D
330
1F
100
AcDbEntity
  8
0
  6
Continuous
 62
     7
370
    15
100
AcDbLine
 10
46.1341910072
 20
39.827054144
 30
0.0
 11
46.5091913015
 21
39.827054144
 31
0.0
  0
ARC
  5
15E
330
1F
100
AcDbEntity
  8
0
  6
Continuous
 62
     7
370
    15
100
AcDbCircle
 10
46.5091910884
 20
40.6770541553
 30
0.0
 40
0.8499999999999872
100
AcDbArc
 50
270.0
 51
90.0
  0
LINE
  5
15F
330
1F
100
AcDbEntity
  8
0
  6
Continuous
 62
     7
370
    15
100
AcDbLine
 10
46.5091913015
 20
41.5270541666
 30
0.0
 11
46.1341910072
 21
41.5270541666
 31
0.0
  0
ARC
  5
160
330
1F
100
AcDbEntity
  8
0
  6
Continuous
 62
     7
370
    15
100
AcDbCircle
 10
38.7716910884
 20
33.3145541553
 30
0.0
 40
0.8499999999999943
100
AcDbArc
 50
90.0
 51
270.0
  0
LINE
  5
161
330
1F
100
AcDbEntity
  8
0
  6
Continuous
 62
     7
370
    15
100
AcDbLine
 10
38.7716910868
 20
32.4645539035
 30
0.0
 11
39.14669109
 21
32.4645539035
 31
0.0
  0
ARC
  5
162
330
1F
100
AcDbEntity
  8
0
  6
Continuous
 62
     7
370
    15
100
AcDbCircle
 10
39.1466910884
 20
33.3145541553
 30
0.0
 40
0.8499999999999943
100
AcDbArc
 50
270.0
 51
90.0
  0
LINE
  5
163
330
1F
100
AcDbEntity
  8
0
  6
Continuous
 62
     7
370
    15
100
AcDbLine
 10
39.14669109
 20
34.1645542752
 30
0.0
 11
38.7716910868
 21
34.1645542752
 31
0.0
  0
CIRCLE
  5
164
330
1F
100
AcDbEntity
  8
0
  6
Continuous
 62
     7
370
    15
100
AcDbCircle
 10
31.4091910884
 20
38.3945541553
 30
0.0
 40
0.4249999999999901
  0
CIRCLE
  5
165
330
1F
100
AcDbEntity
  8
0
  6
Continuous
 62
     7
370
    15
100
AcDbCircle
 10
31.4091910884
 20
48.0405541553
 30
0.0
 40
0.8499999999999801
  0
CIRCLE
  5
166
330
1F
100
AcDbEntity
  8
0
  6
Continuous
 62
     7
370
    15
100
AcDbCircle
 10
42.7466910884
 20
45.8770541553
 30
0.0
 40
0.2199999999999989
  0
CIRCLE
  5
167
330
1F
100
AcDbEntity
  8
0
  6
Continuous
 62
     7
370
    15
100
AcDbCircle
 10
40.3466910884
 20
41.8770541553
 30
0.0
 40
0.2199999999999989
  0
CIRCLE
  5
168
330
1F
100
AcDbEntity
  8
0
  6
Continuous
 62
     7
370
    15
100
AcDbCircle
 10
37.9466910884
 20
39.4770541553
 30
0.0
 40
0.2199999999999989
  0
CIRCLE
  5
169
330
1F
100
AcDbEntity
  8
0
  6
Continuous
 62
     7
370
    15
100
AcDbCircle
 10
33.9466910884
 20
45.8770541553
 30
0.0
 40
0.2199999999999989
  0
CIRCLE
  5
16A
330
1F
100
AcDbEntity
  8
0
  6
Continuous
 62
     7
370
    15
100
AcDbCircle
 10
40.3466910884
 20
41.0770541553
 30
0.0
 40
0.2199999999999989
  0
CIRCLE
  5
16B
330
1F
100
AcDbEntity
  8
0
  6
Continuous
 62
     7
370
    15
100
AcDbCircle
 10
37.9466910884
 20
38.6770541553
 30
0.0
 40
0.2199999999999989
  0
CIRCLE
  5
16C
330
1F
100
AcDbEntity
  8
0
  6
Continuous
 62
     7
370
    15
100
AcDbCircle
 10
42.7466910884
 20
42.6770541553
 30
0.0
 40
0.2199999999999989
  0
CIRCLE
  5
16D
330
1F
100
AcDbEntity
  8
0
  6
Continuous
 62
     7
370
    15
100
AcDbCircle
 10
33.9466910884
 20
45.0770541553
 30
0.0
 40
0.2199999999999989
  0
CIRCLE
  5
16E
330
1F
100
AcDbEntity
  8
0
  6
Continuous
 62
     7
370
    15
100
AcDbCircle
 10
37.9466910884
 20
37.8770541553
 30
0.0
 40
0.220000000000006
  0
CIRCLE
  5
16F
330
1F
100
AcDbEntity
  8
0
  6
Continuous
 62
     7
370
    15
100
AcDbCircle
 10
42.7466910884
 20
41.8770541553
 30
0.0
 40
0.2199999999999989
  0
CIRCLE
  5
170
330
1F
100
AcDbEntity
  8
0
  6
Continuous
 62
     7
370
    15
100
AcDbCircle
 10
33.9466910884
 20
44.2770541553
 30
0.0
 40
0.2199999999999918
  0
CIRCLE
  5
171
330
1F
100
AcDbEntity
  8
0
  6
Continuous
 62
     7
370
    15
100
AcDbCircle
 10
37.9466910884
 20
37.0770541553
 30
0.0
 40
0.2199999999999989
  0
CIRCLE
  5
172
330
1F
100
AcDbEntity
  8
0
  6
Continuous
 62
     7
370
    15
100
AcDbCircle
 10
42.7466910884
 20
41.0770541553
 30
0.0
 40
0.2199999999999989
  0
CIRCLE
  5
173
330
1F
100
AcDbEntity
  8
0
  6
Continuous
 62
     7
370
    15
100
AcDbCircle
 10
33.9466910884
 20
43.4770541553
 30
0.0
 40
0.2199999999999918
  0
CIRCLE
  5
174
330
1F
100
AcDbEntity
  8
0
  6
Continuous
 62
     7
370
    15
100
AcDbCircle
 10
37.9466910884
 20
36.2770541553
 30
0.0
 40
0.2199999999999989
  0
CIRCLE
  5
175
330
1F
100
AcDbEntity
  8
0
  6
Continuous
 62
     7
370
    15
100
AcDbCircle
 10
42.7466910884
 20
40.2770541553
 30
0.0
 40
0.220000000000006
  0
CIRCLE
  5
176
330
1F
100
AcDbEntity
  8
0
  6
Continuous
 62
     7
370
    15
100
AcDbCircle
 10
33.9466910884
 20
42.6770541553
 30
0.0
 40
0.2199999999999989
  0
CIRCLE
  5
177
330
1F
100
AcDbEntity
  8
0
  6
Continuous
 62
     7
370
    15
100
AcDbCircle
 10
37.9466910884
 20
35.4770541553
 30
0.0
 40
0.2199999999999989
  0
CIRCLE
  5
178
330
1F
100
AcDbEntity
  8
0
  6
Continuous
 62
     7
370
    15
100
AcDbCircle
 10
42.7466910884
 20
39.4770541553
 30
0.0
 40
0.2199999999999989
  0
CIRCLE
  5
179
330
1F
100
AcDbEntity
  8
0
  6
Continuous
 62
     7
370
    15
100
AcDbCircle
 10
33.9466910884
 20
41.8770541553
 30
0.0
 40
0.2199999999999989
  0
CIRCLE
  5
17A
330
1F
100
AcDbEntity
  8
0
  6
Continuous
 62
     7
370
    15
100
AcDbCircle
 10
38.7466910884
 20
45.8770541553
 30
0.0
 40
0.2199999999999989
  0
CIRCLE
  5
17B
330
1F
100
AcDbEntity
  8
0
  6
Continuous
 62
     7
370
    15
100
AcDbCircle
 10
42.7466910884
 20
38.6770541553
 30
0.0
 40
0.2199999999999989
  0
CIRCLE
  5
17C
330
1F
100
AcDbEntity
  8
0
  6
Continuous
 62
     7
370
    15
100
AcDbCircle
 10
33.9466910884
 20
41.0770541553
 30
0.0
 40
0.2199999999999989
  0
CIRCLE
  5
17D
330
1F
100
AcDbEntity
  8
0
  6
Continuous
 62
     7
370
    15
100
AcDbCircle
 10
38.7466910884
 20
45.0770541553
 30
0.0
 40
0.2199999999999989
  0
CIRCLE
  5
17E
330
1F
100
AcDbEntity
  8
0
  6
Continuous
 62
     7
370
    15
100
AcDbCircle
 10
42.7466910884
 20
37.8770541553
 30
0.0
 40
0.220000000000006
  0
CIRCLE
  5
17F
330
1F
100
AcDbEntity
  8
0
  6
Continuous
 62
     7
370
    15
100
AcDbCircle
 10
33.9466910884
 20
40.2770541553
 30
0.0
 40
0.220000000000006
  0
CIRCLE
  5
180
330
1F
100
AcDbEntity
  8
0
  6
Continuous
 62
     7
370
    15
100
AcDbCircle
 10
38.7466910884
 20
44.2770541553
 30
0.0
 40
0.2199999999999918
  0
CIRCLE
  5
181
330
1F
100
AcDbEntity
  8
0
  6
Continuous
 62
     7
370
    15
100
AcDbCircle
 10
42.7466910884
 20
37.0770541553
 30
0.0
 40
0.2199999999999989
  0
CIRCLE
  5
182
330
1F
100
AcDbEntity
  8
0
  6
Continuous
 62
     7
370
    15
100
AcDbCircle
 10
33.9466910884
 20
39.4770541553
 30
0.0
 40
0.2199999999999989
  0
CIRCLE
  5
183
330
1F
100
AcDbEntity
  8
0
  6
Continuous
 62
     7
370
    15
100
AcDbCircle
 10
38.7466910884
 20
43.4770541553
 30
0.0
 40
0.2199999999999918
  0
CIRCLE
  5
184
330
1F
100
AcDbEntity
  8
0
  6
Continuous
 62
     7
370
    15
100
AcDbCircle
 10
42.7466910884
 20
36.2770541553
 30
0.0
 40
0.2199999999999989
  0
CIRCLE
  5
185
330
1F
100
AcDbEntity
  8
0
  6
Continuous
 62
     7
370
    15
100
AcDbCircle
 10
33.9466910884
 20
38.6770541553
 30
0.0
 40
0.2199999999999989
  0
CIRCLE
  5
186
330
1F
100
AcDbEntity
  8
0
  6
Continuous
 62
     7
370
    15
100
AcDbCircle
 10
38.7466910884
 20
42.6770541553
 30
0.0
 40
0.2199999999999989
  0
CIRCLE
  5
187
330
1F
100
AcDbEntity
  8
0
  6
Continuous
 62
     7
370
    15
100
AcDbCircle
 10
42.7466910884
 20
35.4770541553
 30
0.0
 40
0.2199999999999989
  0
CIRCLE
  5
188
330
1F
100
AcDbEntity
  8
0
  6
Continuous
 62
     7
370
    15
100
AcDbCircle
 10
33.9466910884
 20
37.8770541553
 30
0.0
 40
0.220000000000006
  0
CIRCLE
  5
189
330
1F
100
AcDbEntity
  8
0
  6
Continuous
 62
     7
370
    15
100
AcDbCircle
 10
38.7466910884
 20
41.8770541553
 30
0.0
 40
0.2199999999999989
  0
CIRCLE
  5
18A
330
1F
100
AcDbEntity
  8
0
  6
Continuous
 62
     7
370
    15
100
AcDbCircle
 10
43.5466910884
 20
45.8770541553
 30
0.0
 40
0.2199999999999989
  0
CIRCLE
  5
18B
330
1F
100
AcDbEntity
  8
0
  6
Continuous
 62
     7
370
    15
100
AcDbCircle
 10
33.9466910884
 20
37.0770541553
 30
0.0
 40
0.2199999999999989
  0
CIRCLE
  5
18C
330
1F
100
AcDbEntity
  8
0
  6
Continuous
 62
     7
370
    15
100
AcDbCircle
 10
38.7466910884
 20
41.0770541553
 30
0.0
 40
0.2199999999999989
  0
CIRCLE
  5
18D
330
1F
100
AcDbEntity
  8
0
  6
Continuous
 62
     7
370
    15
100
AcDbCircle
 10
43.5466910884
 20
45.0770541553
 30
0.0
 40
0.2199999999999989
  0
CIRCLE
  5
18E
330
1F
100
AcDbEntity
  8
0
  6
Continuous
 62
     7
370
    15
100
AcDbCircle
 10
33.9466910884
 20
36.2770541553
 30
0.0
 40
0.2199999999999989
  0
CIRCLE
  5
18F
330
1F
100
AcDbEntity
  8
0
  6
Continuous
 62
     7
370
    15
100
AcDbCircle
 10
38.7466910884
 20
40.2770541553
 30
0.0
 40
0.220000000000006
  0
CIRCLE
  5
190
330
1F
100
AcDbEntity
  8
0
  6
Continuous
 62
     7
370
    15
100
AcDbCircle
 10
43.5466910884
 20
44.2770541553
 30
0.0
 40
0.2199999999999918
  0
CIRCLE
  5
191
330
1F
100
AcDbEntity
  8
0
  6
Continuous
 62
     7
370
    15
100
AcDbCircle
 10
33.9466910884
 20
35.4770541553
 30
0.0
 40
0.2199999999999989
  0
CIRCLE
  5
192
330
1F
100
AcDbEntity
  8
0
  6
Continuous
 62
     7
370
    15
100
AcDbCircle
 10
38.7466910884
 20
39.4770541553
 30
0.0
 40
0.2199999999999989
  0
CIRCLE
  5
193
330
1F
100
AcDbEntity
  8
0
  6
Continuous
 62
     7
370
    15
100
AcDbCircle
 10
43.5466910884
 20
43.4770541553
 30
0.0
 40
0.2199999999999918
  0
CIRCLE
  5
194
330
1F
100
AcDbEntity
  8
0
  6
Continuous
 62
     7
370
    15
100
AcDbCircle
 10
34.7466910884
 20
45.8770541553
 30
0.0
 40
0.2199999999999989
  0
CIRCLE
  5
195
330
1F
100
AcDbEntity
  8
0
  6
Continuous
 62
     7
370
    15
100
AcDbCircle
 10
38.7466910884
 20
38.6770541553
 30
0.0
 40
0.2199999999999989
  0
CIRCLE
  5
196
330
1F
100
AcDbEntity
  8
0
  6
Continuous
 62
     7
370
    15
100
AcDbCircle
 10
43.5466910884
 20
42.6770541553
 30
0.0
 40
0.2199999999999989
  0
CIRCLE
  5
197
330
1F
100
AcDbEntity
  8
0
  6
Continuous
 62
     7
370
    15
100
AcDbCircle
 10
34.7466910884
 20
45.0770541553
 30
0.0
 40
0.2199999999999989
  0
CIRCLE
  5
198
330
1F
100
AcDbEntity
  8
0
  6
Continuous
 62
     7
370
    15
100
AcDbCircle
 10
38.7466910884
 20
37.8770541553
 30
0.0
 40
0.220000000000006
  0
CIRCLE
  5
199
330
1F
100
AcDbEntity
  8
0
  6
Continuous
 62
     7
370
    15
100
AcDbCircle
 10
43.5466910884
 20
41.8770541553
 30
0.0
 40
0.2199999999999989
  0
CIRCLE
  5
19A
330
1F
100
AcDbEntity
  8
0
  6
Continuous
 62
     7
370
    15
100
AcDbCircle
 10
34.7466910884
 20
44.2770541553
 30
0.0
 40
0.2199999999999918
  0
CIRCLE
  5
19B
330
1F
100
AcDbEntity
  8
0
  6
Continuous
 62
     7
370
    15
100
AcDbCircle
 10
38.7466910884
 20
37.0770541553
 30
0.0
 40
0.2199999999999989
  0
CIRCLE
  5
19C
330
1F
100
AcDbEntity
  8
0
  6
Continuous
 62
     7
370
    15
100
AcDbCircle
 10
43.5466910884
 20
41.0770541553
 30
0.0
 40
0.2199999999999989
  0
CIRCLE
  5
19D
330
1F
100
AcDbEntity
  8
0
  6
Continuous
 62
     7
370
    15
100
AcDbCircle
 10
34.7466910884
 20
43.4770541553
 30
0.0
 40
0.2199999999999918
  0
CIRCLE
  5
19E
330
1F
100
AcDbEntity
  8
0
  6
Continuous
 62
     7
370
    15
100
AcDbCircle
 10
38.7466910884
 20
36.2770541553
 30
0.0
 40
0.2199999999999989
  0
CIRCLE
  5
19F
330
1F
100
AcDbEntity
  8
0
  6
Continuous
 62
     7
370
    15
100
AcDbCircle
 10
43.5466910884
 20
40.2770541553
 30
0.0
 40
0.220000000000006
  0
CIRCLE
  5
1A0
330
1F
100
AcDbEntity
  8
0
  6
Continuous
 62
     7
370
    15
100
AcDbCircle
 10
34.7466910884
 20
42.6770541553
 30
0.0
 40
0.2199999999999989
  0
CIRCLE
  5
1A1
330
1F
100
AcDbEntity
  8
0
  6
Continuous
 62
     7
370
    15
100
AcDbCircle
 10
38.7466910884
 20
35.4770541553
 30
0.0
 40
0.2199999999999989
  0
CIRCLE
  5
1A2
330
1F
100
AcDbEntity
  8
0
  6
Continuous
 62
     7
370
    15
100
AcDbCircle
 10
43.5466910884
 20
39.4770541553
 30
0.0
 40
0.2199999999999989
  0
CIRCLE
  5
1A3
330
1F
100
AcDbEntity
  8
0
  6
Continuous
 62
     7
370
    15
100
AcDbCircle
 10
34.7466910884
 20
41.8770541553
 30
0.0
 40
0.2199999999999989
  0
CIRCLE
  5
1A4
330
1F
100
AcDbEntity
  8
0
  6
Continuous
 62
     7
370
    15
100
AcDbCircle
 10
39.5466910884
 20
45.8770541553
 30
0.0
 40
0.2199999999999989
  0
CIRCLE
  5
1A5
330
1F
100
AcDbEntity
  8
0
  6
Continuous
 62
     7
370
    15
100
AcDbCircle
 10
43.5466910884
 20
38.6770541553
 30
0.0
 40
0.2199999999999989
  0
CIRCLE
  5
1A6
330
1F
100
AcDbEntity
  8
0
  6
Continuous
 62
     7
370
    15
100
AcDbCircle
 10
34.7466910884
 20
41.0770541553
 30
0.0
 40
0.2199999999999989
  0
CIRCLE
  5
1A7
330
1F
100
AcDbEntity
  8
0
  6
Continuous
 62
     7
370
    15
100
AcDbCircle
 10
39.5466910884
 20
45.0770541553
 30
0.0
 40
0.2199999999999989
  0
CIRCLE
  5
1A8
330
1F
100
AcDbEntity
  8
0
  6
Continuous
 62
     7
370
    15
100
AcDbCircle
 10
43.5466910884
 20
37.8770541553
 30
0.0
 40
0.220000000000006
  0
CIRCLE
  5
1A9
330
1F
100
AcDbEntity
  8
0
  6
Continuous
 62
     7
370
    15
100
AcDbCircle
 10
34.7466910884
 20
40.2770541553
 30
0.0
 40
0.220000000000006
  0
CIRCLE
  5
1AA
330
1F
100
AcDbEntity
  8
0
  6
Continuous
 62
     7
370
    15
100
AcDbCircle
 10
39.5466910884
 20
44.2770541553
 30
0.0
 40
0.2199999999999918
  0
CIRCLE
  5
1AB
330
1F
100
AcDbEntity
  8
0
  6
Continuous
 62
     7
370
    15
100
AcDbCircle
 10
43.5466910884
 20
37.0770541553
 30
0.0
 40
0.2199999999999989
  0
CIRCLE
  5
1AC
330
1F
100
AcDbEntity
  8
0
  6
Continuous
 62
     7
370
    15
100
AcDbCircle
 10
34.7466910884
 20
39.4770541553
 30
0.0
 40
0.2199999999999989
  0
CIRCLE
  5
1AD
330
1F
100
AcDbEntity
  8
0
  6
Continuous
 62
     7
370
    15
100
AcDbCircle
 10
39.5466910884
 20
43.4770541553
 30
0.0
 40
0.2199999999999918
  0
CIRCLE
  5
1AE
330
1F
100
AcDbEntity
  8
0
  6
Continuous
 62
     7
370
    15
100
AcDbCircle
 10
43.5466910884
 20
36.2770541553
 30
0.0
 40
0.2199999999999989
  0
CIRCLE
  5
1AF
330
1F
100
AcDbEntity
  8
0
  6
Continuous
 62
     7
370
    15
100
AcDbCircle
 10
34.7466910884
 20
38.6770541553
 30
0.0
 40
0.2199999999999989
  0
CIRCLE
  5
1B0
330
1F
100
AcDbEntity
  8
0
  6
Continuous
 62
     7
370
    15
100
AcDbCircle
 10
39.5466910884
 20
42.6770541553
 30
0.0
 40
0.2199999999999989
  0
CIRCLE
  5
1B1
330
1F
100
AcDbEntity
  8
0
  6
Continuous
 62
     7
370
    15
100
AcDbCircle
 10
43.5466910884
 20
35.4770541553
 30
0.0
 40
0.2199999999999989
  0
CIRCLE
  5
1B2
330
1F
100
AcDbEntity
  8
0
  6
Continuous
 62
     7
370
    15
100
AcDbCircle
 10
34.7466910884
 20
37.8770541553
 30
0.0
 40
0.220000000000006
  0
CIRCLE
  5
1B3
330
1F
100
AcDbEntity
  8
0
  6
Continuous
 62
     7
370
    15
100
AcDbCircle
 10
39.5466910884
 20
41.8770541553
 30
0.0
 40
0.2199999999999989
  0
CIRCLE
  5
1B4
330
1F
100
AcDbEntity
  8
0
  6
Continuous
 62
     7
370
    15
100
AcDbCircle
 10
44.3466910884
 20
45.8770541553
 30
0.0
 40
0.2199999999999989
  0
CIRCLE
  5
1B5
330
1F
100
AcDbEntity
  8
0
  6
Continuous
 62
     7
370
    15
100
AcDbCircle
 10
34.7466910884
 20
37.0770541553
 30
0.0
 40
0.2199999999999989
  0
CIRCLE
  5
1B6
330
1F
100
AcDbEntity
  8
0
  6
Continuous
 62
     7
370
    15
100
AcDbCircle
 10
39.5466910884
 20
41.0770541553
 30
0.0
 40
0.2199999999999989
  0
CIRCLE
  5
1B7
330
1F
100
AcDbEntity
  8
0
  6
Continuous
 62
     7
370
    15
100
AcDbCircle
 10
44.3466910884
 20
45.0770541553
 30
0.0
 40
0.2199999999999989
  0
CIRCLE
  5
1B8
330
1F
100
AcDbEntity
  8
0
  6
Continuous
 62
     7
370
    15
100
AcDbCircle
 10
34.7466910884
 20
36.2770541553
 30
0.0
 40
0.2199999999999989
  0
CIRCLE
  5
1B9
330
1F
100
AcDbEntity
  8
0
  6
Continuous
 62
     7
370
    15
100
AcDbCircle
 10
39.5466910884
 20
40.2770541553
 30
0.0
 40
0.220000000000006
  0
CIRCLE
  5
1BA
330
1F
100
AcDbEntity
  8
0
  6
Continuous
 62
     7
370
    15
100
AcDbCircle
 10
44.3466910884
 20
44.2770541553
 30
0.0
 40
0.2199999999999918
  0
CIRCLE
  5
1BB
330
1F
100
AcDbEntity
  8
0
  6
Continuous
 62
     7
370
    15
100
AcDbCircle
 10
34.7466910884
 20
35.4770541553
 30
0.0
 40
0.2199999999999989
  0
CIRCLE
  5
1BC
330
1F
100
AcDbEntity
  8
0
  6
Continuous
 62
     7
370
    15
100
AcDbCircle
 10
39.5466910884
 20
39.4770541553
 30
0.0
 40
0.2199999999999989
  0
CIRCLE
  5
1BD
330
1F
100
AcDbEntity
  8
0
  6
Continuous
 62
     7
370
    15
100
AcDbCircle
 10
44.3466910884
 20
43.4770541553
 30
0.0
 40
0.2199999999999918
  0
CIRCLE
  5
1BE
330
1F
100
AcDbEntity
  8
0
  6
Continuous
 62
     7
370
    15
100
AcDbCircle
 10
35.5466910884
 20
45.8770541553
 30
0.0
 40
0.2199999999999989
  0
CIRCLE
  5
1BF
330
1F
100
AcDbEntity
  8
0
  6
Continuous
 62
     7
370
    15
100
AcDbCircle
 10
39.5466910884
 20
38.6770541553
 30
0.0
 40
0.2199999999999989
  0
CIRCLE
  5
1C0
330
1F
100
AcDbEntity
  8
0
  6
Continuous
 62
     7
370
    15
100
AcDbCircle
 10
44.3466910884
 20
42.6770541553
 30
0.0
 40
0.2199999999999989
  0
CIRCLE
  5
1C1
330
1F
100
AcDbEntity
  8
0
  6
Continuous
 62
     7
370
    15
100
AcDbCircle
 10
35.5466910884
 20
45.0770541553
 30
0.0
 40
0.2199999999999989
  0
CIRCLE
  5
1C2
330
1F
100
AcDbEntity
  8
0
  6
Continuous
 62
     7
370
    15
100
AcDbCircle
 10
39.5466910884
 20
37.8770541553
 30
0.0
 40
0.220000000000006
  0
CIRCLE
  5
1C3
330
1F
100
AcDbEntity
  8
0
  6
Continuous
 62
     7
370
    15
100
AcDbCircle
 10
44.3466910884
 20
41.8770541553
 30
0.0
 40
0.2199999999999989
  0
CIRCLE
  5
1C4
330
1F
100
AcDbEntity
  8
0
  6
Continuous
 62
     7
370
    15
100
AcDbCircle
 10
35.5466910884
 20
44.2770541553
 30
0.0
 40
0.2199999999999918
  0
CIRCLE
  5
1C5
330
1F
100
AcDbEntity
  8
0
  6
Continuous
 62
     7
370
    15
100
AcDbCircle
 10
39.5466910884
 20
37.0770541553
 30
0.0
 40
0.2199999999999989
  0
CIRCLE
  5
1C6
330
1F
100
AcDbEntity
  8
0
  6
Continuous
 62
     7
370
    15
100
AcDbCircle
 10
44.3466910884
 20
41.0770541553
 30
0.0
 40
0.2199999999999989
  0
CIRCLE
  5
1C7
330
1F
100
AcDbEntity
  8
0
  6
Continuous
 62
     7
370
    15
100
AcDbCircle
 10
35.5466910884
 20
43.4770541553
 30
0.0
 40
0.2199999999999918
  0
CIRCLE
  5
1C8
330
1F
100
AcDbEntity
  8
0
  6
Continuous
 62
     7
370
    15
100
AcDbCircle
 10
39.5466910884
 20
36.2770541553
 30
0.0
 40
0.2199999999999989
  0
CIRCLE
  5
1C9
330
1F
100
AcDbEntity
  8
0
  6
Continuous
 62
     7
370
    15
100
AcDbCircle
 10
44.3466910884
 20
40.2770541553
 30
0.0
 40
0.220000000000006
  0
CIRCLE
  5
1CA
330
1F
100
AcDbEntity
  8
0
  6
Continuous
 62
     7
370
    15
100
AcDbCircle
 10
35.5466910884
 20
42.6770541553
 30
0.0
 40
0.2199999999999989
  0
CIRCLE
  5
1CB
330
1F
100
AcDbEntity
  8
0
  6
Continuous
 62
     7
370
    15
100
AcDbCircle
 10
39.5466910884
 20
35.4770541553
 30
0.0
 40
0.2199999999999989
  0
CIRCLE
  5
1CC
330
1F
100
AcDbEntity
  8
0
  6
Continuous
 62
     7
370
    15
100
AcDbCircle
 10
44.3466910884
 20
39.4770541553
 30
0.0
 40
0.2199999999999989
  0
CIRCLE
  5
1CD
330
1F
100
AcDbEntity
  8
0
  6
Continuous
 62
     7
370
    15
100
AcDbCircle
 10
35.5466910884
 20
41.8770541553
 30
0.0
 40
0.2199999999999989
  0
CIRCLE
  5
1CE
330
1F
100
AcDbEntity
  8
0
  6
Continuous
 62
     7
370
    15
100
AcDbCircle
 10
40.3466910884
 20
45.8770541553
 30
0.0
 40
0.2199999999999989
  0
CIRCLE
  5
1CF
330
1F
100
AcDbEntity
  8
0
  6
Continuous
 62
     7
370
    15
100
AcDbCircle
 10
44.3466910884
 20
38.6770541553
 30
0.0
 40
0.2199999999999989
  0
CIRCLE
  5
1D0
330
1F
100
AcDbEntity
  8
0
  6
Continuous
 62
     7
370
    15
100
AcDbCircle
 10
35.5466910884
 20
41.0770541553
 30
0.0
 40
0.2199999999999989
  0
CIRCLE
  5
1D1
330
1F
100
AcDbEntity
  8
0
  6
Continuous
 62
     7
370
    15
100
AcDbCircle
 10
40.3466910884
 20
45.0770541553
 30
0.0
 40
0.2199999999999989
  0
CIRCLE
  5
1D2
330
1F
100
AcDbEntity
  8
0
  6
Continuous
 62
     7
370
    15
100
AcDbCircle
 10
44.3466910884
 20
37.8770541553
 30
0.0
 40
0.220000000000006
  0
CIRCLE
  5
1D3
330
1F
100
AcDbEntity
  8
0
  6
Continuous
 62
     7
370
    15
100
AcDbCircle
 10
35.5466910884
 20
40.2770541553
 30
0.0
 40
0.220000000000006
  0
CIRCLE
  5
1D4
330
1F
100
AcDbEntity
  8
0
  6
Continuous
 62
     7
370
    15
100
AcDbCircle
 10
40.3466910884
 20
44.2770541553
 30
0.0
 40
0.2199999999999918
  0
CIRCLE
  5
1D5
330
1F
100
AcDbEntity
  8
0
  6
Continuous
 62
     7
370
    15
100
AcDbCircle
 10
44.3466910884
 20
37.0770541553
 30
0.0
 40
0.2199999999999989
  0
CIRCLE
  5
1D6
330
1F
100
AcDbEntity
  8
0
  6
Continuous
 62
     7
370
    15
100
AcDbCircle
 10
35.5466910884
 20
39.4770541553
 30
0.0
 40
0.2199999999999989
  0
CIRCLE
  5
1D7
330
1F
100
AcDbEntity
  8
0
  6
Continuous
 62
     7
370
    15
100
AcDbCircle
 10
40.3466910884
 20
43.4770541553
 30
0.0
 40
0.2199999999999918
  0
CIRCLE
  5
1D8
330
1F
100
AcDbEntity
  8
0
  6
Continuous
 62
     7
370
    15
100
AcDbCircle
 10
44.3466910884
 20
36.2770541553
 30
0.0
 40
0.2199999999999989
  0
CIRCLE
  5
1D9
330
1F
100
AcDbEntity
  8
0
  6
Continuous
 62
     7
370
    15
100
AcDbCircle
 10
35.5466910884
 20
38.6770541553
 30
0.0
 40
0.2199999999999989
  0
CIRCLE
  5
1DA
330
1F
100
AcDbEntity
  8
0
  6
Continuous
 62
     7
370
    15
100
AcDbCircle
 10
40.3466910884
 20
42.6770541553
 30
0.0
 40
0.2199999999999989
  0
CIRCLE
  5
1DB
330
1F
100
AcDbEntity
  8
0
  6
Continuous
 62
     7
370
    15
100
AcDbCircle
 10
44.3466910884
 20
35.4770541553
 30
0.0
 40
0.2199999999999989
  0
CIRCLE
  5
1DC
330
1F
100
AcDbEntity
  8
0
  6
Continuous
 62
     7
370
    15
100
AcDbCircle
 10
35.5466910884
 20
37.8770541553
 30
0.0
 40
0.220000000000006
  0
CIRCLE
  5
1DD
330
1F
100
AcDbEntity
  8
0
  6
Continuous
 62
     7
370
    15
100
AcDbCircle
 10
37.1466910884
 20
44.2770541553
 30
0.0
 40
0.2199999999999918
  0
CIRCLE
  5
1DE
330
1F
100
AcDbEntity
  8
0
  6
Continuous
 62
     7
370
    15
100
AcDbCircle
 10
41.1466910884
 20
37.0770541553
 30
0.0
 40
0.2199999999999989
  0
CIRCLE
  5
1DF
330
1F
100
AcDbEntity
  8
0
  6
Continuous
 62
     7
370
    15
100
AcDbCircle
 10
35.5466910884
 20
37.0770541553
 30
0.0
 40
0.2199999999999989
  0
CIRCLE
  5
1E0
330
1F
100
AcDbEntity
  8
0
  6
Continuous
 62
     7
370
    15
100
AcDbCircle
 10
37.1466910884
 20
43.4770541553
 30
0.0
 40
0.2199999999999918
  0
CIRCLE
  5
1E1
330
1F
100
AcDbEntity
  8
0
  6
Continuous
 62
     7
370
    15
100
AcDbCircle
 10
41.1466910884
 20
36.2770541553
 30
0.0
 40
0.2199999999999989
  0
CIRCLE
  5
1E2
330
1F
100
AcDbEntity
  8
0
  6
Continuous
 62
     7
370
    15
100
AcDbCircle
 10
35.5466910884
 20
36.2770541553
 30
0.0
 40
0.2199999999999989
  0
CIRCLE
  5
1E3
330
1F
100
AcDbEntity
  8
0
  6
Continuous
 62
     7
370
    15
100
AcDbCircle
 10
40.3466910884
 20
40.2770541553
 30
0.0
 40
0.220000000000006
  0
CIRCLE
  5
1E4
330
1F
100
AcDbEntity
  8
0
  6
Continuous
 62
     7
370
    15
100
AcDbCircle
 10
41.1466910884
 20
35.4770541553
 30
0.0
 40
0.2199999999999989
  0
CIRCLE
  5
1E5
330
1F
100
AcDbEntity
  8
0
  6
Continuous
 62
     7
370
    15
100
AcDbCircle
 10
35.5466910884
 20
35.4770541553
 30
0.0
 40
0.2199999999999989
  0
CIRCLE
  5
1E6
330
1F
100
AcDbEntity
  8
0
  6
Continuous
 62
     7
370
    15
100
AcDbCircle
 10
40.3466910884
 20
39.4770541553
 30
0.0
 40
0.2199999999999989
  0
CIRCLE
  5
1E7
330
1F
100
AcDbEntity
  8
0
  6
Continuous
 62
     7
370
    15
100
AcDbCircle
 10
41.9466910884
 20
45.8770541553
 30
0.0
 40
0.2199999999999989
  0
CIRCLE
  5
1E8
330
1F
100
AcDbEntity
  8
0
  6
Continuous
 62
     7
370
    15
100
AcDbCircle
 10
36.3466910884
 20
45.8770541553
 30
0.0
 40
0.2199999999999989
  0
CIRCLE
  5
1E9
330
1F
100
AcDbEntity
  8
0
  6
Continuous
 62
     7
370
    15
100
AcDbCircle
 10
40.3466910884
 20
38.6770541553
 30
0.0
 40
0.2199999999999989
  0
CIRCLE
  5
1EA
330
1F
100
AcDbEntity
  8
0
  6
Continuous
 62
     7
370
    15
100
AcDbCircle
 10
41.9466910884
 20
45.0770541553
 30
0.0
 40
0.2199999999999989
  0
CIRCLE
  5
1EB
330
1F
100
AcDbEntity
  8
0
  6
Continuous
 62
     7
370
    15
100
AcDbCircle
 10
36.3466910884
 20
45.0770541553
 30
0.0
 40
0.2199999999999989
  0
CIRCLE
  5
1EC
330
1F
100
AcDbEntity
  8
0
  6
Continuous
 62
     7
370
    15
100
AcDbCircle
 10
40.3466910884
 20
37.8770541553
 30
0.0
 40
0.220000000000006
  0
CIRCLE
  5
1ED
330
1F
100
AcDbEntity
  8
0
  6
Continuous
 62
     7
370
    15
100
AcDbCircle
 10
41.9466910884
 20
44.2770541553
 30
0.0
 40
0.2199999999999918
  0
CIRCLE
  5
1EE
330
1F
100
AcDbEntity
  8
0
  6
Continuous
 62
     7
370
    15
100
AcDbCircle
 10
36.3466910884
 20
44.2770541553
 30
0.0
 40
0.2199999999999918
  0
CIRCLE
  5
1EF
330
1F
100
AcDbEntity
  8
0
  6
Continuous
 62
     7
370
    15
100
AcDbCircle
 10
40.3466910884
 20
37.0770541553
 30
0.0
 40
0.2199999999999989
  0
CIRCLE
  5
1F0
330
1F
100
AcDbEntity
  8
0
  6
Continuous
 62
     7
370
    15
100
AcDbCircle
 10
41.9466910884
 20
43.4770541553
 30
0.0
 40
0.2199999999999918
  0
CIRCLE
  5
1F1
330
1F
100
AcDbEntity
  8
0
  6
Continuous
 62
     7
370
    15
100
AcDbCircle
 10
36.3466910884
 20
43.4770541553
 30
0.0
 40
0.2199999999999918
  0
CIRCLE
  5
1F2
330
1F
100
AcDbEntity
  8
0
  6
Continuous
 62
     7
370
    15
100
AcDbCircle
 10
40.3466910884
 20
36.2770541553
 30
0.0
 40
0.2199999999999989
  0
CIRCLE
  5
1F3
330
1F
100
AcDbEntity
  8
0
  6
Continuous
 62
     7
370
    15
100
AcDbCircle
 10
41.9466910884
 20
42.6770541553
 30
0.0
 40
0.2199999999999989
  0
CIRCLE
  5
1F4
330
1F
100
AcDbEntity
  8
0
  6
Continuous
 62
     7
370
    15
100
AcDbCircle
 10
36.3466910884
 20
42.6770541553
 30
0.0
 40
0.2199999999999989
  0
CIRCLE
  5
1F5
330
1F
100
AcDbEntity
  8
0
  6
Continuous
 62
     7
370
    15
100
AcDbCircle
 10
40.3466910884
 20
35.4770541553
 30
0.0
 40
0.2199999999999989
  0
CIRCLE
  5
1F6
330
1F
100
AcDbEntity
  8
0
  6
Continuous
 62
     7
370
    15
100
AcDbCircle
 10
41.9466910884
 20
41.8770541553
 30
0.0
 40
0.2199999999999989
  0
CIRCLE
  5
1F7
330
1F
100
AcDbEntity
  8
0
  6
Continuous
 62
     7
370
    15
100
AcDbCircle
 10
36.3466910884
 20
41.8770541553
 30
0.0
 40
0.2199999999999989
  0
CIRCLE
  5
1F8
330
1F
100
AcDbEntity
  8
0
  6
Continuous
 62
     7
370
    15
100
AcDbCircle
 10
41.1466910884
 20
45.8770541553
 30
0.0
 40
0.2199999999999989
  0
CIRCLE
  5
1F9
330
1F
100
AcDbEntity
  8
0
  6
Continuous
 62
     7
370
    15
100
AcDbCircle
 10
41.9466910884
 20
41.0770541553
 30
0.0
 40
0.2199999999999989
  0
CIRCLE
  5
1FA
330
1F
100
AcDbEntity
  8
0
  6
Continuous
 62
     7
370
    15
100
AcDbCircle
 10
36.3466910884
 20
41.0770541553
 30
0.0
 40
0.2199999999999989
  0
CIRCLE
  5
1FB
330
1F
100
AcDbEntity
  8
0
  6
Continuous
 62
     7
370
    15
100
AcDbCircle
 10
41.1466910884
 20
45.0770541553
 30
0.0
 40
0.2199999999999989
  0
CIRCLE
  5
1FC
330
1F
100
AcDbEntity
  8
0
  6
Continuous
 62
     7
370
    15
100
AcDbCircle
 10
41.9466910884
 20
40.2770541553
 30
0.0
 40
0.220000000000006
  0
CIRCLE
  5
1FD
330
1F
100
AcDbEntity
  8
0
  6
Continuous
 62
     7
370
    15
100
AcDbCircle
 10
36.3466910884
 20
40.2770541553
 30
0.0
 40
0.220000000000006
  0
CIRCLE
  5
1FE
330
1F
100
AcDbEntity
  8
0
  6
Continuous
 62
     7
370
    15
100
AcDbCircle
 10
41.1466910884
 20
44.2770541553
 30
0.0
 40
0.2199999999999918
  0
CIRCLE
  5
1FF
330
1F
100
AcDbEntity
  8
0
  6
Continuous
 62
     7
370
    15
100
AcDbCircle
 10
41.9466910884
 20
39.4770541553
 30
0.0
 40
0.2199999999999989
  0
CIRCLE
  5
200
330
1F
100
AcDbEntity
  8
0
  6
Continuous
 62
     7
370
    15
100
AcDbCircle
 10
36.3466910884
 20
39.4770541553
 30
0.0
 40
0.2199999999999989
  0
CIRCLE
  5
201
330
1F
100
AcDbEntity
  8
0
  6
Continuous
 62
     7
370
    15
100
AcDbCircle
 10
41.1466910884
 20
43.4770541553
 30
0.0
 40
0.2199999999999918
  0
CIRCLE
  5
202
330
1F
100
AcDbEntity
  8
0
  6
Continuous
 62
     7
370
    15
100
AcDbCircle
 10
41.9466910884
 20
38.6770541553
 30
0.0
 40
0.2199999999999989
  0
CIRCLE
  5
203
330
1F
100
AcDbEntity
  8
0
  6
Continuous
 62
     7
370
    15
100
AcDbCircle
 10
36.3466910884
 20
38.6770541553
 30
0.0
 40
0.2199999999999989
  0
CIRCLE
  5
204
330
1F
100
AcDbEntity
  8
0
  6
Continuous
 62
     7
370
    15
100
AcDbCircle
 10
41.1466910884
 20
42.6770541553
 30
0.0
 40
0.2199999999999989
  0
CIRCLE
  5
205
330
1F
100
AcDbEntity
  8
0
  6
Continuous
 62
     7
370
    15
100
AcDbCircle
 10
41.9466910884
 20
37.8770541553
 30
0.0
 40
0.220000000000006
  0
CIRCLE
  5
206
330
1F
100
AcDbEntity
  8
0
  6
Continuous
 62
     7
370
    15
100
AcDbCircle
 10
36.3466910884
 20
37.8770541553
 30
0.0
 40
0.220000000000006
  0
CIRCLE
  5
207
330
1F
100
AcDbEntity
  8
0
  6
Continuous
 62
     7
370
    15
100
AcDbCircle
 10
41.1466910884
 20
41.8770541553
 30
0.0
 40
0.2199999999999989
  0
CIRCLE
  5
208
330
1F
100
AcDbEntity
  8
0
  6
Continuous
 62
     7
370
    15
100
AcDbCircle
 10
41.9466910884
 20
37.0770541553
 30
0.0
 40
0.2199999999999989
  0
CIRCLE
  5
209
330
1F
100
AcDbEntity
  8
0
  6
Continuous
 62
     7
370
    15
100
AcDbCircle
 10
36.3466910884
 20
37.0770541553
 30
0.0
 40
0.2199999999999989
  0
CIRCLE
  5
20A
330
1F
100
AcDbEntity
  8
0
  6
Continuous
 62
     7
370
    15
100
AcDbCircle
 10
41.1466910884
 20
41.0770541553
 30
0.0
 40
0.2199999999999989
  0
CIRCLE
  5
20B
330
1F
100
AcDbEntity
  8
0
  6
Continuous
 62
     7
370
    15
100
AcDbCircle
 10
41.9466910884
 20
36.2770541553
 30
0.0
 40
0.2199999999999989
  0
CIRCLE
  5
20C
330
1F
100
AcDbEntity
  8
0
  6
Continuous
 62
     7
370
    15
100
AcDbCircle
 10
36.3466910884
 20
36.2770541553
 30
0.0
 40
0.2199999999999989
  0
CIRCLE
  5
20D
330
1F
100
AcDbEntity
  8
0
  6
Continuous
 62
     7
370
    15
100
AcDbCircle
 10
41.1466910884
 20
40.2770541553
 30
0.0
 40
0.220000000000006
  0
CIRCLE
  5
20E
330
1F
100
AcDbEntity
  8
0
  6
Continuous
 62
     7
370
    15
100
AcDbCircle
 10
41.9466910884
 20
35.4770541553
 30
0.0
 40
0.2199999999999989
  0
CIRCLE
  5
20F
330
1F
100
AcDbEntity
  8
0
  6
Continuous
 62
     7
370
    15
100
AcDbCircle
 10
36.3466910884
 20
35.4770541553
 30
0.0
 40
0.2199999999999989
  0
CIRCLE
  5
210
330
1F
100
AcDbEntity
  8
0
  6
Continuous
 62
     7
370
    15
100
AcDbCircle
 10
41.1466910884
 20
39.4770541553
 30
0.0
 40
0.2199999999999989
  0
CIRCLE
  5
211
330
1F
100
AcDbEntity
  8
0
  6
Continuous
 62
     7
370
    15
100
AcDbCircle
 10
37.1466910884
 20
45.8770541553
 30
0.0
 40
0.2199999999999989
  0
CIRCLE
  5
212
330
1F
100
AcDbEntity
  8
0
  6
Continuous
 62
     7
370
    15
100
AcDbCircle
 10
41.1466910884
 20
38.6770541553
 30
0.0
 40
0.2199999999999989
  0
CIRCLE
  5
213
330
1F
100
AcDbEntity
  8
0
  6
Continuous
 62
     7
370
    15
100
AcDbCircle
 10
42.7466910884
 20
45.0770541553
 30
0.0
 40
0.2199999999999989
  0
CIRCLE
  5
214
330
1F
100
AcDbEntity
  8
0
  6
Continuous
 62
     7
370
    15
100
AcDbCircle
 10
37.1466910884
 20
45.0770541553
 30
0.0
 40
0.2199999999999989
  0
CIRCLE
  5
215
330
1F
100
AcDbEntity
  8
0
  6
Continuous
 62
     7
370
    15
100
AcDbCircle
 10
41.1466910884
 20
37.8770541553
 30
0.0
 40
0.220000000000006
  0
CIRCLE
  5
216
330
1F
100
AcDbEntity
  8
0
  6
Continuous
 62
     7
370
    15
100
AcDbCircle
 10
42.7466910884
 20
44.2770541553
 30
0.0
 40
0.2199999999999918
  0
CIRCLE
  5
217
330
1F
100
AcDbEntity
  8
0
  6
Continuous
 62
     7
370
    15
100
AcDbCircle
 10
37.1466910884
 20
36.2770541553
 30
0.0
 40
0.2199999999999989
  0
CIRCLE
  5
218
330
1F
100
AcDbEntity
  8
0
  6
Continuous
 62
     7
370
    15
100
AcDbCircle
 10
42.7466910884
 20
43.4770541553
 30
0.0
 40
0.2199999999999918
  0
CIRCLE
  5
219
330
1F
100
AcDbEntity
  8
0
  6
Continuous
 62
     7
370
    15
100
AcDbCircle
 10
37.1466910884
 20
35.4770541553
 30
0.0
 40
0.2199999999999989
  0
CIRCLE
  5
21A
330
1F
100
AcDbEntity
  8
0
  6
Continuous
 62
     7
370
    15
100
AcDbCircle
 10
37.1466910884
 20
42.6770541553
 30
0.0
 40
0.2199999999999989
  0
CIRCLE
  5
21B
330
1F
100
AcDbEntity
  8
0
  6
Continuous
 62
     7
370
    15
100
AcDbCircle
 10
37.9466910884
 20
45.8770541553
 30
0.0
 40
0.2199999999999989
  0
CIRCLE
  5
21C
330
1F
100
AcDbEntity
  8
0
  6
Continuous
 62
     7
370
    15
100
AcDbCircle
 10
37.1466910884
 20
41.8770541553
 30
0.0
 40
0.2199999999999989
  0
CIRCLE
  5
21D
330
1F
100
AcDbEntity
  8
0
  6
Continuous
 62
     7
370
    15
100
AcDbCircle
 10
37.9466910884
 20
45.0770541553
 30
0.0
 40
0.2199999999999989
  0
CIRCLE
  5
21E
330
1F
100
AcDbEntity
  8
0
  6
Continuous
 62
     7
370
    15
100
AcDbCircle
 10
37.1466910884
 20
41.0770541553
 30
0.0
 40
0.2199999999999989
  0
CIRCLE
  5
21F
330
1F
100
AcDbEntity
  8
0
  6
Continuous
 62
     7
370
    15
100
AcDbCircle
 10
37.9466910884
 20
44.2770541553
 30
0.0
 40
0.2199999999999918
  0
CIRCLE
  5
220
330
1F
100
AcDbEntity
  8
0
  6
Continuous
 62
     7
370
    15
100
AcDbCircle
 10
37.9466910884
 20
40.2770541553
 30
0.0
 40
0.220000000000006
  0
CIRCLE
  5
221
330
1F
100
AcDbEntity
  8
0
  6
Continuous
 62
     7
370
    15
100
AcDbCircle
 10
37.1466910884
 20
40.2770541553
 30
0.0
 40
0.220000000000006
  0
CIRCLE
  5
222
330
1F
100
AcDbEntity
  8
0
  6
Continuous
 62
     7
370
    15
100
AcDbCircle
 10
37.9466910884
 20
43.4770541553
 30
0.0
 40
0.2199999999999918
  0
CIRCLE
  5
223
330
1F
100
AcDbEntity
  8
0
  6
Continuous
 62
     7
370
    15
100
AcDbCircle
 10
37.1466910884
 20
37.8770541553
 30
0.0
 40
0.220000000000006
  0
CIRCLE
  5
224
330
1F
100
AcDbEntity
  8
0
  6
Continuous
 62
     7
370
    15
100
AcDbCircle
 10
37.1466910884
 20
39.4770541553
 30
0.0
 40
0.2199999999999989
  0
CIRCLE
  5
225
330
1F
100
AcDbEntity
  8
0
  6
Continuous
 62
     7
370
    15
100
AcDbCircle
 10
37.1466910884
 20
38.6770541553
 30
0.0
 40
0.2199999999999989
  0
CIRCLE
  5
226
330
1F
100
AcDbEntity
  8
0
  6
Continuous
 62
     7
370
    15
100
AcDbCircle
 10
37.9466910884
 20
41.8770541553
 30
0.0
 40
0.2199999999999989
  0
CIRCLE
  5
227
330
1F
100
AcDbEntity
  8
0
  6
Continuous
 62
     7
370
    15
100
AcDbCircle
 10
37.9466910884
 20
41.0770541553
 30
0.0
 40
0.2199999999999989
  0
CIRCLE
  5
228
330
1F
100
AcDbEntity
  8
0
  6
Continuous
 62
     7
370
    15
100
AcDbCircle
 10
37.1466910884
 20
37.0770541553
 30
0.0
 40
0.2199999999999989
  0
CIRCLE
  5
229
330
1F
100
AcDbEntity
  8
0
  6
Continuous
 62
     7
370
    15
100
AcDbCircle
 10
37.9466910884
 20
42.6770541553
 30
0.0
 40
0.2199999999999989
  0
CIRCLE
  5
22A
330
1F
100
AcDbEntity
  8
0
  6
Continuous
 62
     7
370
    15
100
AcDbCircle
 10
42.7466910884
 20
42.6770541553
 30
0.0
 40
0.1400000000000006
  0
CIRCLE
  5
22B
330
1F
100
AcDbEntity
  8
0
  6
Continuous
 62
     7
370
    15
100
AcDbCircle
 10
41.9466910884
 20
45.8770541553
 30
0.0
 40
0.1400000000000006
  0
CIRCLE
  5
22C
330
1F
100
AcDbEntity
  8
0
  6
Continuous
 62
     7
370
    15
100
AcDbCircle
 10
33.9466910884
 20
45.8770541553
 30
0.0
 40
0.1400000000000006
  0
CIRCLE
  5
22D
330
1F
100
AcDbEntity
  8
0
  6
Continuous
 62
     7
370
    15
100
AcDbCircle
 10
41.1466910884
 20
38.6770541553
 30
0.0
 40
0.1399999999999935
  0
CIRCLE
  5
22E
330
1F
100
AcDbEntity
  8
0
  6
Continuous
 62
     7
370
    15
100
AcDbCircle
 10
41.9466910884
 20
44.2770541553
 30
0.0
 40
0.1400000000000006
  0
CIRCLE
  5
22F
330
1F
100
AcDbEntity
  8
0
  6
Continuous
 62
     7
370
    15
100
AcDbCircle
 10
40.3466910884
 20
37.0770541553
 30
0.0
 40
0.1400000000000006
  0
CIRCLE
  5
230
330
1F
100
AcDbEntity
  8
0
  6
Continuous
 62
     7
370
    15
100
AcDbCircle
 10
41.1466910884
 20
36.2770541553
 30
0.0
 40
0.1399999999999935
  0
CIRCLE
  5
231
330
1F
100
AcDbEntity
  8
0
  6
Continuous
 62
     7
370
    15
100
AcDbCircle
 10
40.3466910884
 20
40.2770541553
 30
0.0
 40
0.1400000000000006
  0
CIRCLE
  5
232
330
1F
100
AcDbEntity
  8
0
  6
Continuous
 62
     7
370
    15
100
AcDbCircle
 10
41.9466910884
 20
45.0770541553
 30
0.0
 40
0.1399999999999935
  0
CIRCLE
  5
233
330
1F
100
AcDbEntity
  8
0
  6
Continuous
 62
     7
370
    15
100
AcDbCircle
 10
41.1466910884
 20
35.4770541553
 30
0.0
 40
0.1400000000000006
  0
CIRCLE
  5
234
330
1F
100
AcDbEntity
  8
0
  6
Continuous
 62
     7
370
    15
100
AcDbCircle
 10
40.3466910884
 20
39.4770541553
 30
0.0
 40
0.1400000000000006
  0
CIRCLE
  5
235
330
1F
100
AcDbEntity
  8
0
  6
Continuous
 62
     7
370
    15
100
AcDbCircle
 10
37.9466910884
 20
41.0770541553
 30
0.0
 40
0.1400000000000006
  0
CIRCLE
  5
236
330
1F
100
AcDbEntity
  8
0
  6
Continuous
 62
     7
370
    15
100
AcDbCircle
 10
40.3466910884
 20
35.4770541553
 30
0.0
 40
0.1400000000000006
  0
CIRCLE
  5
237
330
1F
100
AcDbEntity
  8
0
  6
Continuous
 62
     7
370
    15
100
AcDbCircle
 10
40.3466910884
 20
38.6770541553
 30
0.0
 40
0.1399999999999935
  0
CIRCLE
  5
238
330
1F
100
AcDbEntity
  8
0
  6
Continuous
 62
     7
370
    15
100
AcDbCircle
 10
41.1466910884
 20
37.8770541553
 30
0.0
 40
0.1400000000000077
  0
CIRCLE
  5
239
330
1F
100
AcDbEntity
  8
0
  6
Continuous
 62
     7
370
    15
100
AcDbCircle
 10
41.1466910884
 20
45.8770541553
 30
0.0
 40
0.1400000000000006
  0
CIRCLE
  5
23A
330
1F
100
AcDbEntity
  8
0
  6
Continuous
 62
     7
370
    15
100
AcDbCircle
 10
40.3466910884
 20
37.8770541553
 30
0.0
 40
0.1400000000000077
  0
CIRCLE
  5
23B
330
1F
100
AcDbEntity
  8
0
  6
Continuous
 62
     7
370
    15
100
AcDbCircle
 10
41.1466910884
 20
37.0770541553
 30
0.0
 40
0.1400000000000006
  0
CIRCLE
  5
23C
330
1F
100
AcDbEntity
  8
0
  6
Continuous
 62
     7
370
    15
100
AcDbCircle
 10
41.1466910884
 20
45.0770541553
 30
0.0
 40
0.1399999999999935
  0
CIRCLE
  5
23D
330
1F
100
AcDbEntity
  8
0
  6
Continuous
 62
     7
370
    15
100
AcDbCircle
 10
35.5466910884
 20
37.0770541553
 30
0.0
 40
0.1400000000000006
  0
CIRCLE
  5
23E
330
1F
100
AcDbEntity
  8
0
  6
Continuous
 62
     7
370
    15
100
AcDbCircle
 10
37.1466910884
 20
43.4770541553
 30
0.0
 40
0.1399999999999864
  0
CIRCLE
  5
23F
330
1F
100
AcDbEntity
  8
0
  6
Continuous
 62
     7
370
    15
100
AcDbCircle
 10
41.1466910884
 20
44.2770541553
 30
0.0
 40
0.1400000000000006
  0
CIRCLE
  5
240
330
1F
100
AcDbEntity
  8
0
  6
Continuous
 62
     7
370
    15
100
AcDbCircle
 10
35.5466910884
 20
36.2770541553
 30
0.0
 40
0.1399999999999935
  0
CIRCLE
  5
241
330
1F
100
AcDbEntity
  8
0
  6
Continuous
 62
     7
370
    15
100
AcDbCircle
 10
41.1466910884
 20
39.4770541553
 30
0.0
 40
0.1400000000000006
  0
CIRCLE
  5
242
330
1F
100
AcDbEntity
  8
0
  6
Continuous
 62
     7
370
    15
100
AcDbCircle
 10
41.1466910884
 20
43.4770541553
 30
0.0
 40
0.1399999999999864
  0
CIRCLE
  5
243
330
1F
100
AcDbEntity
  8
0
  6
Continuous
 62
     7
370
    15
100
AcDbCircle
 10
35.5466910884
 20
35.4770541553
 30
0.0
 40
0.1400000000000006
  0
CIRCLE
  5
244
330
1F
100
AcDbEntity
  8
0
  6
Continuous
 62
     7
370
    15
100
AcDbCircle
 10
37.1466910884
 20
41.8770541553
 30
0.0
 40
0.1399999999999935
  0
CIRCLE
  5
245
330
1F
100
AcDbEntity
  8
0
  6
Continuous
 62
     7
370
    15
100
AcDbCircle
 10
41.1466910884
 20
42.6770541553
 30
0.0
 40
0.1400000000000006
  0
CIRCLE
  5
246
330
1F
100
AcDbEntity
  8
0
  6
Continuous
 62
     7
370
    15
100
AcDbCircle
 10
36.3466910884
 20
45.8770541553
 30
0.0
 40
0.1400000000000006
  0
CIRCLE
  5
247
330
1F
100
AcDbEntity
  8
0
  6
Continuous
 62
     7
370
    15
100
AcDbCircle
 10
37.1466910884
 20
41.0770541553
 30
0.0
 40
0.1400000000000006
  0
CIRCLE
  5
248
330
1F
100
AcDbEntity
  8
0
  6
Continuous
 62
     7
370
    15
100
AcDbCircle
 10
41.1466910884
 20
41.8770541553
 30
0.0
 40
0.1399999999999935
  0
CIRCLE
  5
249
330
1F
100
AcDbEntity
  8
0
  6
Continuous
 62
     7
370
    15
100
AcDbCircle
 10
36.3466910884
 20
45.0770541553
 30
0.0
 40
0.1399999999999935
  0
CIRCLE
  5
24A
330
1F
100
AcDbEntity
  8
0
  6
Continuous
 62
     7
370
    15
100
AcDbCircle
 10
37.1466910884
 20
40.2770541553
 30
0.0
 40
0.1400000000000006
  0
CIRCLE
  5
24B
330
1F
100
AcDbEntity
  8
0
  6
Continuous
 62
     7
370
    15
100
AcDbCircle
 10
41.1466910884
 20
41.0770541553
 30
0.0
 40
0.1400000000000006
  0
CIRCLE
  5
24C
330
1F
100
AcDbEntity
  8
0
  6
Continuous
 62
     7
370
    15
100
AcDbCircle
 10
36.3466910884
 20
44.2770541553
 30
0.0
 40
0.1400000000000006
  0
CIRCLE
  5
24D
330
1F
100
AcDbEntity
  8
0
  6
Continuous
 62
     7
370
    15
100
AcDbCircle
 10
37.1466910884
 20
39.4770541553
 30
0.0
 40
0.1400000000000006
  0
CIRCLE
  5
24E
330
1F
100
AcDbEntity
  8
0
  6
Continuous
 62
     7
370
    15
100
AcDbCircle
 10
41.1466910884
 20
40.2770541553
 30
0.0
 40
0.1400000000000006
  0
CIRCLE
  5
24F
330
1F
100
AcDbEntity
  8
0
  6
Continuous
 62
     7
370
    15
100
AcDbCircle
 10
37.1466910884
 20
42.6770541553
 30
0.0
 40
0.1400000000000006
  0
CIRCLE
  5
250
330
1F
100
AcDbEntity
  8
0
  6
Continuous
 62
     7
370
    15
100
AcDbCircle
 10
40.3466910884
 20
36.2770541553
 30
0.0
 40
0.1399999999999935
  0
CIRCLE
  5
251
330
1F
100
AcDbEntity
  8
0
  6
Continuous
 62
     7
370
    15
100
AcDbCircle
 10
37.9466910884
 20
41.8770541553
 30
0.0
 40
0.1399999999999935
  0
CIRCLE
  5
252
330
1F
100
AcDbEntity
  8
0
  6
Continuous
 62
     7
370
    15
100
AcDbCircle
 10
42.7466910884
 20
45.8770541553
 30
0.0
 40
0.1400000000000006
  0
CIRCLE
  5
253
330
1F
100
AcDbEntity
  8
0
  6
Continuous
 62
     7
370
    15
100
AcDbCircle
 10
37.1466910884
 20
45.8770541553
 30
0.0
 40
0.1400000000000006
  0
CIRCLE
  5
254
330
1F
100
AcDbEntity
  8
0
  6
Continuous
 62
     7
370
    15
100
AcDbCircle
 10
44.3466910884
 20
36.2770541553
 30
0.0
 40
0.1399999999999935
  0
CIRCLE
  5
255
330
1F
100
AcDbEntity
  8
0
  6
Continuous
 62
     7
370
    15
100
AcDbCircle
 10
42.7466910884
 20
45.0770541553
 30
0.0
 40
0.1399999999999935
  0
CIRCLE
  5
256
330
1F
100
AcDbEntity
  8
0
  6
Continuous
 62
     7
370
    15
100
AcDbCircle
 10
37.1466910884
 20
45.0770541553
 30
0.0
 40
0.1399999999999935
  0
CIRCLE
  5
257
330
1F
100
AcDbEntity
  8
0
  6
Continuous
 62
     7
370
    15
100
AcDbCircle
 10
37.9466910884
 20
40.2770541553
 30
0.0
 40
0.1400000000000006
  0
CIRCLE
  5
258
330
1F
100
AcDbEntity
  8
0
  6
Continuous
 62
     7
370
    15
100
AcDbCircle
 10
42.7466910884
 20
44.2770541553
 30
0.0
 40
0.1400000000000006
  0
CIRCLE
  5
259
330
1F
100
AcDbEntity
  8
0
  6
Continuous
 62
     7
370
    15
100
AcDbCircle
 10
37.1466910884
 20
44.2770541553
 30
0.0
 40
0.1400000000000006
  0
CIRCLE
  5
25A
330
1F
100
AcDbEntity
  8
0
  6
Continuous
 62
     7
370
    15
100
AcDbCircle
 10
37.9466910884
 20
39.4770541553
 30
0.0
 40
0.1400000000000006
  0
CIRCLE
  5
25B
330
1F
100
AcDbEntity
  8
0
  6
Continuous
 62
     7
370
    15
100
AcDbCircle
 10
42.7466910884
 20
43.4770541553
 30
0.0
 40
0.1399999999999864
  0
CIRCLE
  5
25C
330
1F
100
AcDbEntity
  8
0
  6
Continuous
 62
     7
370
    15
100
AcDbCircle
 10
40.3466910884
 20
41.0770541553
 30
0.0
 40
0.1400000000000006
  0
CIRCLE
  5
25D
330
1F
100
AcDbEntity
  8
0
  6
Continuous
 62
     7
370
    15
100
AcDbCircle
 10
37.9466910884
 20
38.6770541553
 30
0.0
 40
0.1399999999999935
  0
CIRCLE
  5
25E
330
1F
100
AcDbEntity
  8
0
  6
Continuous
 62
     7
370
    15
100
AcDbCircle
 10
39.5466910884
 20
45.0770541553
 30
0.0
 40
0.1399999999999935
  0
CIRCLE
  5
25F
330
1F
100
AcDbEntity
  8
0
  6
Continuous
 62
     7
370
    15
100
AcDbCircle
 10
33.9466910884
 20
45.0770541553
 30
0.0
 40
0.1399999999999935
  0
CIRCLE
  5
260
330
1F
100
AcDbEntity
  8
0
  6
Continuous
 62
     7
370
    15
100
AcDbCircle
 10
37.9466910884
 20
37.8770541553
 30
0.0
 40
0.1400000000000077
  0
CIRCLE
  5
261
330
1F
100
AcDbEntity
  8
0
  6
Continuous
 62
     7
370
    15
100
AcDbCircle
 10
42.7466910884
 20
41.8770541553
 30
0.0
 40
0.1399999999999935
  0
CIRCLE
  5
262
330
1F
100
AcDbEntity
  8
0
  6
Continuous
 62
     7
370
    15
100
AcDbCircle
 10
33.9466910884
 20
44.2770541553
 30
0.0
 40
0.1400000000000006
  0
CIRCLE
  5
263
330
1F
100
AcDbEntity
  8
0
  6
Continuous
 62
     7
370
    15
100
AcDbCircle
 10
37.9466910884
 20
37.0770541553
 30
0.0
 40
0.1400000000000006
  0
CIRCLE
  5
264
330
1F
100
AcDbEntity
  8
0
  6
Continuous
 62
     7
370
    15
100
AcDbCircle
 10
42.7466910884
 20
41.0770541553
 30
0.0
 40
0.1400000000000006
  0
CIRCLE
  5
265
330
1F
100
AcDbEntity
  8
0
  6
Continuous
 62
     7
370
    15
100
AcDbCircle
 10
33.9466910884
 20
43.4770541553
 30
0.0
 40
0.1399999999999864
  0
CIRCLE
  5
266
330
1F
100
AcDbEntity
  8
0
  6
Continuous
 62
     7
370
    15
100
AcDbCircle
 10
37.9466910884
 20
36.2770541553
 30
0.0
 40
0.1399999999999935
  0
CIRCLE
  5
267
330
1F
100
AcDbEntity
  8
0
  6
Continuous
 62
     7
370
    15
100
AcDbCircle
 10
42.7466910884
 20
40.2770541553
 30
0.0
 40
0.1400000000000006
  0
CIRCLE
  5
268
330
1F
100
AcDbEntity
  8
0
  6
Continuous
 62
     7
370
    15
100
AcDbCircle
 10
33.9466910884
 20
42.6770541553
 30
0.0
 40
0.1400000000000006
  0
CIRCLE
  5
269
330
1F
100
AcDbEntity
  8
0
  6
Continuous
 62
     7
370
    15
100
AcDbCircle
 10
37.9466910884
 20
35.4770541553
 30
0.0
 40
0.1400000000000006
  0
CIRCLE
  5
26A
330
1F
100
AcDbEntity
  8
0
  6
Continuous
 62
     7
370
    15
100
AcDbCircle
 10
42.7466910884
 20
39.4770541553
 30
0.0
 40
0.1400000000000006
  0
CIRCLE
  5
26B
330
1F
100
AcDbEntity
  8
0
  6
Continuous
 62
     7
370
    15
100
AcDbCircle
 10
33.9466910884
 20
41.8770541553
 30
0.0
 40
0.1399999999999935
  0
CIRCLE
  5
26C
330
1F
100
AcDbEntity
  8
0
  6
Continuous
 62
     7
370
    15
100
AcDbCircle
 10
38.7466910884
 20
45.8770541553
 30
0.0
 40
0.1400000000000006
  0
CIRCLE
  5
26D
330
1F
100
AcDbEntity
  8
0
  6
Continuous
 62
     7
370
    15
100
AcDbCircle
 10
36.3466910884
 20
43.4770541553
 30
0.0
 40
0.1399999999999864
  0
CIRCLE
  5
26E
330
1F
100
AcDbEntity
  8
0
  6
Continuous
 62
     7
370
    15
100
AcDbCircle
 10
33.9466910884
 20
41.0770541553
 30
0.0
 40
0.1400000000000006
  0
CIRCLE
  5
26F
330
1F
100
AcDbEntity
  8
0
  6
Continuous
 62
     7
370
    15
100
AcDbCircle
 10
38.7466910884
 20
45.0770541553
 30
0.0
 40
0.1399999999999935
  0
CIRCLE
  5
270
330
1F
100
AcDbEntity
  8
0
  6
Continuous
 62
     7
370
    15
100
AcDbCircle
 10
36.3466910884
 20
42.6770541553
 30
0.0
 40
0.1400000000000006
  0
CIRCLE
  5
271
330
1F
100
AcDbEntity
  8
0
  6
Continuous
 62
     7
370
    15
100
AcDbCircle
 10
33.9466910884
 20
40.2770541553
 30
0.0
 40
0.1400000000000006
  0
CIRCLE
  5
272
330
1F
100
AcDbEntity
  8
0
  6
Continuous
 62
     7
370
    15
100
AcDbCircle
 10
38.7466910884
 20
44.2770541553
 30
0.0
 40
0.1400000000000006
  0
CIRCLE
  5
273
330
1F
100
AcDbEntity
  8
0
  6
Continuous
 62
     7
370
    15
100
AcDbCircle
 10
36.3466910884
 20
41.8770541553
 30
0.0
 40
0.1399999999999935
  0
CIRCLE
  5
274
330
1F
100
AcDbEntity
  8
0
  6
Continuous
 62
     7
370
    15
100
AcDbCircle
 10
33.9466910884
 20
39.4770541553
 30
0.0
 40
0.1400000000000006
  0
CIRCLE
  5
275
330
1F
100
AcDbEntity
  8
0
  6
Continuous
 62
     7
370
    15
100
AcDbCircle
 10
38.7466910884
 20
43.4770541553
 30
0.0
 40
0.1399999999999864
  0
CIRCLE
  5
276
330
1F
100
AcDbEntity
  8
0
  6
Continuous
 62
     7
370
    15
100
AcDbCircle
 10
36.3466910884
 20
41.0770541553
 30
0.0
 40
0.1400000000000006
  0
CIRCLE
  5
277
330
1F
100
AcDbEntity
  8
0
  6
Continuous
 62
     7
370
    15
100
AcDbCircle
 10
33.9466910884
 20
38.6770541553
 30
0.0
 40
0.1399999999999935
  0
CIRCLE
  5
278
330
1F
100
AcDbEntity
  8
0
  6
Continuous
 62
     7
370
    15
100
AcDbCircle
 10
38.7466910884
 20
42.6770541553
 30
0.0
 40
0.1400000000000006
  0
CIRCLE
  5
279
330
1F
100
AcDbEntity
  8
0
  6
Continuous
 62
     7
370
    15
100
AcDbCircle
 10
36.3466910884
 20
40.2770541553
 30
0.0
 40
0.1400000000000006
  0
CIRCLE
  5
27A
330
1F
100
AcDbEntity
  8
0
  6
Continuous
 62
     7
370
    15
100
AcDbCircle
 10
33.9466910884
 20
37.8770541553
 30
0.0
 40
0.1400000000000077
  0
CIRCLE
  5
27B
330
1F
100
AcDbEntity
  8
0
  6
Continuous
 62
     7
370
    15
100
AcDbCircle
 10
38.7466910884
 20
41.8770541553
 30
0.0
 40
0.1399999999999935
  0
CIRCLE
  5
27C
330
1F
100
AcDbEntity
  8
0
  6
Continuous
 62
     7
370
    15
100
AcDbCircle
 10
36.3466910884
 20
39.4770541553
 30
0.0
 40
0.1400000000000006
  0
CIRCLE
  5
27D
330
1F
100
AcDbEntity
  8
0
  6
Continuous
 62
     7
370
    15
100
AcDbCircle
 10
33.9466910884
 20
37.0770541553
 30
0.0
 40
0.1400000000000006
  0
CIRCLE
  5
27E
330
1F
100
AcDbEntity
  8
0
  6
Continuous
 62
     7
370
    15
100
AcDbCircle
 10
38.7466910884
 20
41.0770541553
 30
0.0
 40
0.1400000000000006
  0
CIRCLE
  5
27F
330
1F
100
AcDbEntity
  8
0
  6
Continuous
 62
     7
370
    15
100
AcDbCircle
 10
36.3466910884
 20
38.6770541553
 30
0.0
 40
0.1399999999999935
  0
CIRCLE
  5
280
330
1F
100
AcDbEntity
  8
0
  6
Continuous
 62
     7
370
    15
100
AcDbCircle
 10
33.9466910884
 20
36.2770541553
 30
0.0
 40
0.1399999999999935
  0
CIRCLE
  5
281
330
1F
100
AcDbEntity
  8
0
  6
Continuous
 62
     7
370
    15
100
AcDbCircle
 10
38.7466910884
 20
40.2770541553
 30
0.0
 40
0.1400000000000006
  0
CIRCLE
  5
282
330
1F
100
AcDbEntity
  8
0
  6
Continuous
 62
     7
370
    15
100
AcDbCircle
 10
36.3466910884
 20
37.8770541553
 30
0.0
 40
0.1400000000000077
  0
CIRCLE
  5
283
330
1F
100
AcDbEntity
  8
0
  6
Continuous
 62
     7
370
    15
100
AcDbCircle
 10
33.9466910884
 20
35.4770541553
 30
0.0
 40
0.1400000000000006
  0
CIRCLE
  5
284
330
1F
100
AcDbEntity
  8
0
  6
Continuous
 62
     7
370
    15
100
AcDbCircle
 10
38.7466910884
 20
39.4770541553
 30
0.0
 40
0.1400000000000006
  0
CIRCLE
  5
285
330
1F
100
AcDbEntity
  8
0
  6
Continuous
 62
     7
370
    15
100
AcDbCircle
 10
36.3466910884
 20
37.0770541553
 30
0.0
 40
0.1400000000000006
  0
CIRCLE
  5
286
330
1F
100
AcDbEntity
  8
0
  6
Continuous
 62
     7
370
    15
100
AcDbCircle
 10
34.7466910884
 20
45.8770541553
 30
0.0
 40
0.1400000000000006
  0
CIRCLE
  5
287
330
1F
100
AcDbEntity
  8
0
  6
Continuous
 62
     7
370
    15
100
AcDbCircle
 10
38.7466910884
 20
38.6770541553
 30
0.0
 40
0.1399999999999935
  0
CIRCLE
  5
288
330
1F
100
AcDbEntity
  8
0
  6
Continuous
 62
     7
370
    15
100
AcDbCircle
 10
36.3466910884
 20
36.2770541553
 30
0.0
 40
0.1399999999999935
  0
CIRCLE
  5
289
330
1F
100
AcDbEntity
  8
0
  6
Continuous
 62
     7
370
    15
100
AcDbCircle
 10
34.7466910884
 20
45.0770541553
 30
0.0
 40
0.1399999999999935
  0
CIRCLE
  5
28A
330
1F
100
AcDbEntity
  8
0
  6
Continuous
 62
     7
370
    15
100
AcDbCircle
 10
38.7466910884
 20
37.8770541553
 30
0.0
 40
0.1400000000000077
  0
CIRCLE
  5
28B
330
1F
100
AcDbEntity
  8
0
  6
Continuous
 62
     7
370
    15
100
AcDbCircle
 10
36.3466910884
 20
35.4770541553
 30
0.0
 40
0.1400000000000006
  0
CIRCLE
  5
28C
330
1F
100
AcDbEntity
  8
0
  6
Continuous
 62
     7
370
    15
100
AcDbCircle
 10
34.7466910884
 20
44.2770541553
 30
0.0
 40
0.1400000000000006
  0
CIRCLE
  5
28D
330
1F
100
AcDbEntity
  8
0
  6
Continuous
 62
     7
370
    15
100
AcDbCircle
 10
38.7466910884
 20
37.0770541553
 30
0.0
 40
0.1400000000000006
  0
CIRCLE
  5
28E
330
1F
100
AcDbEntity
  8
0
  6
Continuous
 62
     7
370
    15
100
AcDbCircle
 10
43.5466910884
 20
41.0770541553
 30
0.0
 40
0.1400000000000006
  0
CIRCLE
  5
28F
330
1F
100
AcDbEntity
  8
0
  6
Continuous
 62
     7
370
    15
100
AcDbCircle
 10
34.7466910884
 20
43.4770541553
 30
0.0
 40
0.1399999999999864
  0
CIRCLE
  5
290
330
1F
100
AcDbEntity
  8
0
  6
Continuous
 62
     7
370
    15
100
AcDbCircle
 10
38.7466910884
 20
36.2770541553
 30
0.0
 40
0.1399999999999935
  0
CIRCLE
  5
291
330
1F
100
AcDbEntity
  8
0
  6
Continuous
 62
     7
370
    15
100
AcDbCircle
 10
43.5466910884
 20
40.2770541553
 30
0.0
 40
0.1400000000000006
  0
CIRCLE
  5
292
330
1F
100
AcDbEntity
  8
0
  6
Continuous
 62
     7
370
    15
100
AcDbCircle
 10
34.7466910884
 20
42.6770541553
 30
0.0
 40
0.1400000000000006
  0
CIRCLE
  5
293
330
1F
100
AcDbEntity
  8
0
  6
Continuous
 62
     7
370
    15
100
AcDbCircle
 10
38.7466910884
 20
35.4770541553
 30
0.0
 40
0.1400000000000006
  0
CIRCLE
  5
294
330
1F
100
AcDbEntity
  8
0
  6
Continuous
 62
     7
370
    15
100
AcDbCircle
 10
43.5466910884
 20
39.4770541553
 30
0.0
 40
0.1400000000000006
  0
CIRCLE
  5
295
330
1F
100
AcDbEntity
  8
0
  6
Continuous
 62
     7
370
    15
100
AcDbCircle
 10
34.7466910884
 20
41.8770541553
 30
0.0
 40
0.1399999999999935
  0
CIRCLE
  5
296
330
1F
100
AcDbEntity
  8
0
  6
Continuous
 62
     7
370
    15
100
AcDbCircle
 10
39.5466910884
 20
45.8770541553
 30
0.0
 40
0.1400000000000006
  0
CIRCLE
  5
297
330
1F
100
AcDbEntity
  8
0
  6
Continuous
 62
     7
370
    15
100
AcDbCircle
 10
43.5466910884
 20
38.6770541553
 30
0.0
 40
0.1399999999999935
  0
CIRCLE
  5
298
330
1F
100
AcDbEntity
  8
0
  6
Continuous
 62
     7
370
    15
100
AcDbCircle
 10
34.7466910884
 20
41.0770541553
 30
0.0
 40
0.1400000000000006
  0
CIRCLE
  5
299
330
1F
100
AcDbEntity
  8
0
  6
Continuous
 62
     7
370
    15
100
AcDbCircle
 10
41.9466910884
 20
39.4770541553
 30
0.0
 40
0.1400000000000006
  0
CIRCLE
  5
29A
330
1F
100
AcDbEntity
  8
0
  6
Continuous
 62
     7
370
    15
100
AcDbCircle
 10
43.5466910884
 20
37.8770541553
 30
0.0
 40
0.1400000000000077
  0
CIRCLE
  5
29B
330
1F
100
AcDbEntity
  8
0
  6
Continuous
 62
     7
370
    15
100
AcDbCircle
 10
34.7466910884
 20
40.2770541553
 30
0.0
 40
0.1400000000000006
  0
CIRCLE
  5
29C
330
1F
100
AcDbEntity
  8
0
  6
Continuous
 62
     7
370
    15
100
AcDbCircle
 10
39.5466910884
 20
44.2770541553
 30
0.0
 40
0.1400000000000006
  0
CIRCLE
  5
29D
330
1F
100
AcDbEntity
  8
0
  6
Continuous
 62
     7
370
    15
100
AcDbCircle
 10
43.5466910884
 20
37.0770541553
 30
0.0
 40
0.1400000000000006
  0
CIRCLE
  5
29E
330
1F
100
AcDbEntity
  8
0
  6
Continuous
 62
     7
370
    15
100
AcDbCircle
 10
34.7466910884
 20
39.4770541553
 30
0.0
 40
0.1400000000000006
  0
CIRCLE
  5
29F
330
1F
100
AcDbEntity
  8
0
  6
Continuous
 62
     7
370
    15
100
AcDbCircle
 10
39.5466910884
 20
43.4770541553
 30
0.0
 40
0.1399999999999864
  0
CIRCLE
  5
2A0
330
1F
100
AcDbEntity
  8
0
  6
Continuous
 62
     7
370
    15
100
AcDbCircle
 10
43.5466910884
 20
36.2770541553
 30
0.0
 40
0.1399999999999935
  0
CIRCLE
  5
2A1
330
1F
100
AcDbEntity
  8
0
  6
Continuous
 62
     7
370
    15
100
AcDbCircle
 10
34.7466910884
 20
38.6770541553
 30
0.0
 40
0.1399999999999935
  0
CIRCLE
  5
2A2
330
1F
100
AcDbEntity
  8
0
  6
Continuous
 62
     7
370
    15
100
AcDbCircle
 10
39.5466910884
 20
42.6770541553
 30
0.0
 40
0.1400000000000006
  0
CIRCLE
  5
2A3
330
1F
100
AcDbEntity
  8
0
  6
Continuous
 62
     7
370
    15
100
AcDbCircle
 10
43.5466910884
 20
35.4770541553
 30
0.0
 40
0.1400000000000006
  0
CIRCLE
  5
2A4
330
1F
100
AcDbEntity
  8
0
  6
Continuous
 62
     7
370
    15
100
AcDbCircle
 10
34.7466910884
 20
37.8770541553
 30
0.0
 40
0.1400000000000077
  0
CIRCLE
  5
2A5
330
1F
100
AcDbEntity
  8
0
  6
Continuous
 62
     7
370
    15
100
AcDbCircle
 10
39.5466910884
 20
41.8770541553
 30
0.0
 40
0.1399999999999935
  0
CIRCLE
  5
2A6
330
1F
100
AcDbEntity
  8
0
  6
Continuous
 62
     7
370
    15
100
AcDbCircle
 10
44.3466910884
 20
45.8770541553
 30
0.0
 40
0.1400000000000006
  0
CIRCLE
  5
2A7
330
1F
100
AcDbEntity
  8
0
  6
Continuous
 62
     7
370
    15
100
AcDbCircle
 10
41.9466910884
 20
43.4770541553
 30
0.0
 40
0.1399999999999864
  0
CIRCLE
  5
2A8
330
1F
100
AcDbEntity
  8
0
  6
Continuous
 62
     7
370
    15
100
AcDbCircle
 10
42.7466910884
 20
38.6770541553
 30
0.0
 40
0.1399999999999935
  0
CIRCLE
  5
2A9
330
1F
100
AcDbEntity
  8
0
  6
Continuous
 62
     7
370
    15
100
AcDbCircle
 10
37.1466910884
 20
38.6770541553
 30
0.0
 40
0.1399999999999935
  0
CIRCLE
  5
2AA
330
1F
100
AcDbEntity
  8
0
  6
Continuous
 62
     7
370
    15
100
AcDbCircle
 10
41.9466910884
 20
42.6770541553
 30
0.0
 40
0.1400000000000006
  0
CIRCLE
  5
2AB
330
1F
100
AcDbEntity
  8
0
  6
Continuous
 62
     7
370
    15
100
AcDbCircle
 10
42.7466910884
 20
37.8770541553
 30
0.0
 40
0.1400000000000077
  0
CIRCLE
  5
2AC
330
1F
100
AcDbEntity
  8
0
  6
Continuous
 62
     7
370
    15
100
AcDbCircle
 10
37.1466910884
 20
37.8770541553
 30
0.0
 40
0.1400000000000077
  0
CIRCLE
  5
2AD
330
1F
100
AcDbEntity
  8
0
  6
Continuous
 62
     7
370
    15
100
AcDbCircle
 10
41.9466910884
 20
41.8770541553
 30
0.0
 40
0.1399999999999935
  0
CIRCLE
  5
2AE
330
1F
100
AcDbEntity
  8
0
  6
Continuous
 62
     7
370
    15
100
AcDbCircle
 10
42.7466910884
 20
37.0770541553
 30
0.0
 40
0.1400000000000006
  0
CIRCLE
  5
2AF
330
1F
100
AcDbEntity
  8
0
  6
Continuous
 62
     7
370
    15
100
AcDbCircle
 10
37.1466910884
 20
37.0770541553
 30
0.0
 40
0.1400000000000006
  0
CIRCLE
  5
2B0
330
1F
100
AcDbEntity
  8
0
  6
Continuous
 62
     7
370
    15
100
AcDbCircle
 10
41.9466910884
 20
41.0770541553
 30
0.0
 40
0.1400000000000006
  0
CIRCLE
  5
2B1
330
1F
100
AcDbEntity
  8
0
  6
Continuous
 62
     7
370
    15
100
AcDbCircle
 10
42.7466910884
 20
36.2770541553
 30
0.0
 40
0.1399999999999935
  0
CIRCLE
  5
2B2
330
1F
100
AcDbEntity
  8
0
  6
Continuous
 62
     7
370
    15
100
AcDbCircle
 10
37.1466910884
 20
36.2770541553
 30
0.0
 40
0.1399999999999935
  0
CIRCLE
  5
2B3
330
1F
100
AcDbEntity
  8
0
  6
Continuous
 62
     7
370
    15
100
AcDbCircle
 10
41.9466910884
 20
40.2770541553
 30
0.0
 40
0.1400000000000006
  0
CIRCLE
  5
2B4
330
1F
100
AcDbEntity
  8
0
  6
Continuous
 62
     7
370
    15
100
AcDbCircle
 10
42.7466910884
 20
35.4770541553
 30
0.0
 40
0.1400000000000006
  0
CIRCLE
  5
2B5
330
1F
100
AcDbEntity
  8
0
  6
Continuous
 62
     7
370
    15
100
AcDbCircle
 10
37.1466910884
 20
35.4770541553
 30
0.0
 40
0.1400000000000006
  0
CIRCLE
  5
2B6
330
1F
100
AcDbEntity
  8
0
  6
Continuous
 62
     7
370
    15
100
AcDbCircle
 10
44.3466910884
 20
41.8770541553
 30
0.0
 40
0.1399999999999935
  0
CIRCLE
  5
2B7
330
1F
100
AcDbEntity
  8
0
  6
Continuous
 62
     7
370
    15
100
AcDbCircle
 10
43.5466910884
 20
45.8770541553
 30
0.0
 40
0.1400000000000006
  0
CIRCLE
  5
2B8
330
1F
100
AcDbEntity
  8
0
  6
Continuous
 62
     7
370
    15
100
AcDbCircle
 10
37.9466910884
 20
45.8770541553
 30
0.0
 40
0.1400000000000006
  0
CIRCLE
  5
2B9
330
1F
100
AcDbEntity
  8
0
  6
Continuous
 62
     7
370
    15
100
AcDbCircle
 10
41.9466910884
 20
38.6770541553
 30
0.0
 40
0.1399999999999935
  0
CIRCLE
  5
2BA
330
1F
100
AcDbEntity
  8
0
  6
Continuous
 62
     7
370
    15
100
AcDbCircle
 10
43.5466910884
 20
45.0770541553
 30
0.0
 40
0.1399999999999935
  0
CIRCLE
  5
2BB
330
1F
100
AcDbEntity
  8
0
  6
Continuous
 62
     7
370
    15
100
AcDbCircle
 10
37.9466910884
 20
45.0770541553
 30
0.0
 40
0.1399999999999935
  0
CIRCLE
  5
2BC
330
1F
100
AcDbEntity
  8
0
  6
Continuous
 62
     7
370
    15
100
AcDbCircle
 10
41.9466910884
 20
37.8770541553
 30
0.0
 40
0.1400000000000077
  0
CIRCLE
  5
2BD
330
1F
100
AcDbEntity
  8
0
  6
Continuous
 62
     7
370
    15
100
AcDbCircle
 10
43.5466910884
 20
44.2770541553
 30
0.0
 40
0.1400000000000006
  0
CIRCLE
  5
2BE
330
1F
100
AcDbEntity
  8
0
  6
Continuous
 62
     7
370
    15
100
AcDbCircle
 10
37.9466910884
 20
44.2770541553
 30
0.0
 40
0.1400000000000006
  0
CIRCLE
  5
2BF
330
1F
100
AcDbEntity
  8
0
  6
Continuous
 62
     7
370
    15
100
AcDbCircle
 10
41.9466910884
 20
37.0770541553
 30
0.0
 40
0.1400000000000006
  0
CIRCLE
  5
2C0
330
1F
100
AcDbEntity
  8
0
  6
Continuous
 62
     7
370
    15
100
AcDbCircle
 10
43.5466910884
 20
43.4770541553
 30
0.0
 40
0.1399999999999864
  0
CIRCLE
  5
2C1
330
1F
100
AcDbEntity
  8
0
  6
Continuous
 62
     7
370
    15
100
AcDbCircle
 10
37.9466910884
 20
43.4770541553
 30
0.0
 40
0.1399999999999864
  0
CIRCLE
  5
2C2
330
1F
100
AcDbEntity
  8
0
  6
Continuous
 62
     7
370
    15
100
AcDbCircle
 10
41.9466910884
 20
36.2770541553
 30
0.0
 40
0.1399999999999935
  0
CIRCLE
  5
2C3
330
1F
100
AcDbEntity
  8
0
  6
Continuous
 62
     7
370
    15
100
AcDbCircle
 10
43.5466910884
 20
42.6770541553
 30
0.0
 40
0.1400000000000006
  0
CIRCLE
  5
2C4
330
1F
100
AcDbEntity
  8
0
  6
Continuous
 62
     7
370
    15
100
AcDbCircle
 10
37.9466910884
 20
42.6770541553
 30
0.0
 40
0.1400000000000006
  0
CIRCLE
  5
2C5
330
1F
100
AcDbEntity
  8
0
  6
Continuous
 62
     7
370
    15
100
AcDbCircle
 10
41.9466910884
 20
35.4770541553
 30
0.0
 40
0.1400000000000006
  0
CIRCLE
  5
2C6
330
1F
100
AcDbEntity
  8
0
  6
Continuous
 62
     7
370
    15
100
AcDbCircle
 10
43.5466910884
 20
41.8770541553
 30
0.0
 40
0.1399999999999935
  0
CIRCLE
  5
2C7
330
1F
100
AcDbEntity
  8
0
  6
Continuous
 62
     7
370
    15
100
AcDbCircle
 10
44.3466910884
 20
37.0770541553
 30
0.0
 40
0.1400000000000006
  0
CIRCLE
  5
2C8
330
1F
100
AcDbEntity
  8
0
  6
Continuous
 62
     7
370
    15
100
AcDbCircle
 10
35.5466910884
 20
39.4770541553
 30
0.0
 40
0.1400000000000006
  0
CIRCLE
  5
2C9
330
1F
100
AcDbEntity
  8
0
  6
Continuous
 62
     7
370
    15
100
AcDbCircle
 10
40.3466910884
 20
43.4770541553
 30
0.0
 40
0.1399999999999864
  0
CIRCLE
  5
2CA
330
1F
100
AcDbEntity
  8
0
  6
Continuous
 62
     7
370
    15
100
AcDbCircle
 10
44.3466910884
 20
44.2770541553
 30
0.0
 40
0.1400000000000006
  0
CIRCLE
  5
2CB
330
1F
100
AcDbEntity
  8
0
  6
Continuous
 62
     7
370
    15
100
AcDbCircle
 10
35.5466910884
 20
38.6770541553
 30
0.0
 40
0.1399999999999935
  0
CIRCLE
  5
2CC
330
1F
100
AcDbEntity
  8
0
  6
Continuous
 62
     7
370
    15
100
AcDbCircle
 10
40.3466910884
 20
42.6770541553
 30
0.0
 40
0.1400000000000006
  0
CIRCLE
  5
2CD
330
1F
100
AcDbEntity
  8
0
  6
Continuous
 62
     7
370
    15
100
AcDbCircle
 10
44.3466910884
 20
35.4770541553
 30
0.0
 40
0.1400000000000006
  0
CIRCLE
  5
2CE
330
1F
100
AcDbEntity
  8
0
  6
Continuous
 62
     7
370
    15
100
AcDbCircle
 10
35.5466910884
 20
37.8770541553
 30
0.0
 40
0.1400000000000077
  0
CIRCLE
  5
2CF
330
1F
100
AcDbEntity
  8
0
  6
Continuous
 62
     7
370
    15
100
AcDbCircle
 10
40.3466910884
 20
41.8770541553
 30
0.0
 40
0.1399999999999935
  0
CIRCLE
  5
2D0
330
1F
100
AcDbEntity
  8
0
  6
Continuous
 62
     7
370
    15
100
AcDbCircle
 10
44.3466910884
 20
42.6770541553
 30
0.0
 40
0.1400000000000006
  0
CIRCLE
  5
2D1
330
1F
100
AcDbEntity
  8
0
  6
Continuous
 62
     7
370
    15
100
AcDbCircle
 10
35.5466910884
 20
45.0770541553
 30
0.0
 40
0.1399999999999935
  0
CIRCLE
  5
2D2
330
1F
100
AcDbEntity
  8
0
  6
Continuous
 62
     7
370
    15
100
AcDbCircle
 10
39.5466910884
 20
37.8770541553
 30
0.0
 40
0.1400000000000077
  0
CIRCLE
  5
2D3
330
1F
100
AcDbEntity
  8
0
  6
Continuous
 62
     7
370
    15
100
AcDbCircle
 10
40.3466910884
 20
45.0770541553
 30
0.0
 40
0.1399999999999935
  0
CIRCLE
  5
2D4
330
1F
100
AcDbEntity
  8
0
  6
Continuous
 62
     7
370
    15
100
AcDbCircle
 10
35.5466910884
 20
44.2770541553
 30
0.0
 40
0.1400000000000006
  0
CIRCLE
  5
2D5
330
1F
100
AcDbEntity
  8
0
  6
Continuous
 62
     7
370
    15
100
AcDbCircle
 10
39.5466910884
 20
37.0770541553
 30
0.0
 40
0.1400000000000006
  0
CIRCLE
  5
2D6
330
1F
100
AcDbEntity
  8
0
  6
Continuous
 62
     7
370
    15
100
AcDbCircle
 10
44.3466910884
 20
41.0770541553
 30
0.0
 40
0.1400000000000006
  0
CIRCLE
  5
2D7
330
1F
100
AcDbEntity
  8
0
  6
Continuous
 62
     7
370
    15
100
AcDbCircle
 10
35.5466910884
 20
43.4770541553
 30
0.0
 40
0.1399999999999864
  0
CIRCLE
  5
2D8
330
1F
100
AcDbEntity
  8
0
  6
Continuous
 62
     7
370
    15
100
AcDbCircle
 10
39.5466910884
 20
36.2770541553
 30
0.0
 40
0.1399999999999935
  0
CIRCLE
  5
2D9
330
1F
100
AcDbEntity
  8
0
  6
Continuous
 62
     7
370
    15
100
AcDbCircle
 10
44.3466910884
 20
40.2770541553
 30
0.0
 40
0.1400000000000006
  0
CIRCLE
  5
2DA
330
1F
100
AcDbEntity
  8
0
  6
Continuous
 62
     7
370
    15
100
AcDbCircle
 10
35.5466910884
 20
42.6770541553
 30
0.0
 40
0.1400000000000006
  0
CIRCLE
  5
2DB
330
1F
100
AcDbEntity
  8
0
  6
Continuous
 62
     7
370
    15
100
AcDbCircle
 10
39.5466910884
 20
35.4770541553
 30
0.0
 40
0.1400000000000006
  0
CIRCLE
  5
2DC
330
1F
100
AcDbEntity
  8
0
  6
Continuous
 62
     7
370
    15
100
AcDbCircle
 10
44.3466910884
 20
39.4770541553
 30
0.0
 40
0.1400000000000006
  0
CIRCLE
  5
2DD
330
1F
100
AcDbEntity
  8
0
  6
Continuous
 62
     7
370
    15
100
AcDbCircle
 10
35.5466910884
 20
41.8770541553
 30
0.0
 40
0.1399999999999935
  0
CIRCLE
  5
2DE
330
1F
100
AcDbEntity
  8
0
  6
Continuous
 62
     7
370
    15
100
AcDbCircle
 10
40.3466910884
 20
45.8770541553
 30
0.0
 40
0.1400000000000006
  0
CIRCLE
  5
2DF
330
1F
100
AcDbEntity
  8
0
  6
Continuous
 62
     7
370
    15
100
AcDbCircle
 10
44.3466910884
 20
38.6770541553
 30
0.0
 40
0.1399999999999935
  0
CIRCLE
  5
2E0
330
1F
100
AcDbEntity
  8
0
  6
Continuous
 62
     7
370
    15
100
AcDbCircle
 10
35.5466910884
 20
41.0770541553
 30
0.0
 40
0.1400000000000006
  0
CIRCLE
  5
2E1
330
1F
100
AcDbEntity
  8
0
  6
Continuous
 62
     7
370
    15
100
AcDbCircle
 10
34.7466910884
 20
35.4770541553
 30
0.0
 40
0.1400000000000006
  0
CIRCLE
  5
2E2
330
1F
100
AcDbEntity
  8
0
  6
Continuous
 62
     7
370
    15
100
AcDbCircle
 10
34.7466910884
 20
37.0770541553
 30
0.0
 40
0.1400000000000006
  0
CIRCLE
  5
2E3
330
1F
100
AcDbEntity
  8
0
  6
Continuous
 62
     7
370
    15
100
AcDbCircle
 10
39.5466910884
 20
41.0770541553
 30
0.0
 40
0.1400000000000006
  0
CIRCLE
  5
2E4
330
1F
100
AcDbEntity
  8
0
  6
Continuous
 62
     7
370
    15
100
AcDbCircle
 10
44.3466910884
 20
45.0770541553
 30
0.0
 40
0.1399999999999935
  0
CIRCLE
  5
2E5
330
1F
100
AcDbEntity
  8
0
  6
Continuous
 62
     7
370
    15
100
AcDbCircle
 10
34.7466910884
 20
36.2770541553
 30
0.0
 40
0.1399999999999935
  0
CIRCLE
  5
2E6
330
1F
100
AcDbEntity
  8
0
  6
Continuous
 62
     7
370
    15
100
AcDbCircle
 10
39.5466910884
 20
40.2770541553
 30
0.0
 40
0.1400000000000006
  0
CIRCLE
  5
2E7
330
1F
100
AcDbEntity
  8
0
  6
Continuous
 62
     7
370
    15
100
AcDbCircle
 10
44.3466910884
 20
43.4770541553
 30
0.0
 40
0.1399999999999864
  0
CIRCLE
  5
2E8
330
1F
100
AcDbEntity
  8
0
  6
Continuous
 62
     7
370
    15
100
AcDbCircle
 10
35.5466910884
 20
45.8770541553
 30
0.0
 40
0.1400000000000006
  0
CIRCLE
  5
2E9
330
1F
100
AcDbEntity
  8
0
  6
Continuous
 62
     7
370
    15
100
AcDbCircle
 10
39.5466910884
 20
39.4770541553
 30
0.0
 40
0.1400000000000006
  0
CIRCLE
  5
2EA
330
1F
100
AcDbEntity
  8
0
  6
Continuous
 62
     7
370
    15
100
AcDbCircle
 10
40.3466910884
 20
44.2770541553
 30
0.0
 40
0.1400000000000006
  0
CIRCLE
  5
2EB
330
1F
100
AcDbEntity
  8
0
  6
Continuous
 62
     7
370
    15
100
AcDbCircle
 10
44.3466910884
 20
37.8770541553
 30
0.0
 40
0.1400000000000077
  0
CIRCLE
  5
2EC
330
1F
100
AcDbEntity
  8
0
  6
Continuous
 62
     7
370
    15
100
AcDbCircle
 10
39.5466910884
 20
38.6770541553
 30
0.0
 40
0.1399999999999935
  0
CIRCLE
  5
2ED
330
1F
100
AcDbEntity
  8
0
  6
Continuous
 62
     7
370
    15
100
AcDbCircle
 10
35.5466910884
 20
40.2770541553
 30
0.0
 40
0.1400000000000006
  0
LINE
  5
2EE
330
1F
100
AcDbEntity
  8
0
  6
HIDDEN
 62
     7
370
    15
100
AcDbLine
 10
28.9091913969
 20
30.8145539124
 30
0.0
 11
48.6341909513
 21
30.8145539124
 31
0.0
  0
LINE
  5
2EF
330
1F
100
AcDbEntity
  8
0
  6
HIDDEN
 62
     7
370
    15
100
AcDbLine
 10
28.9091913969
 20
50.5395543982
 30
0.0
 11
28.9091913969
 21
30.8145539124
 31
0.0
  0
LINE
  5
2F0
330
1F
100
AcDbEntity
  8
0
  6
HIDDEN
 62
     7
370
    15
100
AcDbLine
 10
48.6341909513
 20
50.5395543982
 30
0.0
 11
28.9091913969
 21
50.5395543982
 31
0.0
  0
LINE
  5
2F1
330
1F
100
AcDbEntity
  8
0
  6
HIDDEN
 62
     7
370
    15
100
AcDbLine
 10
48.6341909513
 20
30.8145539124
 30
0.0
 11
48.6341909513
 21
50.5395543982
 31
0.0
  0
LWPOLYLINE
  5
2F2
330
1F
100
AcDbEntity
  8
0
  6
Continuous
 62
     7
370
    15
100
AcDbPolyline
 90
        3
 70
   128
 43
0.0
 10
44.4675901913
 20
36.206461325
 10
44.3156188362
 20
36.2218225595
 10
44.2091854297
 20
36.2507452477
  0
LWPOLYLINE
  5
2F3
330
1F
100
AcDbEntity
  8
0
  6
Continuous
 62
     7
370
    15
100
AcDbPolyline
 90
        3
 70
   128
 43
0.0
 10
44.2091854297
 20
45.1033630629
 10
44.3156188362
 20
45.1322857511
 10
44.4675901913
 20
45.1476469856
  0
LINE
  5
2F4
330
1F
100
AcDbEntity
  8
0
  6
Continuous
 62
     7
370
    15
100
AcDbLine
 10
41.2716911182
 20
41.9401017238
 30
0.0
 11
41.2716911182
 21
41.8140065844
 31
0.0
  0
LINE
  5
2F5
330
1F
100
AcDbEntity
  8
0
  6
Continuous
 62
     7
370
    15
100
AcDbLine
 10
41.2716911182
 20
41.140101744
 30
0.0
 11
41.2716911182
 21
41.0140065464
 31
0.0
  0
LINE
  5
2F6
330
1F
100
AcDbEntity
  8
0
  6
Continuous
 62
     7
370
    15
100
AcDbLine
 10
41.2716911182
 20
40.3401017642
 30
0.0
 11
41.2716911182
 21
40.2140065666
 31
0.0
  0
LINE
  5
2F7
330
1F
100
AcDbEntity
  8
0
  6
Continuous
 62
     7
370
    15
100
AcDbLine
 10
41.2716911182
 20
39.5401017262
 30
0.0
 11
41.2716911182
 21
39.4140065868
 31
0.0
  0
LINE
  5
2F8
330
1F
100
AcDbEntity
  8
0
  6
Continuous
 62
     7
370
    15
100
AcDbLine
 10
36.2703247469
 20
41.9943921255
 30
0.0
 11
36.2716909971
 21
41.9476576603
 31
0.0
  0
LINE
  5
2F9
330
1F
100
AcDbEntity
  8
0
  6
Continuous
 62
     7
370
    15
100
AcDbLine
 10
32.27169104
 20
41.3733613781
 30
0.0
 11
32.27169104
 21
39.9807469325
 31
0.0
  0
LINE
  5
2FA
330
1F
100
AcDbEntity
  8
0
  6
Continuous
 62
     7
370
    15
100
AcDbLine
 10
36.2716909971
 20
39.4064506503
 30
0.0
 11
36.2703247469
 21
39.359716185
 31
0.0
  0
LINE
  5
2FB
330
1F
100
AcDbEntity
  8
0
  6
Continuous
 62
     7
370
    15
100
AcDbLine
 10
36.2716909971
 20
39.4064506503
 30
0.0
 11
36.2716909971
 21
39.5952700159
 31
0.0
  0
LINE
  5
2FC
330
1F
100
AcDbEntity
  8
0
  6
Continuous
 62
     7
370
    15
100
AcDbLine
 10
36.2716909971
 20
40.1588382769
 30
0.0
 11
36.2716909971
 21
40.3952700539
 31
0.0
  0
LINE
  5
2FD
330
1F
100
AcDbEntity
  8
0
  6
Continuous
 62
     7
370
    15
100
AcDbLine
 10
36.2716909971
 20
40.9588382567
 30
0.0
 11
36.2716909971
 21
41.1952700337
 31
0.0
  0
LINE
  5
2FE
330
1F
100
AcDbEntity
  8
0
  6
Continuous
 62
     7
370
    15
100
AcDbLine
 10
36.2716909971
 20
41.7588382947
 30
0.0
 11
36.2716909971
 21
41.9476576603
 31
0.0
  0
ARC
  5
2FF
330
1F
100
AcDbEntity
  8
0
  6
Continuous
 62
     7
370
    15
100
AcDbCircle
 10
46.1341910884
 20
48.0395541553
 30
0.0
 40
0.8499999999999913
100
AcDbArc
 50
0.0333671929
 51
179.9665054474
  0
ARC
  5
300
330
1F
100
AcDbEntity
  8
0
  6
Continuous
 62
     7
370
    15
100
AcDbCircle
 10
31.4091910884
 20
48.0395541553
 30
0.0
 40
0.8499999999999884
100
AcDbArc
 50
0.0337028804
 51
179.9662957773
  0
LINE
  5
301
330
1F
100
AcDbEntity
  8
0
  6
Continuous
 62
     7
370
    15
100
AcDbLine
 10
30.4992021069
 20
50.5420587246
 30
0.0
 11
30.4100531161
 21
50.5395543982
 31
0.0
  0
LINE
  5
302
330
1F
100
AcDbEntity
  8
0
  6
Continuous
 62
     7
370
    15
100
AcDbLine
 10
31.3659579501
 20
50.5420587246
 30
0.0
 11
30.4992021069
 21
50.5420587246
 31
0.0
  0
LINE
  5
303
330
1F
100
AcDbEntity
  8
0
  6
Continuous
 62
     7
370
    15
100
AcDbLine
 10
46.1824242033
 20
50.5420587246
 30
0.0
 11
47.0491795808
 21
50.5420587246
 31
0.0
  0
LINE
  5
304
330
1F
100
AcDbEntity
  8
0
  6
Continuous
 62
     7
370
    15
100
AcDbLine
 10
47.0491795808
 20
50.5420587246
 30
0.0
 11
47.138329503
 21
50.5395543982
 31
0.0
  0
LINE
  5
305
330
1F
100
AcDbEntity
  8
0
  6
Continuous
 62
     7
370
    15
100
AcDbLine
 10
48.6341909513
 20
49.0436920185
 30
0.0
 11
48.6366952777
 21
48.9545430277
 31
0.0
  0
LINE
  5
306
330
1F
100
AcDbEntity
  8
0
  6
Continuous
 62
     7
370
    15
100
AcDbLine
 10
48.6366952777
 20
48.9545430277
 30
0.0
 11
48.6366952777
 21
48.0877871845
 31
0.0
  0
LINE
  5
307
330
1F
100
AcDbEntity
  8
0
  6
Continuous
 62
     7
370
    15
100
AcDbLine
 10
48.6366952777
 20
32.4045655538
 30
0.0
 11
48.6366952777
 21
33.2713209313
 31
0.0
  0
LINE
  5
308
330
1F
100
AcDbEntity
  8
0
  6
Continuous
 62
     7
370
    15
100
AcDbLine
 10
48.6341909513
 20
32.3154156317
 30
0.0
 11
48.6366952777
 21
32.4045655538
 31
0.0
  0
LINE
  5
309
330
1F
100
AcDbEntity
  8
0
  6
Continuous
 62
     7
370
    15
100
AcDbLine
 10
48.6341909513
 20
47.9133150761
 30
0.0
 11
48.6387143851
 21
48.0240516585
 31
0.0
  0
LINE
  5
30A
330
1F
100
AcDbEntity
  8
0
  6
Continuous
 62
     7
370
    15
100
AcDbLine
 10
46.1186886773
 20
50.5440778319
 30
0.0
 11
46.0079516292
 21
50.5395543982
 31
0.0
  0
CIRCLE
  5
30B
330
1F
100
AcDbEntity
  8
0
  6
Continuous
 62
     7
370
    15
100
AcDbCircle
 10
46.1391910884
 20
48.0445541553
 30
0.0
 40
0.8049999999999997
  0
LINE
  5
30C
330
1F
100
AcDbEntity
  8
0
  6
Continuous
 62
     7
370
    15
100
AcDbLine
 10
31.5404305242
 20
50.5395543982
 30
0.0
 11
31.4296934761
 21
50.5440778319
 31
0.0
  0
ARC
  5
30D
330
1F
100
AcDbEntity
  8
0
  6
Continuous
 62
     7
370
    15
100
AcDbCircle
 10
31.4791910884
 20
47.9745541553
 30
0.0
 40
2.569999999999999
100
AcDbArc
 50
91.103568776
 51
92.5252448145
  0
CIRCLE
  5
30E
330
1F
100
AcDbEntity
  8
0
  6
Continuous
 62
     7
370
    15
100
AcDbCircle
 10
31.4091910884
 20
48.0445541553
 30
0.0
 40
0.8049999999999997
  0
CIRCLE
  5
30F
330
1F
100
AcDbEntity
  8
0
  6
Continuous
 62
     7
370
    15
100
AcDbCircle
 10
31.4091910884
 20
33.3145541553
 30
0.0
 40
0.8049999999999997
  0
LINE
  5
310
330
1F
100
AcDbEntity
  8
0
  6
Continuous
 62
     7
370
    15
100
AcDbLine
 10
48.6387143851
 20
33.3350564573
 30
0.0
 11
48.6341909513
 21
33.4457935054
 31
0.0
  0
CIRCLE
  5
311
330
1F
100
AcDbEntity
  8
0
  6
Continuous
 62
     7
370
    15
100
AcDbCircle
 10
46.1391910884
 20
33.3145541553
 30
0.0
 40
0.8049999999999997
  0
ARC
  5
312
330
1F
100
AcDbEntity
  8
0
  6
Continuous
 62
     7
370
    15
100
AcDbCircle
 10
46.0691910884
 20
47.9745541553
 30
0.0
 40
2.569999999999992
100
AcDbArc
 50
87.4747551855
 51
88.896431224
  0
ARC
  5
313
330
1F
100
AcDbEntity
  8
0
  6
Continuous
 62
     7
370
    15
100
AcDbCircle
 10
46.0691910884
 20
47.9745541553
 30
0.0
 40
2.570000000000006
100
AcDbArc
 50
1.103568776
 51
2.5252448145
  0
ARC
  5
314
330
1F
100
AcDbEntity
  8
0
  6
Continuous
 62
     7
370
    15
100
AcDbCircle
 10
46.0691910884
 20
33.3845541553
 30
0.0
 40
2.570000000000003
100
AcDbArc
 50
357.4747551855
 51
358.896431224
  0
LINE
  5
315
330
1F
100
AcDbEntity
  8
0
  6
HIDDEN
 62
     7
370
     0
100
AcDbLine
 10
46.3216909215
 20
42.0896647951
 30
0.0
 11
46.3216909215
 21
41.5270541666
 31
0.0
  0
LINE
  5
316
330
1F
100
AcDbEntity
  8
0
  6
HIDDEN
 62
     7
370
     0
100
AcDbLine
 10
46.3216909215
 20
39.827054144
 30
0.0
 11
46.3216909215
 21
39.2644435155
 31
0.0
  0
LINE
  5
317
330
1F
100
AcDbEntity
  8
0
  6
HIDDEN
 62
     7
370
     0
100
AcDbLine
 10
31.5966912553
 20
41.5270541666
 30
0.0
 11
31.5966912553
 21
42.0896647951
 31
0.0
  0
LINE
  5
318
330
1F
100
AcDbEntity
  8
0
  6
HIDDEN
 62
     7
370
     0
100
AcDbLine
 10
31.5966912553
 20
39.2644435155
 30
0.0
 11
31.5966912553
 21
39.827054144
 31
0.0
  0
LINE
  5
319
330
1F
100
AcDbEntity
  8
0
  6
HIDDEN
 62
     7
370
     0
100
AcDbLine
 10
38.9591910884
 20
34.1645542752
 30
0.0
 11
38.9591910884
 21
34.7271648456
 31
0.0
  0
LINE
  5
31A
330
1F
100
AcDbEntity
  8
0
  6
HIDDEN
 62
     7
370
     0
100
AcDbLine
 10
38.9591910884
 20
31.9019437988
 30
0.0
 11
38.9591910884
 21
32.4645539035
 31
0.0
  0
LINE
  5
31B
330
1F
100
AcDbEntity
  8
0
  6
HIDDEN
 62
     7
370
     0
100
AcDbLine
 10
38.9591910884
 20
46.6279437054
 30
0.0
 11
38.9591910884
 21
47.1905542758
 31
0.0
  0
LINE
  5
31C
330
1F
100
AcDbEntity
  8
0
  6
HIDDEN
 62
     7
370
     0
100
AcDbLine
 10
38.9591910884
 20
48.8905537162
 30
0.0
 11
38.9591910884
 21
49.4531647522
 31
0.0
  0
ARC
  5
31D
330
1F
100
AcDbEntity
  8
0
  6
HIDDEN
 62
     7
370
     0
100
AcDbCircle
 10
38.7716910884
 20
48.0405541553
 30
0.0
 40
1.425000000000013
100
AcDbArc
 50
82.4391568233
 51
277.5608431767
  0
ARC
  5
31E
330
1F
100
AcDbEntity
  8
0
  6
HIDDEN
 62
     7
370
     0
100
AcDbCircle
 10
39.1466910884
 20
48.0405541553
 30
0.0
 40
1.425000000000013
100
AcDbArc
 50
262.4391568233
 51
97.5608431767
  0
ARC
  5
31F
330
1F
100
AcDbEntity
  8
0
  6
HIDDEN
 62
     7
370
     0
100
AcDbCircle
 10
39.1466910884
 20
33.3145541553
 30
0.0
 40
1.424999999999999
100
AcDbArc
 50
262.4391568233
 51
97.5608431767
  0
ARC
  5
320
330
1F
100
AcDbEntity
  8
0
  6
HIDDEN
 62
     7
370
     0
100
AcDbCircle
 10
31.7841910884
 20
40.6770541553
 30
0.0
 40
1.424999999999999
100
AcDbArc
 50
262.4391568233
 51
97.5608431767
  0
ARC
  5
321
330
1F
100
AcDbEntity
  8
0
  6
HIDDEN
 62
     7
370
     0
100
AcDbCircle
 10
38.7716910884
 20
33.3145541553
 30
0.0
 40
1.424999999999998
100
AcDbArc
 50
82.4391568233
 51
277.5608431767
  0
ARC
  5
322
330
1F
100
AcDbEntity
  8
0
  6
HIDDEN
 62
     7
370
     0
100
AcDbCircle
 10
31.4091910884
 20
40.6770541553
 30
0.0
 40
1.424999999999999
100
AcDbArc
 50
82.4391568233
 51
277.5608431767
  0
ARC
  5
323
330
1F
100
AcDbEntity
  8
0
  6
HIDDEN
 62
     7
370
     0
100
AcDbCircle
 10
46.5091910884
 20
40.6770541553
 30
0.0
 40
1.425
100
AcDbArc
 50
262.4391568233
 51
97.5608431767
  0
ARC
  5
324
330
1F
100
AcDbEntity
  8
0
  6
HIDDEN
 62
     7
370
     0
100
AcDbCircle
 10
46.1341910884
 20
40.6770541553
 30
0.0
 40
1.424999999999999
100
AcDbArc
 50
82.4391568233
 51
277.5608431767
  0
ARC
  5
325
330
1F
100
AcDbEntity
  8
0
  6
HIDDEN
 62
     7
370
     0
100
AcDbCircle
 10
40.0422946264
 20
43.9770541553
 30
0.0
 40
0.8000000000000043
100
AcDbArc
 50
270.0
 51
315.0
  0
LINE
  5
326
330
1F
100
AcDbEntity
  8
0
  6
HIDDEN
 62
     7
370
     0
100
AcDbLine
 10
40.6079800109
 20
43.4113688056
 30
0.0
 11
43.0079800085
 21
45.8113689196
 31
0.0
  0
ARC
  5
327
330
1F
100
AcDbEntity
  8
0
  6
HIDDEN
 62
     7
370
     0
100
AcDbCircle
 10
42.4422946264
 20
46.3770541553
 30
0.0
 40
0.8000000000000043
100
AcDbArc
 50
315.0
 51
90.0
  0
LINE
  5
328
330
1F
100
AcDbEntity
  8
0
  6
HIDDEN
 62
     7
370
     0
100
AcDbLine
 10
42.4422946766
 20
47.1770542894
 30
0.0
 11
35.1010874387
 21
47.1770542894
 31
0.0
  0
ARC
  5
329
330
1F
100
AcDbEntity
  8
0
  6
HIDDEN
 62
     7
370
     0
100
AcDbCircle
 10
35.1010875504
 20
46.3770541553
 30
0.0
 40
0.8000000000000043
100
AcDbArc
 50
90.0
 51
225.0
  0
LINE
  5
32A
330
1F
100
AcDbEntity
  8
0
  6
HIDDEN
 62
     7
370
     0
100
AcDbLine
 10
34.5354023397
 20
45.8113689196
 30
0.0
 11
36.9354022209
 21
43.4113688056
 31
0.0
  0
ARC
  5
32B
330
1F
100
AcDbEntity
  8
0
  6
HIDDEN
 62
     7
370
     0
100
AcDbCircle
 10
37.5010875504
 20
43.9770541553
 30
0.0
 40
0.8000000000000043
100
AcDbArc
 50
225.0
 51
270.0
  0
LINE
  5
32C
330
1F
100
AcDbEntity
  8
0
  6
HIDDEN
 62
     7
370
     0
100
AcDbLine
 10
37.5010875527
 20
43.1770540994
 30
0.0
 11
40.0422946791
 21
43.1770540994
 31
0.0
  0
ARC
  5
32D
330
1F
100
AcDbEntity
  8
0
  6
HIDDEN
 62
     7
370
     0
100
AcDbCircle
 10
42.0716910884
 20
39.4064506173
 30
0.0
 40
0.8000000000000034
100
AcDbArc
 50
180.0
 51
225.0
  0
LINE
  5
32E
330
1F
100
AcDbEntity
  8
0
  6
HIDDEN
 62
     7
370
     0
100
AcDbLine
 10
41.5060055916
 20
38.8407652021
 30
0.0
 11
43.9060054727
 21
36.4407653209
 31
0.0
  0
ARC
  5
32F
330
1F
100
AcDbEntity
  8
0
  6
HIDDEN
 62
     7
370
     0
100
AcDbCircle
 10
44.4716910884
 20
37.0064506173
 30
0.0
 40
0.7999999999999984
100
AcDbArc
 50
269.7063028801
 51
0.0
  0
LWPOLYLINE
  5
330
330
1F
100
AcDbEntity
  8
0
  6
HIDDEN
 62
     7
370
     0
100
AcDbPolyline
 90
        3
 70
   128
 43
0.0
 10
44.2091854297
 20
36.2507452477
 10
44.094573614
 20
36.3009137322
 10
43.9060054727
 20
36.4407653209
  0
LINE
  5
331
330
1F
100
AcDbEntity
  8
0
  6
HIDDEN
 62
     7
370
     0
100
AcDbLine
 10
45.2716913082
 20
37.0064506528
 30
0.0
 11
45.2716913082
 21
44.3476576578
 31
0.0
  0
LWPOLYLINE
  5
332
330
1F
100
AcDbEntity
  8
0
  6
HIDDEN
 62
     7
370
     0
100
AcDbPolyline
 90
        3
 70
   128
 43
0.0
 10
43.9060054727
 20
44.9133429897
 10
44.094573614
 20
45.0531945784
 10
44.2091854297
 20
45.1033630629
  0
ARC
  5
333
330
1F
100
AcDbEntity
  8
0
  6
HIDDEN
 62
     7
370
     0
100
AcDbCircle
 10
44.4716910884
 20
44.3476576933
 30
0.0
 40
0.8000000000000045
100
AcDbArc
 50
0.0
 51
90.2936971199
  0
LINE
  5
334
330
1F
100
AcDbEntity
  8
0
  6
HIDDEN
 62
     7
370
     0
100
AcDbLine
 10
43.9060054727
 20
44.9133429897
 30
0.0
 11
41.5060055916
 21
42.5133431085
 31
0.0
  0
ARC
  5
335
330
1F
100
AcDbEntity
  8
0
  6
HIDDEN
 62
     7
370
     0
100
AcDbCircle
 10
42.0716910884
 20
41.9476576933
 30
0.0
 40
0.8000000000000085
100
AcDbArc
 50
135.0
 51
180.0
  0
LINE
  5
336
330
1F
100
AcDbEntity
  8
0
  6
HIDDEN
 62
     7
370
     0
100
AcDbLine
 10
41.2716911182
 20
41.9476576603
 30
0.0
 11
41.2716911182
 21
41.9401017238
 31
0.0
  0
LINE
  5
337
330
1F
100
AcDbEntity
  8
0
  6
HIDDEN
 62
     7
370
     0
100
AcDbLine
 10
41.2716911182
 20
41.8140065844
 30
0.0
 11
41.2716911182
 21
41.140101744
 31
0.0
  0
LINE
  5
338
330
1F
100
AcDbEntity
  8
0
  6
HIDDEN
 62
     7
370
     0
100
AcDbLine
 10
41.2716911182
 20
41.0140065464
 30
0.0
 11
41.2716911182
 21
40.3401017642
 31
0.0
  0
LINE
  5
339
330
1F
100
AcDbEntity
  8
0
  6
HIDDEN
 62
     7
370
     0
100
AcDbLine
 10
41.2716911182
 20
40.2140065666
 30
0.0
 11
41.2716911182
 21
39.5401017262
 31
0.0
  0
LINE
  5
33A
330
1F
100
AcDbEntity
  8
0
  6
HIDDEN
 62
     7
370
     0
100
AcDbLine
 10
41.2716911182
 20
39.4140065868
 30
0.0
 11
41.2716911182
 21
39.4064506503
 31
0.0
  0
ARC
  5
33B
330
1F
100
AcDbEntity
  8
0
  6
HIDDEN
 62
     7
370
     0
100
AcDbCircle
 10
37.5010875504
 20
37.3770541553
 30
0.0
 40
0.8000000000000043
100
AcDbArc
 50
90.0
 51
135.0
  0
LINE
  5
33C
330
1F
100
AcDbEntity
  8
0
  6
HIDDEN
 62
     7
370
     0
100
AcDbLine
 10
36.9354022209
 20
37.942739505
 30
0.0
 11
34.5354023397
 21
35.542739391
 31
0.0
  0
ARC
  5
33D
330
1F
100
AcDbEntity
  8
0
  6
HIDDEN
 62
     7
370
     0
100
AcDbCircle
 10
35.1010875504
 20
34.9770541553
 30
0.0
 40
0.8000000000000034
100
AcDbArc
 50
135.0
 51
270.0
  0
LINE
  5
33E
330
1F
100
AcDbEntity
  8
0
  6
HIDDEN
 62
     7
370
     0
100
AcDbLine
 10
35.1010874387
 20
34.1770540212
 30
0.0
 11
42.4422946766
 21
34.1770540212
 31
0.0
  0
ARC
  5
33F
330
1F
100
AcDbEntity
  8
0
  6
HIDDEN
 62
     7
370
     0
100
AcDbCircle
 10
42.4422946264
 20
34.9770541553
 30
0.0
 40
0.8000000000000034
100
AcDbArc
 50
270.0
 51
45.0
  0
LINE
  5
340
330
1F
100
AcDbEntity
  8
0
  6
HIDDEN
 62
     7
370
     0
100
AcDbLine
 10
43.0079800085
 20
35.542739391
 30
0.0
 11
40.6079800109
 21
37.942739505
 31
0.0
  0
ARC
  5
341
330
1F
100
AcDbEntity
  8
0
  6
HIDDEN
 62
     7
370
     0
100
AcDbCircle
 10
40.0422946264
 20
37.3770541553
 30
0.0
 40
0.8000000000000043
100
AcDbArc
 50
45.0
 51
90.0
  0
LINE
  5
342
330
1F
100
AcDbEntity
  8
0
  6
HIDDEN
 62
     7
370
     0
100
AcDbLine
 10
40.0422946791
 20
38.1770542112
 30
0.0
 11
37.5010875527
 21
38.1770542112
 31
0.0
  0
ARC
  5
343
330
1F
100
AcDbEntity
  8
0
  6
HIDDEN
 62
     7
370
     0
100
AcDbCircle
 10
35.4716910884
 20
41.9476576933
 30
0.0
 40
0.8000000000000085
100
AcDbArc
 50
3.349013584
 51
45.0
  0
LINE
  5
344
330
1F
100
AcDbEntity
  8
0
  6
HIDDEN
 62
     7
370
     0
100
AcDbLine
 10
36.0373765238
 20
42.5133431085
 30
0.0
 11
33.6373764098
 21
44.9133429897
 31
0.0
  0
ARC
  5
345
330
1F
100
AcDbEntity
  8
0
  6
HIDDEN
 62
     7
370
     0
100
AcDbCircle
 10
33.0716910884
 20
44.3476576933
 30
0.0
 40
0.8000000000000034
100
AcDbArc
 50
45.0
 51
180.0
  0
LINE
  5
346
330
1F
100
AcDbEntity
  8
0
  6
HIDDEN
 62
     7
370
     0
100
AcDbLine
 10
32.27169104
 20
44.3476576578
 30
0.0
 11
32.27169104
 21
41.3733613781
 31
0.0
  0
LINE
  5
347
330
1F
100
AcDbEntity
  8
0
  6
HIDDEN
 62
     7
370
     0
100
AcDbLine
 10
32.27169104
 20
39.9807469325
 30
0.0
 11
32.27169104
 21
37.0064506528
 31
0.0
  0
ARC
  5
348
330
1F
100
AcDbEntity
  8
0
  6
HIDDEN
 62
     7
370
     0
100
AcDbCircle
 10
33.0716910884
 20
37.0064506173
 30
0.0
 40
0.7999999999999984
100
AcDbArc
 50
180.0
 51
315.0
  0
LINE
  5
349
330
1F
100
AcDbEntity
  8
0
  6
HIDDEN
 62
     7
370
     0
100
AcDbLine
 10
33.6373764098
 20
36.4407653209
 30
0.0
 11
36.0373765238
 21
38.8407652021
 31
0.0
  0
ARC
  5
34A
330
1F
100
AcDbEntity
  8
0
  6
HIDDEN
 62
     7
370
     0
100
AcDbCircle
 10
35.4716910884
 20
39.4064506173
 30
0.0
 40
0.7999999999999984
100
AcDbArc
 50
315.0
 51
356.650986416
  0
LINE
  5
34B
330
1F
100
AcDbEntity
  8
0
  6
HIDDEN
 62
     7
370
     0
100
AcDbLine
 10
36.2716909971
 20
39.5952700159
 30
0.0
 11
36.2716909971
 21
40.1588382769
 31
0.0
  0
LINE
  5
34C
330
1F
100
AcDbEntity
  8
0
  6
HIDDEN
 62
     7
370
     0
100
AcDbLine
 10
36.2716909971
 20
40.3952700539
 30
0.0
 11
36.2716909971
 21
40.9588382567
 31
0.0
  0
LINE
  5
34D
330
1F
100
AcDbEntity
  8
0
  6
HIDDEN
 62
     7
370
     0
100
AcDbLine
 10
36.2716909971
 20
41.1952700337
 30
0.0
 11
36.2716909971
 21
41.7588382947
 31
0.0
  0
ARC
  5
34E
330
1F
100
AcDbEntity
  8
0
  6
HIDDEN
 62
     7
370
     0
100
AcDbCircle
 10
46.1341910884
 20
48.0395541553
 30
0.0
 40
0.8499999999999911
100
AcDbArc
 50
270.0
 51
0.0333671929
  0
ARC
  5
34F
330
1F
100
AcDbEntity
  8
0
  6
HIDDEN
 62
     7
370
     0
100
AcDbCircle
 10
46.1341910884
 20
48.0395541553
 30
0.0
 40
0.8499999999999913
100
AcDbArc
 50
179.9665054474
 51
270.0
  0
ARC
  5
350
330
1F
100
AcDbEntity
  8
0
  6
HIDDEN
 62
     7
370
     0
100
AcDbCircle
 10
31.4091910884
 20
48.0395541553
 30
0.0
 40
0.8499999999999837
100
AcDbArc
 50
270.0
 51
0.0337028804
  0
ARC
  5
351
330
1F
100
AcDbEntity
  8
0
  6
HIDDEN
 62
     7
370
     0
100
AcDbCircle
 10
31.4091910884
 20
48.0395541553
 30
0.0
 40
0.8499999999999884
100
AcDbArc
 50
179.9662957773
 51
270.0
  0
ARC
  5
352
330
1F
100
AcDbEntity
  8
0
  6
HIDDEN
 62
     7
370
     0
100
AcDbCircle
 10
32.181689828
 20
42.7364501629
 30
0.0
 40
1.587501260449082
100
AcDbArc
 50
0.0
 51
43.5909310811
  0
LINE
  5
353
330
1F
100
AcDbEntity
  8
0
  6
HIDDEN
 62
     7
370
     0
100
AcDbLine
 10
28.91168641
 20
48.9545430277
 30
0.0
 11
28.91168641
 21
48.0877871845
 31
0.0
  0
ARC
  5
354
330
1F
100
AcDbEntity
  8
0
  6
HIDDEN
 62
     7
370
     0
100
AcDbCircle
 10
30.4991868007
 20
48.954558443
 30
0.0
 40
1.587500000000003
100
AcDbArc
 50
93.2186961457
 51
180.0005573492
  0
LINE
  5
355
330
1F
100
AcDbEntity
  8
0
  6
HIDDEN
 62
     7
370
     0
100
AcDbLine
 10
32.9957934104
 20
49.9732404236
 30
0.0
 11
35.6227051475
 21
46.1222583648
 31
0.0
  0
ARC
  5
356
330
1F
100
AcDbEntity
  8
0
  6
HIDDEN
 62
     7
370
     0
100
AcDbCircle
 10
36.7172950808
 20
47.2720554157
 30
0.0
 40
1.587501260449082
100
AcDbArc
 50
226.4090689189
 51
270.0
  0
LINE
  5
357
330
1F
100
AcDbEntity
  8
0
  6
HIDDEN
 62
     7
370
     0
100
AcDbLine
 10
36.7172950887
 20
45.6845539842
 30
0.0
 11
40.8310870648
 21
45.6845539842
 31
0.0
  0
ARC
  5
358
330
1F
100
AcDbEntity
  8
0
  6
HIDDEN
 62
     7
370
     0
100
AcDbCircle
 10
40.831087096
 20
47.2720554157
 30
0.0
 40
1.587501260449081
100
AcDbArc
 50
270.0
 51
313.5909310811
  0
LINE
  5
359
330
1F
100
AcDbEntity
  8
0
  6
HIDDEN
 62
     7
370
     0
100
AcDbLine
 10
41.925677006
 20
46.1222583648
 30
0.0
 11
44.5525892087
 21
49.9732404236
 31
0.0
  0
ARC
  5
35A
330
1F
100
AcDbEntity
  8
0
  6
HIDDEN
 62
     7
370
     0
100
AcDbCircle
 10
47.0491953761
 20
48.954558443
 30
0.0
 40
1.587500000000009
100
AcDbArc
 50
3.2186961458
 51
86.7813038543
  0
LINE
  5
35B
330
1F
100
AcDbEntity
  8
0
  6
HIDDEN
 62
     7
370
     0
100
AcDbLine
 10
48.0678769768
 20
46.4579521899
 30
0.0
 11
44.2168953836
 21
43.8310399872
 31
0.0
  0
ARC
  5
35C
330
1F
100
AcDbEntity
  8
0
  6
HIDDEN
 62
     7
370
     0
100
AcDbCircle
 10
45.3666923489
 20
42.7364501629
 30
0.0
 40
1.587501260449082
100
AcDbArc
 50
136.4090689189
 51
180.0
  0
LINE
  5
35D
330
1F
100
AcDbEntity
  8
0
  6
HIDDEN
 62
     7
370
     0
100
AcDbLine
 10
43.779191003
 20
38.6226580699
 30
0.0
 11
43.779191003
 21
42.7364502788
 31
0.0
  0
ARC
  5
35E
330
1F
100
AcDbEntity
  8
0
  6
HIDDEN
 62
     7
370
     0
100
AcDbCircle
 10
45.3666923489
 20
38.6226581477
 30
0.0
 40
1.587501260449082
100
AcDbArc
 50
180.0
 51
223.5909310811
  0
LINE
  5
35F
330
1F
100
AcDbEntity
  8
0
  6
HIDDEN
 62
     7
370
     0
100
AcDbLine
 10
44.2168953836
 20
37.5280681287
 30
0.0
 11
48.0678769768
 21
34.9011563916
 31
0.0
  0
ARC
  5
360
330
1F
100
AcDbEntity
  8
0
  6
HIDDEN
 62
     7
370
     0
100
AcDbCircle
 10
47.0491953761
 20
32.4045498676
 30
0.0
 40
1.587500000000011
100
AcDbArc
 50
269.9994426508
 51
356.7813038542
  0
LINE
  5
361
330
1F
100
AcDbEntity
  8
0
  6
HIDDEN
 62
     7
370
     0
100
AcDbLine
 10
46.1824242033
 20
30.8170498569
 30
0.0
 11
47.0491795808
 21
30.8170498569
 31
0.0
  0
LINE
  5
362
330
1F
100
AcDbEntity
  8
0
  6
HIDDEN
 62
     7
370
     0
100
AcDbLine
 10
44.5525892087
 20
31.3858681579
 30
0.0
 11
41.925677006
 21
35.236849751
 31
0.0
  0
ARC
  5
363
330
1F
100
AcDbEntity
  8
0
  6
HIDDEN
 62
     7
370
     0
100
AcDbCircle
 10
40.831087096
 20
34.0870528948
 30
0.0
 40
1.587501260449082
100
AcDbArc
 50
46.4090689189
 51
90.0
  0
LINE
  5
364
330
1F
100
AcDbEntity
  8
0
  6
HIDDEN
 62
     7
370
     0
100
AcDbLine
 10
36.7172950887
 20
35.6745541316
 30
0.0
 11
40.8310870648
 21
35.6745541316
 31
0.0
  0
ARC
  5
365
330
1F
100
AcDbEntity
  8
0
  6
HIDDEN
 62
     7
370
     0
100
AcDbCircle
 10
36.7172950808
 20
34.0870528948
 30
0.0
 40
1.587501260449082
100
AcDbArc
 50
90.0
 51
133.5909310811
  0
LINE
  5
366
330
1F
100
AcDbEntity
  8
0
  6
HIDDEN
 62
     7
370
     0
100
AcDbLine
 10
35.6227051475
 20
35.236849751
 30
0.0
 11
32.9957934104
 21
31.3858681579
 31
0.0
  0
LINE
  5
367
330
1F
100
AcDbEntity
  8
0
  6
HIDDEN
 62
     7
370
     0
100
AcDbLine
 10
31.3659579501
 20
30.8170498569
 30
0.0
 11
30.4992021069
 21
30.8170498569
 31
0.0
  0
ARC
  5
368
330
1F
100
AcDbEntity
  8
0
  6
HIDDEN
 62
     7
370
     0
100
AcDbCircle
 10
30.4991868007
 20
32.4045498676
 30
0.0
 40
1.587500000000007
100
AcDbArc
 50
179.9994426508
 51
270.0005573492
  0
LINE
  5
369
330
1F
100
AcDbEntity
  8
0
  6
HIDDEN
 62
     7
370
     0
100
AcDbLine
 10
28.91168641
 20
32.4045655538
 30
0.0
 11
28.91168641
 21
33.2713209313
 31
0.0
  0
LINE
  5
36A
330
1F
100
AcDbEntity
  8
0
  6
HIDDEN
 62
     7
370
     0
100
AcDbLine
 10
29.480504711
 20
34.9011563916
 30
0.0
 11
33.3314867698
 21
37.5280681287
 31
0.0
  0
ARC
  5
36B
330
1F
100
AcDbEntity
  8
0
  6
HIDDEN
 62
     7
370
     0
100
AcDbCircle
 10
32.181689828
 20
38.6226581477
 30
0.0
 40
1.587501260449081
100
AcDbArc
 50
316.4090689189
 51
0.0
  0
LINE
  5
36C
330
1F
100
AcDbEntity
  8
0
  6
HIDDEN
 62
     7
370
     0
100
AcDbLine
 10
33.7691911504
 20
38.6226580699
 30
0.0
 11
33.7691911504
 21
42.7364502788
 31
0.0
  0
ARC
  5
36D
330
1F
100
AcDbEntity
  8
0
  6
HIDDEN
 62
     7
370
     0
100
AcDbCircle
 10
46.0691910884
 20
48.0735491047
 30
0.0
 40
2.569999999999999
100
AcDbArc
 50
321.0503668413
 51
356.4254077719
  0
ARC
  5
36E
330
1F
100
AcDbEntity
  8
0
  6
HIDDEN
 62
     7
370
     0
100
AcDbCircle
 10
46.1681860378
 20
47.9745541553
 30
0.0
 40
2.569999999999997
100
AcDbArc
 50
93.574592228
 51
128.9496331587
  0
ARC
  5
36F
330
1F
100
AcDbEntity
  8
0
  6
HIDDEN
 62
     7
370
     0
100
AcDbCircle
 10
31.3801961391
 20
47.9745541553
 30
0.0
 40
2.569999999999996
100
AcDbArc
 50
51.0503668413
 51
86.425407772
  0
ARC
  5
370
330
1F
100
AcDbEntity
  8
0
  6
HIDDEN
 62
     7
370
     0
100
AcDbCircle
 10
31.4791910884
 20
48.0735491047
 30
0.0
 40
2.570000000000001
100
AcDbArc
 50
181.103568776
 51
218.9496331587
  0
ARC
  5
371
330
1F
100
AcDbEntity
  8
0
  6
HIDDEN
 62
     7
370
     0
100
AcDbCircle
 10
31.4791910884
 20
33.2855592059
 30
0.0
 40
2.569999999999998
100
AcDbArc
 50
141.0503668413
 51
178.896431224
  0
ARC
  5
372
330
1F
100
AcDbEntity
  8
0
  6
HIDDEN
 62
     7
370
     0
100
AcDbCircle
 10
31.3801961391
 20
33.3845541553
 30
0.0
 40
2.570000000000002
100
AcDbArc
 50
271.103568776
 51
308.9496331587
  0
LINE
  5
373
330
1F
100
AcDbEntity
  8
0
  6
HIDDEN
 62
     7
370
     0
100
AcDbLine
 10
33.3314867698
 20
43.8310399872
 30
0.0
 11
29.480504711
 21
46.4579521899
 31
0.0
  0
ARC
  5
374
330
1F
100
AcDbEntity
  8
0
  6
HIDDEN
 62
     7
370
     0
100
AcDbCircle
 10
46.1681860378
 20
33.3845541553
 30
0.0
 40
2.570000000000017
100
AcDbArc
 50
231.0503668413
 51
268.896431224
  0
ARC
  5
375
330
1F
100
AcDbEntity
  8
0
  6
HIDDEN
 62
     7
370
     0
100
AcDbCircle
 10
46.0691910884
 20
33.3845541553
 30
0.0
 40
2.570000000000003
100
AcDbArc
 50
271.103568776
 51
272.5252448145
  0
ARC
  5
376
330
1F
100
AcDbEntity
  8
0
  6
HIDDEN
 62
     7
370
     0
100
AcDbCircle
 10
46.0691910884
 20
33.2855592059
 30
0.0
 40
2.569999999999999
100
AcDbArc
 50
3.5745922281
 51
38.9496331587
  0
ARC
  5
377
330
1F
100
AcDbEntity
  8
0
  6
HIDDEN
 62
     7
370
     0
100
AcDbCircle
 10
31.4791910884
 20
47.9745541553
 30
0.0
 40
2.569999999999999
100
AcDbArc
 50
177.4747551855
 51
178.896431224
  0
ARC
  5
378
330
1F
100
AcDbEntity
  8
0
  6
HIDDEN
 62
     7
370
     0
100
AcDbCircle
 10
31.4791910884
 20
33.3845541553
 30
0.0
 40
2.570000000000003
100
AcDbArc
 50
267.4747551855
 51
268.896431224
  0
ARC
  5
379
330
1F
100
AcDbEntity
  8
0
  6
HIDDEN
 62
     7
370
     0
100
AcDbCircle
 10
31.4791910884
 20
33.3845541553
 30
0.0
 40
2.569999999999998
100
AcDbArc
 50
181.103568776
 51
182.5252448145
  0
ARC
  5
37A
330
1F
100
AcDbEntity
  8
0
  6
HIDDEN
 62
     7
370
     0
100
AcDbCircle
 10
37.5161529789
 20
39.4215160458
 30
0.0
 40
7.831548330466917
100
AcDbArc
 50
32.9316753388
 51
57.0683246612
  0
ARC
  5
37B
330
1F
100
AcDbEntity
  8
0
  6
HIDDEN
 62
     7
370
     0
100
AcDbCircle
 10
40.0322291979
 20
39.4215160458
 30
0.0
 40
7.831548330466914
100
AcDbArc
 50
122.9316753388
 51
147.0683246612
  0
ARC
  5
37C
330
1F
100
AcDbEntity
  8
0
  6
HIDDEN
 62
     7
370
     0
100
AcDbCircle
 10
40.0322291979
 20
41.9375922648
 30
0.0
 40
7.831548330466918
100
AcDbArc
 50
212.9316753388
 51
237.0683246612
  0
ARC
  5
37D
330
1F
100
AcDbEntity
  8
0
  6
HIDDEN
 62
     7
370
     0
100
AcDbCircle
 10
37.5161529789
 20
41.9375922648
 30
0.0
 40
7.83154833046691
100
AcDbArc
 50
302.9316753388
 51
327.0683246612
  0
LINE
  5
37E
330
1F
100
AcDbEntity
  8
LAYOUT
  6
HIDDEN
 62
     7
100
AcDbLine
 10
30.1591910884
 20
38.7294594849
 30
0.0
 11
30.1591910884
 21
32.0645541553
 31
0.0
  0
LINE
  5
37F
330
1F
100
AcDbEntity
  8
LAYOUT
  6
HIDDEN
 62
     7
100
AcDbLine
 10
30.1591910884
 20
49.2895541553
 30
0.0
 11
30.1591910884
 21
42.6246488257
 31
0.0
  0
LINE
  5
380
330
1F
100
AcDbEntity
  8
LAYOUT
  6
HIDDEN
 62
     7
100
AcDbLine
 10
36.8219157167
 20
49.2895541553
 30
0.0
 11
30.1591910884
 21
49.2895541553
 31
0.0
  0
LINE
  5
381
330
1F
100
AcDbEntity
  8
LAYOUT
 62
     7
100
AcDbLine
 10
22.5961910884
 20
56.2895541553
 30
0.0
 11
22.5961910884
 21
27.0645541553
 31
0.0
  0
LINE
  5
382
330
1F
100
AcDbEntity
  8
LAYOUT
 62
     7
100
AcDbLine
 10
51.3221910884
 20
60.2895541553
 30
0.0
 11
26.5961910884
 21
60.2895541553
 31
0.0
  0
LINE
  5
383
330
1F
100
AcDbEntity
  8
LAYOUT
 62
     7
100
AcDbLine
 10
55.3221910884
 20
27.0645541553
 30
0.0
 11
55.3221910884
 21
56.2895541553
 31
0.0
  0
LINE
  5
384
330
1F
100
AcDbEntity
  8
LAYOUT
 62
     7
100
AcDbLine
 10
26.5961910884
 20
23.0645541553
 30
0.0
 11
51.3221910884
 21
23.0645541553
 31
0.0
  0
LINE
  5
385
330
1F
100
AcDbEntity
  8
LAYOUT
 62
     7
100
AcDbLine
 10
38.7716910884
 20
31.6385541553
 30
0.0
 11
39.1466910884
 21
31.6385541553
 31
0.0
  0
LINE
  5
386
330
1F
100
AcDbEntity
  8
LAYOUT
 62
     7
100
AcDbLine
 10
39.1466910884
 20
49.7155541553
 30
0.0
 11
38.7716910884
 21
49.7155541553
 31
0.0
  0
LINE
  5
387
330
1F
100
AcDbEntity
  8
LAYOUT
  6
HIDDEN
 62
     7
100
AcDbLine
 10
47.7591910884
 20
49.2895541553
 30
0.0
 11
41.0964664601
 21
49.2895541553
 31
0.0
  0
LINE
  5
388
330
1F
100
AcDbEntity
  8
LAYOUT
  6
HIDDEN
 62
     7
100
AcDbLine
 10
47.7591910884
 20
42.6246488257
 30
0.0
 11
47.7591910884
 21
49.2895541553
 31
0.0
  0
LINE
  5
389
330
1F
100
AcDbEntity
  8
LAYOUT
  6
HIDDEN
 62
     7
100
AcDbLine
 10
47.7591910884
 20
32.0645541553
 30
0.0
 11
47.7591910884
 21
38.7294594849
 31
0.0
  0
LINE
  5
38A
330
1F
100
AcDbEntity
  8
LAYOUT
  6
HIDDEN
 62
     7
100
AcDbLine
 10
41.0964664601
 20
32.0645541553
 30
0.0
 11
47.7591910884
 21
32.0645541553
 31
0.0
  0
LINE
  5
38B
330
1F
100
AcDbEntity
  8
LAYOUT
  6
HIDDEN
 62
     7
100
AcDbLine
 10
30.1591910884
 20
32.0645541553
 30
0.0
 11
36.8219157167
 21
32.0645541553
 31
0.0
  0
ARC
  5
38C
330
1F
100
AcDbEntity
  8
LAYOUT
 62
     7
100
AcDbCircle
 10
26.5961910884
 20
56.2895541553
 30
0.0
 40
3.999999999999996
100
AcDbArc
 50
90.0
 51
180.0
  0
ARC
  5
38D
330
1F
100
AcDbEntity
  8
LAYOUT
 62
     7
100
AcDbCircle
 10
51.3221910884
 20
56.2895541553
 30
0.0
 40
3.999999999999993
100
AcDbArc
 50
0.0
 51
90.0
  0
ARC
  5
38E
330
1F
100
AcDbEntity
  8
LAYOUT
 62
     7
100
AcDbCircle
 10
51.3221910884
 20
27.0645541553
 30
0.0
 40
4.000000000000001
100
AcDbArc
 50
303.1229402077
 51
0.0
  0
ARC
  5
38F
330
1F
100
AcDbEntity
  8
LAYOUT
 62
     7
100
AcDbCircle
 10
51.3221910884
 20
27.0645541553
 30
0.0
 40
4.000000000000001
100
AcDbArc
 50
270.0
 51
303.1229402077
  0
ARC
  5
390
330
1F
100
AcDbEntity
  8
LAYOUT
 62
     7
100
AcDbCircle
 10
26.5961910884
 20
27.0645541553
 30
0.0
 40
4.000000000000005
100
AcDbArc
 50
236.8770597923
 51
270.0
  0
ARC
  5
391
330
1F
100
AcDbEntity
  8
LAYOUT
 62
     7
100
AcDbCircle
 10
26.5961910884
 20
27.0645541553
 30
0.0
 40
4.000000000000005
100
AcDbArc
 50
180.0
 51
236.8770597923
  0
ARC
  5
392
330
1F
100
AcDbEntity
  8
LAYOUT
  6
HIDDEN
 62
     7
100
AcDbCircle
 10
27.1591910884
 20
42.6246488257
 30
0.0
 40
3.000000000000002
100
AcDbArc
 50
335.3800226713
 51
0.0
  0
ARC
  5
393
330
1F
100
AcDbEntity
  8
LAYOUT
  6
HIDDEN
 62
     7
100
AcDbCircle
 10
31.4091910884
 20
40.6770541553
 30
0.0
 40
1.674999999999999
100
AcDbArc
 50
155.3800226713
 51
204.6199773287
  0
ARC
  5
394
330
1F
100
AcDbEntity
  8
LAYOUT
  6
HIDDEN
 62
     7
100
AcDbCircle
 10
27.1591910884
 20
38.7294594849
 30
0.0
 40
3.000000000000005
100
AcDbArc
 50
0.0
 51
24.6199773287
  0
ARC
  5
395
330
1F
100
AcDbEntity
  8
LAYOUT
  6
HIDDEN
 62
     7
100
AcDbCircle
 10
36.8219157167
 20
29.0645541553
 30
0.0
 40
3.000000000000004
100
AcDbArc
 50
65.3506203936
 51
90.0
  0
ARC
  5
396
330
1F
100
AcDbEntity
  8
LAYOUT
  6
HIDDEN
 62
     7
100
AcDbCircle
 10
38.7716910884
 20
33.3135541553
 30
0.0
 40
1.675000000000008
100
AcDbArc
 50
245.3506203936
 51
270.0
  0
ARC
  5
397
330
1F
100
AcDbEntity
  8
LAYOUT
  6
HIDDEN
 62
     7
100
AcDbCircle
 10
39.1466910884
 20
33.3135541553
 30
0.0
 40
1.675000000000008
100
AcDbArc
 50
270.0
 51
294.6493796064
  0
ARC
  5
398
330
1F
100
AcDbEntity
  8
LAYOUT
  6
HIDDEN
 62
     7
100
AcDbCircle
 10
41.0964664601
 20
29.0645541553
 30
0.0
 40
3.000000000000004
100
AcDbArc
 50
90.0
 51
114.6493796064
  0
ARC
  5
399
330
1F
100
AcDbEntity
  8
LAYOUT
  6
HIDDEN
 62
     7
100
AcDbCircle
 10
50.7591910884
 20
38.7294594849
 30
0.0
 40
3.000000000000003
100
AcDbArc
 50
155.3800226713
 51
180.0
  0
ARC
  5
39A
330
1F
100
AcDbEntity
  8
LAYOUT
  6
HIDDEN
 62
     7
100
AcDbCircle
 10
46.5091910884
 20
40.6770541553
 30
0.0
 40
1.67500000000001
100
AcDbArc
 50
335.3800226713
 51
24.6199773287
  0
ARC
  5
39B
330
1F
100
AcDbEntity
  8
LAYOUT
  6
HIDDEN
 62
     7
100
AcDbCircle
 10
50.7591910884
 20
42.6246488257
 30
0.0
 40
3.0
100
AcDbArc
 50
180.0
 51
204.6199773287
  0
ARC
  5
39C
330
1F
100
AcDbEntity
  8
LAYOUT
  6
HIDDEN
 62
     7
100
AcDbCircle
 10
36.8219157167
 20
52.2895541553
 30
0.0
 40
3.000000000000003
100
AcDbArc
 50
270.0
 51
294.6493796064
  0
ARC
  5
39D
330
1F
100
AcDbEntity
  8
LAYOUT
  6
HIDDEN
 62
     7
100
AcDbCircle
 10
38.7716910884
 20
48.0405541553
 30
0.0
 40
1.675000000000011
100
AcDbArc
 50
90.0
 51
114.6493796064
  0
ARC
  5
39E
330
1F
100
AcDbEntity
  8
LAYOUT
  6
HIDDEN
 62
     7
100
AcDbCircle
 10
39.1466910884
 20
48.0405541553
 30
0.0
 40
1.675000000000014
100
AcDbArc
 50
65.3506203936
 51
90.0
  0
ARC
  5
39F
330
1F
100
AcDbEntity
  8
LAYOUT
  6
HIDDEN
 62
     7
100
AcDbCircle
 10
41.0964664601
 20
52.2895541553
 30
0.0
 40
3.0
100
AcDbArc
 50
245.3506203936
 51
270.0
  0
ENDSEC
  0
SECTION
  2
OBJECTS
  0
DICTIONARY
  5
C
330
0
100
AcDbDictionary
281
     1
  3
ACAD_GROUP
350
D
  3
ACAD_LAYOUT
350
1A
  3
ACAD_MLINESTYLE
350
17
  3
ACAD_PLOTSETTINGS
350
19
  3
ACAD_PLOTSTYLENAME
350
E
  3
ACAD_SCALELIST
350
47
  0
DICTIONARY
  5
D
102
{ACAD_REACTORS
330
C
102
}
330
C
100
AcDbDictionary
281
     1
  0
DICTIONARY
  5
1A
102
{ACAD_REACTORS
330
C
102
}
330
C
100
AcDbDictionary
281
     1
  3
Layout1
350
1E
  3
Layout2
350
26
  3
Model
350
22
  0
DICTIONARY
  5
17
102
{ACAD_REACTORS
330
C
102
}
330
C
100
AcDbDictionary
281
     1
  3
Standard
350
18
  0
DICTIONARY
  5
19
102
{ACAD_REACTORS
330
C
102
}
330
C
100
AcDbDictionary
281
     1
  0
ACDBDICTIONARYWDFLT
  5
E
102
{ACAD_REACTORS
330
C
102
}
330
C
100
AcDbDictionary
281
     1
  3
Normal
350
F
100
AcDbDictionaryWithDefault
340
F
  0
DICTIONARY
  5
47
102
{ACAD_REACTORS
330
C
102
}
330
C
100
AcDbDictionary
281
     1
  3
A0
350
48
  3
A1
350
49
  3
A2
350
4A
  3
A3
350
4B
  3
A4
350
4C
  3
A5
350
4D
  3
A6
350
4E
  3
A7
350
4F
  3
A8
350
50
  3
A9
350
51
  3
B0
350
52
  3
B1
350
53
  3
B2
350
54
  3
B3
350
55
  3
B4
350
56
  3
B5
350
57
  3
B6
350
58
  3
B7
350
59
  3
B8
350
5A
  3
B9
350
5B
  3
C0
350
5C
  3
C1
350
5D
  3
C2
350
5E
  3
C3
350
5F
  3
C4
350
60
  3
C5
350
61
  3
C6
350
62
  3
C7
350
63
  3
C8
350
64
  3
C9
350
65
  3
D0
350
66
  3
D1
350
67
  3
D2
350
68
  0
LAYOUT
  5
1E
102
{ACAD_REACTORS
330
1A
102
}
330
1A
100
AcDbPlotSettings
  1

  2
none_device
  4

  6

 40
0.0
 41
0.0
 42
0.0
 43
0.0
 44
0.0
 45
0.0
 46
0.0
 47
0.0
 48
0.0
 49
0.0
140
0.0
141
0.0
142
1.0
143
1.0
 70
   688
 72
     1
 73
     0
 74
     5
  7

 75
    16
147
1.0
148
0.0
149
0.0
100
AcDbLayout
  1
Layout1
 70
     1
 71
     1
 10
0.0
 20
0.0
 11
420.0
 21
297.0
 12
0.0
 22
0.0
 32
0.0
 14
1.0000000000E+20
 24
1.0000000000E+20
 34
1.0000000000E+20
 15
-1.0000000000E+20
 25
-1.0000000000E+20
 35
-1.0000000000E+20
146
0.0
 13
0.0
 23
0.0
 33
0.0
 16
1.0
 26
0.0
 36
0.0
 17
0.0
 27
1.0
 37
0.0
 76
     0
330
1B
  0
LAYOUT
  5
26
102
{ACAD_REACTORS
330
1A
102
}
330
1A
100
AcDbPlotSettings
  1

  2
none_device
  4

  6

 40
0.0
 41
0.0
 42
0.0
 43
0.0
 44
0.0
 45
0.0
 46
0.0
 47
0.0
 48
0.0
 49
0.0
140
0.0
141
0.0
142
1.0
143
1.0
 70
   688
 72
     1
 73
     0
 74
     5
  7

 75
    16
147
1.0
148
0.0
149
0.0
100
AcDbLayout
  1
Layout2
 70
     1
 71
     2
 10
0.0
 20
0.0
 11
0.0
 21
0.0
 12
0.0
 22
0.0
 32
0.0
 14
0.0
 24
0.0
 34
0.0
 15
0.0
 25
0.0
 35
0.0
146
0.0
 13
0.0
 23
0.0
 33
0.0
 16
1.0
 26
0.0
 36
0.0
 17
0.0
 27
1.0
 37
0.0
 76
     0
330
23
  0
LAYOUT
  5
22
102
{ACAD_REACTORS
330
1A
102
}
330
1A
100
AcDbPlotSettings
  1

  2
none_device
  4
Letter_(8.50_x_11.00_Inches)
  6

 40
6.35
 41
6.35
 42
6.35000508
 43
6.35000508
 44
215.9
 45
279.4
 46
0.0
 47
0.0
 48
0.0
 49
0.0
140
0.0
141
0.0
142
1.0
143
1.0
 70
  1712
 72
     1
 73
     0
 74
     0
  7

 75
     0
147
1.0
148
0.0
149
0.0
100
AcDbLayout
  1
Model
 70
     1
 71
     0
 10
0.0
 20
0.0
 11
93.1333333333
 21
71.9666666667
 12
0.0
 22
0.0
 32
0.0
 14
0.0
 24
0.0
 34
0.0
 15
93.1333333333
 25
71.9666666667
 35
0.0
146
0.0
 13
0.0
 23
0.0
 33
0.0
 16
1.0
 26
0.0
 36
0.0
 17
0.0
 27
1.0
 37
0.0
 76
     0
330
1F
331
29
  0
MLINESTYLE
  5
18
102
{ACAD_REACTORS
330
17
102
}
330
17
100
AcDbMlineStyle
  2
Standard
 70
     0
  3

 62
   256
 51
90.0
 52
90.0
 71
     2
 49
0.5
 62
   256
  6
BYLAYER
 49
-0.5
 62
   256
  6
BYLAYER
  0
ACDBPLACEHOLDER
  5
F
102
{ACAD_REACTORS
330
E
102
}
330
E
  0
SCALE
  5
48
102
{ACAD_REACTORS
330
47
102
}
330
47
100
AcDbScale
 70
     0
300
1:1
140
1.0
141
1.0
290
     1
  0
SCALE
  5
49
102
{ACAD_REACTORS
330
47
102
}
330
47
100
AcDbScale
 70
     0
300
1:2
140
1.0
141
2.0
290
     0
  0
SCALE
  5
4A
102
{ACAD_REACTORS
330
47
102
}
330
47
100
AcDbScale
 70
     0
300
1:4
140
1.0
141
4.0
290
     0
  0
SCALE
  5
4B
102
{ACAD_REACTORS
330
47
102
}
330
47
100
AcDbScale
 70
     0
300
1:5
140
1.0
141
5.0
290
     0
  0
SCALE
  5
4C
102
{ACAD_REACTORS
330
47
102
}
330
47
100
AcDbScale
 70
     0
300
1:8
140
1.0
141
8.0
290
     0
  0
SCALE
  5
4D
102
{ACAD_REACTORS
330
47
102
}
330
47
100
AcDbScale
 70
     0
300
1:10
140
1.0
141
10.0
290
     0
  0
SCALE
  5
4E
102
{ACAD_REACTORS
330
47
102
}
330
47
100
AcDbScale
 70
     0
300
1:16
140
1.0
141
16.0
290
     0
  0
SCALE
  5
4F
102
{ACAD_REACTORS
330
47
102
}
330
47
100
AcDbScale
 70
     0
300
1:20
140
1.0
141
20.0
290
     0
  0
SCALE
  5
50
102
{ACAD_REACTORS
330
47
102
}
330
47
100
AcDbScale
 70
     0
300
1:30
140
1.0
141
30.0
290
     0
  0
SCALE
  5
51
102
{ACAD_REACTORS
330
47
102
}
330
47
100
AcDbScale
 70
     0
300
1:40
140
1.0
141
40.0
290
     0
  0
SCALE
  5
52
102
{ACAD_REACTORS
330
47
102
}
330
47
100
AcDbScale
 70
     0
300
1:50
140
1.0
141
50.0
290
     0
  0
SCALE
  5
53
102
{ACAD_REACTORS
330
47
102
}
330
47
100
AcDbScale
 70
     0
300
1:100
140
1.0
141
100.0
290
     0
  0
SCALE
  5
54
102
{ACAD_REACTORS
330
47
102
}
330
47
100
AcDbScale
 70
     0
300
2:1
140
2.0
141
1.0
290
     0
  0
SCALE
  5
55
102
{ACAD_REACTORS
330
47
102
}
330
47
100
AcDbScale
 70
     0
300
4:1
140
4.0
141
1.0
290
     0
  0
SCALE
  5
56
102
{ACAD_REACTORS
330
47
102
}
330
47
100
AcDbScale
 70
     0
300
8:1
140
8.0
141
1.0
290
     0
  0
SCALE
  5
57
102
{ACAD_REACTORS
330
47
102
}
330
47
100
AcDbScale
 70
     0
300
10:1
140
10.0
141
1.0
290
     0
  0
SCALE
  5
58
102
{ACAD_REACTORS
330
47
102
}
330
47
100
AcDbScale
 70
     0
300
100:1
140
100.0
141
1.0
290
     0
  0
SCALE
  5
59
102
{ACAD_REACTORS
330
47
102
}
330
47
100
AcDbScale
 70
     0
300
1/128" = 1'-0"
140
0.0078125
141
12.0
290
     0
  0
SCALE
  5
5A
102
{ACAD_REACTORS
330
47
102
}
330
47
100
AcDbScale
 70
     0
300
1/64" = 1'-0"
140
0.015625
141
12.0
290
     0
  0
SCALE
  5
5B
102
{ACAD_REACTORS
330
47
102
}
330
47
100
AcDbScale
 70
     0
300
1/32" = 1'-0"
140
0.03125
141
12.0
290
     0
  0
SCALE
  5
5C
102
{ACAD_REACTORS
330
47
102
}
330
47
100
AcDbScale
 70
     0
300
1/16" = 1'-0"
140
0.0625
141
12.0
290
     0
  0
SCALE
  5
5D
102
{ACAD_REACTORS
330
47
102
}
330
47
100
AcDbScale
 70
     0
300
3/32" = 1'-0"
140
0.09375
141
12.0
290
     0
  0
SCALE
  5
5E
102
{ACAD_REACTORS
330
47
102
}
330
47
100
AcDbScale
 70
     0
300
1/8" = 1'-0"
140
0.125
141
12.0
290
     0
  0
SCALE
  5
5F
102
{ACAD_REACTORS
330
47
102
}
330
47
100
AcDbScale
 70
     0
300
3/16" = 1'-0"
140
0.1875
141
12.0
290
     0
  0
SCALE
  5
60
102
{ACAD_REACTORS
330
47
102
}
330
47
100
AcDbScale
 70
     0
300
1/4" = 1'-0"
140
0.25
141
12.0
290
     0
  0
SCALE
  5
61
102
{ACAD_REACTORS
330
47
102
}
330
47
100
AcDbScale
 70
     0
300
3/8" = 1'-0"
140
0.375
141
12.0
290
     0
  0
SCALE
  5
62
102
{ACAD_REACTORS
330
47
102
}
330
47
100
AcDbScale
 70
     0
300
1/2" = 1'-0"
140
0.5
141
12.0
290
     0
  0
SCALE
  5
63
102
{ACAD_REACTORS
330
47
102
}
330
47
100
AcDbScale
 70
     0
300
3/4" = 1'-0"
140
0.75
141
12.0
290
     0
  0
SCALE
  5
64
102
{ACAD_REACTORS
330
47
102
}
330
47
100
AcDbScale
 70
     0
300
1" = 1'-0"
140
1.0
141
12.0
290
     0
  0
SCALE
  5
65
102
{ACAD_REACTORS
330
47
102
}
330
47
100
AcDbScale
 70
     0
300
1-1/2" = 1'-0"
140
1.5
141
12.0
290
     0
  0
SCALE
  5
66
102
{ACAD_REACTORS
330
47
102
}
330
47
100
AcDbScale
 70
     0
300
3" = 1'-0"
140
3.0
141
12.0
290
     0
  0
SCALE
  5
67
102
{ACAD_REACTORS
330
47
102
}
330
47
100
AcDbScale
 70
     0
300
6" = 1'-0"
140
6.0
141
12.0
290
     0
  0
SCALE
  5
68
102
{ACAD_REACTORS
330
47
102
}
330
47
100
AcDbScale
 70
     0
300
1'-0" = 1'-0"
140
12.0
141
12.0
290
     0
  0
ENDSEC
  0
EOF
