  0
SECTION
  2
HEADER
  9
$ACADVER
  1
AC1014
  9
$ACADMAINTVER
 70
     9
  9
$DWGCODEPAGE
  3
ANSI_1252
  9
$INSBASE
 10
0.0
 20
0.0
 30
0.0
  9
$EXTMIN
 10
44.5704510943
 20
32.7267132039
 30
0.0
  9
$EXTMAX
 10
77.17045134470001
 20
71.951714092
 30
0.0
  9
$LIMMIN
 10
0.0
 20
0.0
  9
$LIMMAX
 10
111.76
 20
86.36
  9
$ORTHOMODE
 70
     0
  9
$REGENMODE
 70
     1
  9
$FILLMODE
 70
     1
  9
$QTEXTMODE
 70
     0
  9
$MIRRTEXT
 70
     1
  9
$DRAGMODE
 70
     2
  9
$LTSCALE
 40
0.4
  9
$OSMODE
 70
 16895
  9
$ATTMODE
 70
     1
  9
$TEXTSIZE
 40
1.27
  9
$TRACEWID
 40
1.0
  9
$TEXTSTYLE
  7
STANDARD
  9
$CLAYER
  8
0
  9
$CELTYPE
  6
BYLAYER
  9
$CECOLOR
 62
   256
  9
$CELTSCALE
 40
1.0
  9
$DELOBJ
 70
     1
  9
$DISPSILH
 70
     0
  9
$DIMSCALE
 40
1.0
  9
$DIMASZ
 40
1.3208
  9
$DIMEXO
 40
0.508
  9
$DIMDLI
 40
3.75
  9
$DIMRND
 40
0.0
  9
$DIMDLE
 40
0.0
  9
$DIMEXE
 40
1.27
  9
$DIMTP
 40
0.0
  9
$DIMTM
 40
0.0
  9
$DIMTXT
 40
1.27
  9
$DIMCEN
 40
2.5
  9
$DIMTSZ
 40
0.0
  9
$DIMTOL
 70
     0
  9
$DIMLIM
 70
     0
  9
$DIMTIH
 70
     1
  9
$DIMTOH
 70
     1
  9
$DIMSE1
 70
     0
  9
$DIMSE2
 70
     0
  9
$DIMTAD
 70
     0
  9
$DIMZIN
 70
     1
  9
$DIMBLK
  1

  9
$DIMASO
 70
     1
  9
$DIMSHO
 70
     1
  9
$DIMPOST
  1

  9
$DIMAPOST
  1

  9
$DIMALT
 70
     0
  9
$DIMALTD
 70
     3
  9
$DIMALTF
 40
0.0393700787
  9
$DIMLFAC
 40
1.0
  9
$DIMTOFL
 70
     1
  9
$DIMTVP
 40
0.0
  9
$DIMTIX
 70
     0
  9
$DIMSOXD
 70
     0
  9
$DIMSAH
 70
     0
  9
$DIMBLK1
  1

  9
$DIMBLK2
  1

  9
$DIMSTYLE
  2
ISO-25
  9
$DIMCLRD
 70
     0
  9
$DIMCLRE
 70
     0
  9
$DIMCLRT
 70
     0
  9
$DIMTFAC
 40
1.0
  9
$DIMGAP
 40
0.6096
  9
$DIMJUST
 70
     0
  9
$DIMSD1
 70
     0
  9
$DIMSD2
 70
     0
  9
$DIMTOLJ
 70
     0
  9
$DIMTZIN
 70
     1
  9
$DIMALTZ
 70
     0
  9
$DIMALTTZ
 70
     0
  9
$DIMFIT
 70
     3
  9
$DIMUPT
 70
     0
  9
$DIMUNIT
 70
     2
  9
$DIMDEC
 70
     4
  9
$DIMTDEC
 70
     4
  9
$DIMALTU
 70
     2
  9
$DIMALTTD
 70
     3
  9
$DIMTXSTY
  7
STANDARD
  9
$DIMAUNIT
 70
     0
  9
$LUNITS
 70
     2
  9
$LUPREC
 70
     4
  9
$SKETCHINC
 40
1.0
  9
$FILLETRAD
 40
10.0
  9
$AUNITS
 70
     0
  9
$AUPREC
 70
     2
  9
$MENU
  1
.
  9
$ELEVATION
 40
0.0
  9
$PELEVATION
 40
0.0
  9
$THICKNESS
 40
0.0
  9
$LIMCHECK
 70
     0
  9
$CHAMFERA
 40
0.0
  9
$CHAMFERB
 40
0.0
  9
$CHAMFERC
 40
0.0
  9
$CHAMFERD
 40
0.0
  9
$SKPOLY
 70
     0
  9
$TDCREATE
 40
2457134.566838542
  9
$TDUPDATE
 40
2457134.570095764
  9
$TDINDWG
 40
0.0027722569
  9
$TDUSRTIMER
 40
2457134.775658009
  9
$USRTIMER
 70
     1
  9
$ANGBASE
 50
0.0
  9
$ANGDIR
 70
     0
  9
$PDMODE
 70
     0
  9
$PDSIZE
 40
-1.0
  9
$PLINEWID
 40
0.0
  9
$COORDS
 70
     1
  9
$SPLFRAME
 70
     0
  9
$SPLINETYPE
 70
     6
  9
$SPLINESEGS
 70
     8
  9
$ATTDIA
 70
     0
  9
$ATTREQ
 70
     1
  9
$HANDLING
 70
     1
  9
$HANDSEED
  5
271
  9
$SURFTAB1
 70
     6
  9
$SURFTAB2
 70
     6
  9
$SURFTYPE
 70
     6
  9
$SURFU
 70
     6
  9
$SURFV
 70
     6
  9
$UCSNAME
  2

  9
$UCSORG
 10
0.0
 20
0.0
 30
0.0
  9
$UCSXDIR
 10
1.0
 20
0.0
 30
0.0
  9
$UCSYDIR
 10
0.0
 20
1.0
 30
0.0
  9
$PUCSNAME
  2

  9
$PUCSORG
 10
0.0
 20
0.0
 30
0.0
  9
$PUCSXDIR
 10
1.0
 20
0.0
 30
0.0
  9
$PUCSYDIR
 10
0.0
 20
1.0
 30
0.0
  9
$USERI1
 70
     0
  9
$USERI2
 70
     0
  9
$USERI3
 70
     0
  9
$USERI4
 70
     0
  9
$USERI5
 70
     0
  9
$USERR1
 40
0.0
  9
$USERR2
 40
0.0
  9
$USERR3
 40
0.0
  9
$USERR4
 40
0.0
  9
$USERR5
 40
0.0
  9
$WORLDVIEW
 70
     1
  9
$SHADEDGE
 70
     3
  9
$SHADEDIF
 70
    70
  9
$TILEMODE
 70
     1
  9
$MAXACTVP
 70
    64
  9
$PINSBASE
 10
0.0
 20
0.0
 30
0.0
  9
$PLIMCHECK
 70
     0
  9
$PEXTMIN
 10
1.000000000000000E+20
 20
1.000000000000000E+20
 30
1.000000000000000E+20
  9
$PEXTMAX
 10
-1.000000000000000E+20
 20
-1.000000000000000E+20
 30
-1.000000000000000E+20
  9
$PLIMMIN
 10
0.0
 20
0.0
  9
$PLIMMAX
 10
0.0
 20
0.0
  9
$UNITMODE
 70
     0
  9
$VISRETAIN
 70
     1
  9
$PLINEGEN
 70
     0
  9
$PSLTSCALE
 70
     1
  9
$TREEDEPTH
 70
  3020
  9
$PICKSTYLE
 70
     0
  9
$CMLSTYLE
  2
STANDARD
  9
$CMLJUST
 70
     0
  9
$CMLSCALE
 40
20.0
  9
$PROXYGRAPHICS
 70
     1
  9
$MEASUREMENT
 70
     1
  0
ENDSEC
  0
SECTION
  2
CLASSES
  0
CLASS
  1
ACDBDICTIONARYWDFLT
  2
AcDbDictionaryWithDefault
  3
ObjectDBX Classes
 90
        0
280
     0
281
     0
  0
CLASS
  1
VISUALSTYLE
  2
AcDbVisualStyle
  3
ObjectDBX Classes
 90
     4095
280
     0
281
     0
  0
CLASS
  1
MATERIAL
  2
AcDbMaterial
  3
ObjectDBX Classes
 90
     1153
280
     0
281
     0
  0
CLASS
  1
SCALE
  2
AcDbScale
  3
ObjectDBX Classes
 90
     1153
280
     0
281
     0
  0
CLASS
  1
SUN
  2
AcDbSun
  3
SCENEOE
 90
     1153
280
     0
281
     0
  0
CLASS
  1
ACDBPLACEHOLDER
  2
AcDbPlaceHolder
  3
ObjectDBX Classes
 90
        0
280
     0
281
     0
  0
CLASS
  1
LAYOUT
  2
AcDbLayout
  3
ObjectDBX Classes
 90
        0
280
     0
281
     0
  0
CLASS
  1
TABLESTYLE
  2
AcDbTableStyle
  3
ObjectDBX Classes
 90
     4095
280
     0
281
     0
  0
CLASS
  1
RASTERVARIABLES
  2
AcDbRasterVariables
  3
ISM
 90
        0
280
     0
281
     0
  0
CLASS
  1
XRECORD
  2
AcDbXrecord
  3
ObjectDBX Classes
 90
        0
280
     0
281
     0
  0
CLASS
  1
LWPOLYLINE
  2
AcDbPolyline
  3
ObjectDBX Classes
 90
        0
280
     0
281
     1
  0
CLASS
  1
HATCH
  2
AcDbHatch
  3
ObjectDBX Classes
 90
        0
280
     0
281
     1
  0
ENDSEC
  0
SECTION
  2
TABLES
  0
TABLE
  2
VPORT
  5
8
330
0
100
AcDbSymbolTable
 70
     1
  0
VPORT
  5
29
330
8
100
AcDbSymbolTableRecord
100
AcDbViewportTableRecord
  2
*ACTIVE
 70
     0
 10
0.0
 20
0.0
 11
1.0
 21
1.0
 12
60.98842678725332
 22
52.29596774989248
 13
0.0
 23
0.0
 14
10.0
 24
10.0
 15
10.0
 25
10.0
 16
0.0
 26
0.0
 36
1.0
 17
0.0
 27
0.0
 37
0.0
 40
41.35266093717664
 41
1.92603550295858
 42
50.0
 43
0.0
 44
0.0
 50
0.0
 51
0.0
 71
    16
 72
  2000
 73
     1
 74
     3
 75
     0
 76
     0
 77
     0
 78
     0
  0
ENDTAB
  0
TABLE
  2
LTYPE
  5
5
330
0
100
AcDbSymbolTable
 70
     6
  0
LTYPE
  5
14
330
5
100
AcDbSymbolTableRecord
100
AcDbLinetypeTableRecord
  2
BYBLOCK
 70
     0
  3

 72
    65
 73
     0
 40
0.0
  0
LTYPE
  5
15
330
5
100
AcDbSymbolTableRecord
100
AcDbLinetypeTableRecord
  2
BYLAYER
 70
     0
  3

 72
    65
 73
     0
 40
0.0
  0
LTYPE
  5
16
330
5
100
AcDbSymbolTableRecord
100
AcDbLinetypeTableRecord
  2
CONTINUOUS
 70
     0
  3
Solid line
 72
    65
 73
     0
 40
0.0
  0
LTYPE
  5
6A
330
5
100
AcDbSymbolTableRecord
100
AcDbLinetypeTableRecord
  2
HIDDEN
 70
     0
  3
Hidden __ __ __ __ __ __ __ __ __ __ __ __ __ __
 72
    65
 73
     2
 40
1.905
 49
1.27
 74
     0
 49
-0.635
 74
     0
  0
LTYPE
  5
6B
330
5
100
AcDbSymbolTableRecord
100
AcDbLinetypeTableRecord
  2
PHANTOM
 70
     0
  3
Phantom ______  __  __  ______  __  __  ______
 72
    65
 73
     6
 40
12.7
 49
6.35
 74
     0
 49
-1.27
 74
     0
 49
1.27
 74
     0
 49
-1.27
 74
     0
 49
1.27
 74
     0
 49
-1.27
 74
     0
  0
LTYPE
  5
6C
330
5
100
AcDbSymbolTableRecord
100
AcDbLinetypeTableRecord
  2
CENTER
 70
     0
  3
Center ____ _ ____ _ ____ _ ____ _ ____ _ ____
 72
    65
 73
     4
 40
10.16
 49
6.35
 74
     0
 49
-1.27
 74
     0
 49
1.27
 74
     0
 49
-1.27
 74
     0
  0
LTYPE
  5
6D
330
5
100
AcDbSymbolTableRecord
100
AcDbLinetypeTableRecord
  2
CENTERX2
 70
     0
  3
Center (2x) ________  __  ________  __  _____
 72
    65
 73
     4
 40
20.32
 49
12.7
 74
     0
 49
-2.54
 74
     0
 49
2.54
 74
     0
 49
-2.54
 74
     0
  0
LTYPE
  5
6E
330
5
100
AcDbSymbolTableRecord
100
AcDbLinetypeTableRecord
  2
DOT2
 70
     0
  3
Dot (.5x) ........................................
 72
    65
 73
     2
 40
0.635
 49
0.0
 74
     0
 49
-0.635
 74
     0
  0
ENDTAB
  0
TABLE
  2
LAYER
  5
2
330
0
100
AcDbSymbolTable
 70
    17
  0
LAYER
  5
10
330
2
100
AcDbSymbolTableRecord
100
AcDbLayerTableRecord
  2
0
 70
     0
 62
     7
  6
CONTINUOUS
  0
LAYER
  5
6F
330
2
100
AcDbSymbolTableRecord
100
AcDbLayerTableRecord
  2
FORMAT
 70
     0
 62
     7
  6
CONTINUOUS
  0
LAYER
  5
70
330
2
100
AcDbSymbolTableRecord
100
AcDbLayerTableRecord
  2
NONE
 70
     0
 62
   179
  6
CONTINUOUS
  0
LAYER
  5
71
330
2
100
AcDbSymbolTableRecord
100
AcDbLayerTableRecord
  2
DIMENSION
 70
     0
 62
   179
  6
CONTINUOUS
  0
LAYER
  5
72
330
2
100
AcDbSymbolTableRecord
100
AcDbLayerTableRecord
  2
PAGE_FRAME
 70
     0
 62
   179
  6
CONTINUOUS
  0
LAYER
  5
73
330
2
100
AcDbSymbolTableRecord
100
AcDbLayerTableRecord
  2
LAYOUT
 70
     0
 62
   179
  6
CONTINUOUS
  0
LAYER
  5
74
330
2
100
AcDbSymbolTableRecord
100
AcDbLayerTableRecord
  2
LINE
 70
     0
 62
     5
  6
CONTINUOUS
  0
LAYER
  5
75
330
2
100
AcDbSymbolTableRecord
100
AcDbLayerTableRecord
  2
DIM
 70
     0
 62
     4
  6
CONTINUOUS
  0
LAYER
  5
76
330
2
100
AcDbSymbolTableRecord
100
AcDbLayerTableRecord
  2
CENTER
 70
     0
 62
     6
  6
CENTER
  0
LAYER
  5
77
330
2
100
AcDbSymbolTableRecord
100
AcDbLayerTableRecord
  2
CU-TOP
 70
     0
 62
     2
  6
PHANTOM
  0
LAYER
  5
78
330
2
100
AcDbSymbolTableRecord
100
AcDbLayerTableRecord
  2
LF
 70
     0
 62
     9
  6
CONTINUOUS
  0
LAYER
  5
79
330
2
100
AcDbSymbolTableRecord
100
AcDbLayerTableRecord
  2
BALL_NUMBER
 70
     0
 62
   179
  6
CONTINUOUS
  0
LAYER
  5
7A
330
2
100
AcDbSymbolTableRecord
100
AcDbLayerTableRecord
  2
LET
 70
     0
 62
   179
  6
CONTINUOUS
  0
LAYER
  5
7B
330
2
100
AcDbSymbolTableRecord
100
AcDbLayerTableRecord
  2
PKG
 70
     0
 62
   179
  6
CONTINUOUS
  0
LAYER
  5
7C
330
2
100
AcDbSymbolTableRecord
100
AcDbLayerTableRecord
  2
BALL
 70
     0
 62
   179
  6
CONTINUOUS
  0
LAYER
  5
7D
330
2
100
AcDbSymbolTableRecord
100
AcDbLayerTableRecord
  2
BALL_OUTER
 70
     0
 62
   179
  6
CONTINUOUS
  0
LAYER
  5
7E
330
2
100
AcDbSymbolTableRecord
100
AcDbLayerTableRecord
  2
BALLNUMBER
 70
     0
 62
    21
  6
CONTINUOUS
  0
ENDTAB
  0
TABLE
  2
STYLE
  5
3
330
0
100
AcDbSymbolTable
 70
     3
  0
STYLE
  5
11
330
3
100
AcDbSymbolTableRecord
100
AcDbTextStyleTableRecord
  2
STANDARD
 70
     0
 40
0.0
 41
1.0
 50
0.0
 71
     0
 42
1.27
  3
txt
  4

  0
STYLE
  5
92
330
3
100
AcDbSymbolTableRecord
100
AcDbTextStyleTableRecord
  2
SLDTEXTSTYLE0
 70
     0
 40
0.0
 41
0.605
 50
0.0
 71
     0
 42
1.27
  3
TXT
  4

  0
STYLE
  5
AC
330
3
100
AcDbSymbolTableRecord
100
AcDbTextStyleTableRecord
  2
SLDTEXTSTYLE1
 70
     0
 40
0.0
 41
0.575
 50
0.0
 71
     0
 42
1.27
  3
TXT
  4

  0
ENDTAB
  0
TABLE
  2
VIEW
  5
6
330
0
100
AcDbSymbolTable
 70
     0
  0
ENDTAB
  0
TABLE
  2
UCS
  5
7
330
0
100
AcDbSymbolTable
 70
     0
  0
ENDTAB
  0
TABLE
  2
APPID
  5
9
330
0
100
AcDbSymbolTable
 70
     1
  0
APPID
  5
12
330
9
100
AcDbSymbolTableRecord
100
AcDbRegAppTableRecord
  2
ACAD
 70
     0
  0
ENDTAB
  0
TABLE
  2
DIMSTYLE
  5
A
330
0
100
AcDbSymbolTable
 70
     1
  0
DIMSTYLE
105
27
330
A
100
AcDbSymbolTableRecord
100
AcDbDimStyleTableRecord
  2
ISO-25
 70
     0
  3

  4

  5

  6

  7

 40
1.0
 41
2.5
 42
0.625
 43
3.75
 44
1.25
 45
0.0
 46
0.0
 47
0.0
 48
0.0
140
2.5
141
2.5
142
0.0
143
0.0393700787
144
1.0
145
0.0
146
1.0
147
0.625
 71
     0
 72
     0
 73
     0
 74
     0
 75
     0
 76
     0
 77
     1
 78
     8
170
     0
171
     3
172
     1
173
     0
174
     0
175
     0
176
     0
177
     0
178
     0
270
     2
271
     2
272
     2
273
     2
274
     3
340
11
275
     0
280
     0
281
     0
282
     0
283
     0
284
     8
285
     0
286
     0
287
     3
288
     0
  0
ENDTAB
  0
TABLE
  2
BLOCK_RECORD
  5
1
330
0
100
AcDbSymbolTable
 70
     6
  0
BLOCK_RECORD
  5
1F
330
1
100
AcDbSymbolTableRecord
100
AcDbBlockTableRecord
  2
*MODEL_SPACE
  0
BLOCK_RECORD
  5
1B
330
1
100
AcDbSymbolTableRecord
100
AcDbBlockTableRecord
  2
*PAPER_SPACE
  0
BLOCK_RECORD
  5
23
330
1
100
AcDbSymbolTableRecord
100
AcDbBlockTableRecord
  2
*PAPER_SPACE0
  0
BLOCK_RECORD
  5
8F
330
1
100
AcDbSymbolTableRecord
100
AcDbBlockTableRecord
  2
SW_NOTE_0
  0
BLOCK_RECORD
  5
97
330
1
100
AcDbSymbolTableRecord
100
AcDbBlockTableRecord
  2
SW_NOTE_1
  0
BLOCK_RECORD
  5
A3
330
1
100
AcDbSymbolTableRecord
100
AcDbBlockTableRecord
  2
SW_NOTE_2
  0
BLOCK_RECORD
  5
223
330
1
100
AcDbSymbolTableRecord
100
AcDbBlockTableRecord
  2
SW_CENTERMARKSYMBOL_0
  0
BLOCK_RECORD
  5
22B
330
1
100
AcDbSymbolTableRecord
100
AcDbBlockTableRecord
  2
SW_CENTERMARKSYMBOL_1
  0
ENDTAB
  0
ENDSEC
  0
SECTION
  2
BLOCKS
  0
BLOCK
  5
20
330
1F
100
AcDbEntity
  8
0
100
AcDbBlockBegin
  2
*MODEL_SPACE
 70
     0
 10
0.0
 20
0.0
 30
0.0
  3
*MODEL_SPACE
  1

  0
ENDBLK
  5
21
330
1F
100
AcDbEntity
  8
0
100
AcDbBlockEnd
  0
BLOCK
  5
1C
330
1B
100
AcDbEntity
 67
     1
  8
0
100
AcDbBlockBegin
  2
*PAPER_SPACE
 70
     0
 10
0.0
 20
0.0
 30
0.0
  3
*PAPER_SPACE
  1

  0
ENDBLK
  5
1D
330
1B
100
AcDbEntity
 67
     1
  8
0
100
AcDbBlockEnd
  0
BLOCK
  5
24
330
23
100
AcDbEntity
  8
0
100
AcDbBlockBegin
  2
*PAPER_SPACE0
 70
     0
 10
0.0
 20
0.0
 30
0.0
  3
*PAPER_SPACE0
  1
*Paper_Space0
  0
ENDBLK
  5
25
330
23
100
AcDbEntity
  8
0
100
AcDbBlockEnd
  0
BLOCK
  5
90
330
8F
100
AcDbEntity
  8
0
100
AcDbBlockBegin
  2
SW_NOTE_0
 70
     0
 10
0.0
 20
0.0
 30
0.0
  3
SW_NOTE_0
  1
SW_NOTE_0
  0
MTEXT
  5
93
330
8F
100
AcDbEntity
  8
0
  6
CONTINUOUS
 62
     0
100
AcDbMText
 10
6.5352083333
 20
1.0914106863
 30
0.0
 40
0.8466666667
 41
0.0
 71
     2
 72
     1
  1
Ironwood Electronics, Inc.
  7
SLDTEXTSTYLE0
  0
MTEXT
  5
94
330
8F
100
AcDbEntity
  8
0
  6
CONTINUOUS
 62
     0
100
AcDbMText
 10
6.5097283924
 20
-0.0374781889
 30
0.0
 40
0.8466666667
 41
0.0
 71
     2
 72
     1
  1
Tele: (800) 404-0204
  7
SLDTEXTSTYLE0
  0
MTEXT
  5
95
330
8F
100
AcDbEntity
  8
0
  6
CONTINUOUS
 62
     0
100
AcDbMText
 10
6.4646527914
 20
-1.1663670642
 30
0.0
 40
0.8466666667
 41
0.0
 71
     2
 72
     1
  1
www.ironwoodelectronics.com
  7
SLDTEXTSTYLE0
  0
ENDBLK
  5
91
330
8F
100
AcDbEntity
  8
0
100
AcDbBlockEnd
  0
BLOCK
  5
98
330
97
100
AcDbEntity
  8
0
100
AcDbBlockBegin
  2
SW_NOTE_1
 70
     0
 10
0.0
 20
0.0
 30
0.0
  3
SW_NOTE_1
  1
SW_NOTE_1
  0
MTEXT
  5
9A
330
97
100
AcDbEntity
  8
0
  6
CONTINUOUS
 62
     0
100
AcDbMText
 10
0.0
 20
0.8185580148
 30
0.0
 40
0.635
 41
0.0
 71
     1
 72
     1
  1
\LTolerances:
  7
SLDTEXTSTYLE0
  0
MTEXT
  5
9B
330
97
100
AcDbEntity
  8
0
  6
CONTINUOUS
 62
     0
100
AcDbMText
 10
4.6596064901
 20
0.8185580148
 30
0.0
 40
0.635
 41
0.0
 71
     1
 72
     1
  1
Hole diameters ±0.03mm [±0.001"], Pitches (from true position) ±0.025mm [±0.001"], substrate thickness tolerance ±10%, all
  7
SLDTEXTSTYLE0
  0
MTEXT
  5
9C
330
97
100
AcDbEntity
  8
0
  6
CONTINUOUS
 62
     0
100
AcDbMText
 10
0.0
 20
-0.0281086417
 30
0.0
 40
0.635
 41
0.0
 71
     1
 72
     1
  1
other tolerances ±0.13mm [±0.005"] unless stated otherwise.  Materials and specifications are subject to change without notice.
  7
SLDTEXTSTYLE0
  0
ENDBLK
  5
99
330
97
100
AcDbEntity
  8
0
100
AcDbBlockEnd
  0
BLOCK
  5
A4
330
A3
100
AcDbEntity
  8
0
100
AcDbBlockBegin
  2
SW_NOTE_2
 70
     0
 10
0.0
 20
0.0
 30
0.0
  3
SW_NOTE_2
  1
SW_NOTE_2
  0
MTEXT
  5
A6
330
A3
100
AcDbEntity
  8
0
  6
CONTINUOUS
 62
     0
100
AcDbMText
 10
0.0
 20
1.2278370221
 30
0.0
 40
0.9525
 41
0.0
 71
     1
 72
     1
  1
Material: N/A
  7
SLDTEXTSTYLE0
  0
MTEXT
  5
A7
330
A3
100
AcDbEntity
  8
0
  6
CONTINUOUS
 62
     0
100
AcDbMText
 10
0.0
 20
-0.0421629625
 30
0.0
 40
0.9525
 41
0.0
 71
     1
 72
     1
  1
Finish: N/A
  7
SLDTEXTSTYLE0
  0
MTEXT
  5
A8
330
A3
100
AcDbEntity
  8
0
  6
CONTINUOUS
 62
     0
100
AcDbMText
 10
0.0
 20
-1.3121629472
 30
0.0
 40
0.9525
 41
0.0
 71
     1
 72
     1
  1
Weight: 65.72
  7
SLDTEXTSTYLE0
  0
ENDBLK
  5
A5
330
A3
100
AcDbEntity
  8
0
100
AcDbBlockEnd
  0
BLOCK
  5
224
330
223
100
AcDbEntity
  8
0
100
AcDbBlockBegin
  2
SW_CENTERMARKSYMBOL_0
 70
     0
 10
0.0
 20
0.0
 30
0.0
  3
SW_CENTERMARKSYMBOL_0
  1
SW_CENTERMARKSYMBOL_0
  0
LINE
  5
226
330
223
100
AcDbEntity
  8
DIMENSION
 62
     0
100
AcDbLine
 10
0.0
 20
0.0
 30
0.0
 11
0.0
 21
0.5
 31
0.0
  0
LINE
  5
227
330
223
100
AcDbEntity
  8
DIMENSION
 62
     0
100
AcDbLine
 10
0.0
 20
0.0
 30
0.0
 11
-0.5
 21
0.0
 31
0.0
  0
LINE
  5
228
330
223
100
AcDbEntity
  8
DIMENSION
 62
     0
100
AcDbLine
 10
0.0
 20
0.0
 30
0.0
 11
0.0
 21
-0.5
 31
0.0
  0
LINE
  5
229
330
223
100
AcDbEntity
  8
DIMENSION
 62
     0
100
AcDbLine
 10
0.0
 20
0.0
 30
0.0
 11
0.5
 21
0.0
 31
0.0
  0
ENDBLK
  5
225
330
223
100
AcDbEntity
  8
0
100
AcDbBlockEnd
  0
BLOCK
  5
22C
330
22B
100
AcDbEntity
  8
0
100
AcDbBlockBegin
  2
SW_CENTERMARKSYMBOL_1
 70
     0
 10
0.0
 20
0.0
 30
0.0
  3
SW_CENTERMARKSYMBOL_1
  1
SW_CENTERMARKSYMBOL_1
  0
LINE
  5
22E
330
22B
100
AcDbEntity
  8
DIMENSION
 62
     0
100
AcDbLine
 10
0.0
 20
0.0
 30
0.0
 11
0.5
 21
0.0
 31
0.0
  0
LINE
  5
22F
330
22B
100
AcDbEntity
  8
DIMENSION
 62
     0
100
AcDbLine
 10
0.0
 20
0.0
 30
0.0
 11
0.0
 21
0.5
 31
0.0
  0
LINE
  5
230
330
22B
100
AcDbEntity
  8
DIMENSION
 62
     0
100
AcDbLine
 10
0.0
 20
0.0
 30
0.0
 11
-0.5
 21
0.0
 31
0.0
  0
LINE
  5
231
330
22B
100
AcDbEntity
  8
DIMENSION
 62
     0
100
AcDbLine
 10
0.0
 20
0.0
 30
0.0
 11
0.0
 21
-0.5
 31
0.0
  0
LINE
  5
232
330
22B
100
AcDbEntity
  8
DIMENSION
 62
     0
100
AcDbLine
 10
0.0
 20
-10.645
 30
0.0
 11
0.5
 21
-10.645
 31
0.0
  0
LINE
  5
233
330
22B
100
AcDbEntity
  8
DIMENSION
 62
     0
100
AcDbLine
 10
0.0
 20
-10.645
 30
0.0
 11
0.0
 21
-10.145
 31
0.0
  0
LINE
  5
234
330
22B
100
AcDbEntity
  8
DIMENSION
 62
     0
100
AcDbLine
 10
0.0
 20
-10.645
 30
0.0
 11
-0.5
 21
-10.645
 31
0.0
  0
LINE
  5
235
330
22B
100
AcDbEntity
  8
DIMENSION
 62
     0
100
AcDbLine
 10
0.0
 20
-10.645
 30
0.0
 11
0.0
 21
-11.145
 31
0.0
  0
LINE
  5
236
330
22B
100
AcDbEntity
  8
DIMENSION
 62
     0
100
AcDbLine
 10
0.0
 20
-15.725
 30
0.0
 11
0.5
 21
-15.725
 31
0.0
  0
LINE
  5
237
330
22B
100
AcDbEntity
  8
DIMENSION
 62
     0
100
AcDbLine
 10
0.0
 20
-15.725
 30
0.0
 11
0.0
 21
-15.225
 31
0.0
  0
LINE
  5
238
330
22B
100
AcDbEntity
  8
DIMENSION
 62
     0
100
AcDbLine
 10
0.0
 20
-15.725
 30
0.0
 11
-0.5
 21
-15.725
 31
0.0
  0
LINE
  5
239
330
22B
100
AcDbEntity
  8
DIMENSION
 62
     0
100
AcDbLine
 10
0.0
 20
-15.725
 30
0.0
 11
0.0
 21
-16.225
 31
0.0
  0
LINE
  5
23A
330
22B
100
AcDbEntity
  8
DIMENSION
 62
     0
100
AcDbLine
 10
15.725
 20
-15.725
 30
0.0
 11
16.225
 21
-15.725
 31
0.0
  0
LINE
  5
23B
330
22B
100
AcDbEntity
  8
DIMENSION
 62
     0
100
AcDbLine
 10
15.725
 20
-15.725
 30
0.0
 11
15.725
 21
-15.225
 31
0.0
  0
LINE
  5
23C
330
22B
100
AcDbEntity
  8
DIMENSION
 62
     0
100
AcDbLine
 10
15.725
 20
-15.725
 30
0.0
 11
15.225
 21
-15.725
 31
0.0
  0
LINE
  5
23D
330
22B
100
AcDbEntity
  8
DIMENSION
 62
     0
100
AcDbLine
 10
15.725
 20
-15.725
 30
0.0
 11
15.725
 21
-16.225
 31
0.0
  0
LINE
  5
23E
330
22B
100
AcDbEntity
  8
DIMENSION
 62
     0
100
AcDbLine
 10
15.725
 20
-2.54
 30
0.0
 11
16.225
 21
-2.54
 31
0.0
  0
LINE
  5
23F
330
22B
100
AcDbEntity
  8
DIMENSION
 62
     0
100
AcDbLine
 10
15.725
 20
-2.54
 30
0.0
 11
15.725
 21
-2.04
 31
0.0
  0
LINE
  5
240
330
22B
100
AcDbEntity
  8
DIMENSION
 62
     0
100
AcDbLine
 10
15.725
 20
-2.54
 30
0.0
 11
15.225
 21
-2.54
 31
0.0
  0
LINE
  5
241
330
22B
100
AcDbEntity
  8
DIMENSION
 62
     0
100
AcDbLine
 10
15.725
 20
-2.54
 30
0.0
 11
15.725
 21
-3.04
 31
0.0
  0
LINE
  5
242
330
22B
100
AcDbEntity
  8
DIMENSION
 62
     0
100
AcDbLine
 10
15.725
 20
0.0
 30
0.0
 11
16.225
 21
0.0
 31
0.0
  0
LINE
  5
243
330
22B
100
AcDbEntity
  8
DIMENSION
 62
     0
100
AcDbLine
 10
15.725
 20
0.0
 30
0.0
 11
15.725
 21
0.5
 31
0.0
  0
LINE
  5
244
330
22B
100
AcDbEntity
  8
DIMENSION
 62
     0
100
AcDbLine
 10
15.725
 20
0.0
 30
0.0
 11
15.225
 21
0.0
 31
0.0
  0
LINE
  5
245
330
22B
100
AcDbEntity
  8
DIMENSION
 62
     0
100
AcDbLine
 10
15.725
 20
0.0
 30
0.0
 11
15.725
 21
-0.5
 31
0.0
  0
LINE
  5
246
330
22B
100
AcDbEntity
  8
DIMENSION
 62
     0
100
AcDbLine
 10
0.0
 20
-1.0
 30
0.0
 11
0.0
 21
-9.645
 31
0.0
  0
LINE
  5
247
330
22B
100
AcDbEntity
  8
DIMENSION
 62
     0
100
AcDbLine
 10
0.0
 20
-11.645
 30
0.0
 11
0.0
 21
-14.725
 31
0.0
  0
LINE
  5
248
330
22B
100
AcDbEntity
  8
DIMENSION
 62
     0
100
AcDbLine
 10
1.0
 20
-15.725
 30
0.0
 11
14.725
 21
-15.725
 31
0.0
  0
LINE
  5
249
330
22B
100
AcDbEntity
  8
DIMENSION
 62
     0
100
AcDbLine
 10
15.725
 20
-3.54
 30
0.0
 11
15.725
 21
-14.725
 31
0.0
  0
LINE
  5
24A
330
22B
100
AcDbEntity
  8
DIMENSION
 62
     0
100
AcDbLine
 10
15.725
 20
-1.0
 30
0.0
 11
15.725
 21
-1.54
 31
0.0
  0
LINE
  5
24B
330
22B
100
AcDbEntity
  8
DIMENSION
 62
     0
100
AcDbLine
 10
1.0
 20
0.0
 30
0.0
 11
14.725
 21
0.0
 31
0.0
  0
ENDBLK
  5
22D
330
22B
100
AcDbEntity
  8
0
100
AcDbBlockEnd
  0
ENDSEC
  0
SECTION
  2
ENTITIES
  0
CIRCLE
  5
B1
330
1F
100
AcDbEntity
  8
DIMENSION
  6
CONTINUOUS
 62
     0
100
AcDbCircle
 10
56.1204513447
 20
51.4392136479
 30
0.0
 40
0.1500000000000057
  0
ARC
  5
B2
330
1F
100
AcDbEntity
  8
DIMENSION
  6
CONTINUOUS
 62
     0
100
AcDbCircle
 10
56.1204513447
 20
50.8392136479
 30
0.0
 40
0.150000000000007
100
AcDbArc
 50
281.1863388453
 51
113.8647979021
  0
CIRCLE
  5
B3
330
1F
100
AcDbEntity
  8
DIMENSION
  6
CONTINUOUS
 62
     0
100
AcDbCircle
 10
56.1204513447
 20
52.0392136479
 30
0.0
 40
0.1499999999999986
  0
ARC
  5
B4
330
1F
100
AcDbEntity
  8
DIMENSION
  6
CONTINUOUS
 62
     0
100
AcDbCircle
 10
57.5704513447
 20
56.0892136479
 30
0.0
 40
0.150000000000006
100
AcDbArc
 50
270.0
 51
42.3036596978
  0
ARC
  5
B5
330
1F
100
AcDbEntity
  8
DIMENSION
  6
CONTINUOUS
 62
     0
100
AcDbCircle
 10
57.5704513447
 20
56.0892136479
 30
0.0
 40
0.1500000000000057
100
AcDbArc
 50
220.3918947416
 51
270.0
  0
CIRCLE
  5
B6
330
1F
100
AcDbEntity
  8
DIMENSION
  6
CONTINUOUS
 62
     0
100
AcDbCircle
 10
58.1704513447
 20
56.0892136479
 30
0.0
 40
0.1500000000000057
  0
CIRCLE
  5
B7
330
1F
100
AcDbEntity
  8
DIMENSION
  6
CONTINUOUS
 62
     0
100
AcDbCircle
 10
58.7704513447
 20
56.0892136479
 30
0.0
 40
0.1500000000000057
  0
CIRCLE
  5
B8
330
1F
100
AcDbEntity
  8
DIMENSION
  6
CONTINUOUS
 62
     0
100
AcDbCircle
 10
59.3704513447
 20
56.0892136479
 30
0.0
 40
0.1500000000000057
  0
CIRCLE
  5
B9
330
1F
100
AcDbEntity
  8
DIMENSION
  6
CONTINUOUS
 62
     0
100
AcDbCircle
 10
59.9704513447
 20
56.0892136479
 30
0.0
 40
0.1500000000000057
  0
CIRCLE
  5
BA
330
1F
100
AcDbEntity
  8
DIMENSION
  6
CONTINUOUS
 62
     0
100
AcDbCircle
 10
60.5704513447
 20
56.0892136479
 30
0.0
 40
0.1500000000000057
  0
CIRCLE
  5
BB
330
1F
100
AcDbEntity
  8
DIMENSION
  6
CONTINUOUS
 62
     0
100
AcDbCircle
 10
61.1704513447
 20
56.0892136479
 30
0.0
 40
0.1500000000000057
  0
CIRCLE
  5
BC
330
1F
100
AcDbEntity
  8
DIMENSION
  6
CONTINUOUS
 62
     0
100
AcDbCircle
 10
61.7704513447
 20
56.0892136479
 30
0.0
 40
0.1500000000000057
  0
CIRCLE
  5
BD
330
1F
100
AcDbEntity
  8
DIMENSION
  6
CONTINUOUS
 62
     0
100
AcDbCircle
 10
62.3704513447
 20
56.0892136479
 30
0.0
 40
0.1500000000000057
  0
CIRCLE
  5
BE
330
1F
100
AcDbEntity
  8
DIMENSION
  6
CONTINUOUS
 62
     0
100
AcDbCircle
 10
62.9704513447
 20
56.0892136479
 30
0.0
 40
0.1500000000000057
  0
CIRCLE
  5
BF
330
1F
100
AcDbEntity
  8
DIMENSION
  6
CONTINUOUS
 62
     0
100
AcDbCircle
 10
63.5704513447
 20
56.0892136479
 30
0.0
 40
0.1500000000000057
  0
ARC
  5
C0
330
1F
100
AcDbEntity
  8
DIMENSION
  6
CONTINUOUS
 62
     0
100
AcDbCircle
 10
64.1704513447
 20
56.0892136479
 30
0.0
 40
0.1500000000000057
100
AcDbArc
 50
270.0
 51
319.6081052583999
  0
ARC
  5
C1
330
1F
100
AcDbEntity
  8
DIMENSION
  6
CONTINUOUS
 62
     0
100
AcDbCircle
 10
64.1704513447
 20
56.0892136479
 30
0.0
 40
0.1500000000000057
100
AcDbArc
 50
137.6963403023
 51
270.0
  0
ARC
  5
C2
330
1F
100
AcDbEntity
  8
DIMENSION
  6
CONTINUOUS
 62
     0
100
AcDbCircle
 10
64.1704513447
 20
48.5892136479
 30
0.0
 40
0.1499999999999986
100
AcDbArc
 50
90.0
 51
222.3036596978
  0
ARC
  5
C3
330
1F
100
AcDbEntity
  8
DIMENSION
  6
CONTINUOUS
 62
     0
100
AcDbCircle
 10
64.1704513447
 20
48.5892136479
 30
0.0
 40
0.1500000000000034
100
AcDbArc
 50
40.3918947416
 51
90.0
  0
CIRCLE
  5
C4
330
1F
100
AcDbEntity
  8
DIMENSION
  6
CONTINUOUS
 62
     0
100
AcDbCircle
 10
63.5704513447
 20
48.5892136479
 30
0.0
 40
0.1499999999999986
  0
ARC
  5
C5
330
1F
100
AcDbEntity
  8
DIMENSION
  6
CONTINUOUS
 62
     0
100
AcDbCircle
 10
59.3704513447
 20
57.0892136479
 30
0.0
 40
0.1500000000000057
100
AcDbArc
 50
270.0
 51
23.8647979021
  0
ARC
  5
C6
330
1F
100
AcDbEntity
  8
DIMENSION
  6
CONTINUOUS
 62
     0
100
AcDbCircle
 10
59.3704513447
 20
57.0892136479
 30
0.0
 40
0.1500000000000057
100
AcDbArc
 50
191.1863388454
 51
270.0
  0
CIRCLE
  5
C7
330
1F
100
AcDbEntity
  8
DIMENSION
  6
CONTINUOUS
 62
     0
100
AcDbCircle
 10
59.9704513447
 20
57.0892136479
 30
0.0
 40
0.1500000000000057
  0
CIRCLE
  5
C8
330
1F
100
AcDbEntity
  8
DIMENSION
  6
CONTINUOUS
 62
     0
100
AcDbCircle
 10
60.5704513447
 20
57.0892136479
 30
0.0
 40
0.1500000000000057
  0
CIRCLE
  5
C9
330
1F
100
AcDbEntity
  8
DIMENSION
  6
CONTINUOUS
 62
     0
100
AcDbCircle
 10
61.1704513447
 20
57.0892136479
 30
0.0
 40
0.1500000000000057
  0
CIRCLE
  5
CA
330
1F
100
AcDbEntity
  8
DIMENSION
  6
CONTINUOUS
 62
     0
100
AcDbCircle
 10
61.7704513447
 20
57.0892136479
 30
0.0
 40
0.1500000000000057
  0
ARC
  5
CB
330
1F
100
AcDbEntity
  8
DIMENSION
  6
CONTINUOUS
 62
     0
100
AcDbCircle
 10
62.3704513447
 20
57.0892136479
 30
0.0
 40
0.1500000000000091
100
AcDbArc
 50
270.0
 51
348.8136611546
  0
ARC
  5
CC
330
1F
100
AcDbEntity
  8
DIMENSION
  6
CONTINUOUS
 62
     0
100
AcDbCircle
 10
62.3704513447
 20
57.0892136479
 30
0.0
 40
0.1500000000000057
100
AcDbArc
 50
156.135202098
 51
270.0
  0
ARC
  5
CD
330
1F
100
AcDbEntity
  8
DIMENSION
  6
CONTINUOUS
 62
     0
100
AcDbCircle
 10
62.3704513447
 20
47.5892136479
 30
0.0
 40
0.1500000000000001
100
AcDbArc
 50
90.0
 51
203.8647979021
  0
ARC
  5
CE
330
1F
100
AcDbEntity
  8
DIMENSION
  6
CONTINUOUS
 62
     0
100
AcDbCircle
 10
62.3704513447
 20
47.5892136479
 30
0.0
 40
0.1499999999999986
100
AcDbArc
 50
11.1863388454
 51
90.0
  0
CIRCLE
  5
CF
330
1F
100
AcDbEntity
  8
DIMENSION
  6
CONTINUOUS
 62
     0
100
AcDbCircle
 10
61.7704513447
 20
47.5892136479
 30
0.0
 40
0.1499999999999986
  0
CIRCLE
  5
D0
330
1F
100
AcDbEntity
  8
DIMENSION
  6
CONTINUOUS
 62
     0
100
AcDbCircle
 10
61.1704513447
 20
47.5892136479
 30
0.0
 40
0.1499999999999986
  0
CIRCLE
  5
D1
330
1F
100
AcDbEntity
  8
DIMENSION
  6
CONTINUOUS
 62
     0
100
AcDbCircle
 10
60.5704513447
 20
47.5892136479
 30
0.0
 40
0.1499999999999986
  0
CIRCLE
  5
D2
330
1F
100
AcDbEntity
  8
DIMENSION
  6
CONTINUOUS
 62
     0
100
AcDbCircle
 10
59.9704513447
 20
47.5892136479
 30
0.0
 40
0.1499999999999986
  0
ARC
  5
D3
330
1F
100
AcDbEntity
  8
DIMENSION
  6
CONTINUOUS
 62
     0
100
AcDbCircle
 10
59.3704513447
 20
47.5892136479
 30
0.0
 40
0.1499999999999986
100
AcDbArc
 50
90.0
 51
168.8136611546
  0
ARC
  5
D4
330
1F
100
AcDbEntity
  8
DIMENSION
  6
CONTINUOUS
 62
     0
100
AcDbCircle
 10
59.3704513447
 20
47.5892136479
 30
0.0
 40
0.1500000000000015
100
AcDbArc
 50
336.1352020978999
 51
90.0
  0
CIRCLE
  5
D5
330
1F
100
AcDbEntity
  8
DIMENSION
  6
CONTINUOUS
 62
     0
100
AcDbCircle
 10
56.1204513447
 20
52.6392136479
 30
0.0
 40
0.1500000000000057
  0
CIRCLE
  5
D6
330
1F
100
AcDbEntity
  8
DIMENSION
  6
CONTINUOUS
 62
     0
100
AcDbCircle
 10
64.6204513447
 20
49.6392136479
 30
0.0
 40
0.1500000000000057
  0
ARC
  5
D7
330
1F
100
AcDbEntity
  8
DIMENSION
  6
CONTINUOUS
 62
     0
100
AcDbCircle
 10
64.6204513447
 20
49.0392136479
 30
0.0
 40
0.1500000000000026
100
AcDbArc
 50
180.0
 51
229.6081052584
  0
ARC
  5
D8
330
1F
100
AcDbEntity
  8
DIMENSION
  6
CONTINUOUS
 62
     0
100
AcDbCircle
 10
64.6204513447
 20
49.0392136479
 30
0.0
 40
0.1500000000000036
100
AcDbArc
 50
47.69634030230001
 51
180.0
  0
CIRCLE
  5
D9
330
1F
100
AcDbEntity
  8
DIMENSION
  6
CONTINUOUS
 62
     0
100
AcDbCircle
 10
57.1204513447
 20
52.0392136479
 30
0.0
 40
0.1499999999999986
  0
CIRCLE
  5
DA
330
1F
100
AcDbEntity
  8
DIMENSION
  6
CONTINUOUS
 62
     0
100
AcDbCircle
 10
57.1204513447
 20
52.6392136479
 30
0.0
 40
0.1500000000000057
  0
CIRCLE
  5
DB
330
1F
100
AcDbEntity
  8
DIMENSION
  6
CONTINUOUS
 62
     0
100
AcDbCircle
 10
57.1204513447
 20
53.2392136479
 30
0.0
 40
0.1499999999999915
  0
CIRCLE
  5
DC
330
1F
100
AcDbEntity
  8
DIMENSION
  6
CONTINUOUS
 62
     0
100
AcDbCircle
 10
62.9704513447
 20
48.5892136479
 30
0.0
 40
0.1499999999999986
  0
ARC
  5
DD
330
1F
100
AcDbEntity
  8
DIMENSION
  6
CONTINUOUS
 62
     0
100
AcDbCircle
 10
65.6204513447
 20
50.8392136479
 30
0.0
 40
0.1500000000000057
100
AcDbArc
 50
90.0
 51
258.8136611546
  0
LWPOLYLINE
  5
DE
330
1F
100
AcDbEntity
  8
DIMENSION
  6
CONTINUOUS
 62
     0
100
AcDbPolyline
 90
        3
 70
   128
 43
0.0
 10
65.6811384992
 20
50.9763890682
 10
65.6778537245
 20
50.9777955981
 10
65.6204511919
 20
50.9892136129
  0
CIRCLE
  5
DF
330
1F
100
AcDbEntity
  8
DIMENSION
  6
CONTINUOUS
 62
     0
100
AcDbCircle
 10
65.6204513447
 20
51.4392136479
 30
0.0
 40
0.1499999999999986
  0
CIRCLE
  5
E0
330
1F
100
AcDbEntity
  8
DIMENSION
  6
CONTINUOUS
 62
     0
100
AcDbCircle
 10
65.6204513447
 20
52.0392136479
 30
0.0
 40
0.1500000000000057
  0
CIRCLE
  5
E1
330
1F
100
AcDbEntity
  8
DIMENSION
  6
CONTINUOUS
 62
     0
100
AcDbCircle
 10
65.6204513447
 20
52.6392136479
 30
0.0
 40
0.1499999999999986
  0
CIRCLE
  5
E2
330
1F
100
AcDbEntity
  8
DIMENSION
  6
CONTINUOUS
 62
     0
100
AcDbCircle
 10
65.6204513447
 20
53.2392136479
 30
0.0
 40
0.1500000000000057
  0
ARC
  5
E3
330
1F
100
AcDbEntity
  8
DIMENSION
  6
CONTINUOUS
 62
     0
100
AcDbCircle
 10
65.6204513447
 20
53.8392136479
 30
0.0
 40
0.1500000000000064
100
AcDbArc
 50
101.1863388454
 51
293.8647979021
  0
CIRCLE
  5
E4
330
1F
100
AcDbEntity
  8
DIMENSION
  6
CONTINUOUS
 62
     0
100
AcDbCircle
 10
57.1204513447
 20
50.8392136479
 30
0.0
 40
0.1500000000000057
  0
CIRCLE
  5
E5
330
1F
100
AcDbEntity
  8
DIMENSION
  6
CONTINUOUS
 62
     0
100
AcDbCircle
 10
57.1204513447
 20
51.4392136479
 30
0.0
 40
0.1500000000000057
  0
CIRCLE
  5
E6
330
1F
100
AcDbEntity
  8
DIMENSION
  6
CONTINUOUS
 62
     0
100
AcDbCircle
 10
57.1204513447
 20
53.8392136479
 30
0.0
 40
0.1500000000000057
  0
CIRCLE
  5
E7
330
1F
100
AcDbEntity
  8
DIMENSION
  6
CONTINUOUS
 62
     0
100
AcDbCircle
 10
57.1204513447
 20
54.4392136479
 30
0.0
 40
0.1499999999999986
  0
CIRCLE
  5
E8
330
1F
100
AcDbEntity
  8
DIMENSION
  6
CONTINUOUS
 62
     0
100
AcDbCircle
 10
57.1204513447
 20
55.0392136479
 30
0.0
 40
0.1500000000000057
  0
ARC
  5
E9
330
1F
100
AcDbEntity
  8
DIMENSION
  6
CONTINUOUS
 62
     0
100
AcDbCircle
 10
57.1204513447
 20
55.6392136479
 30
0.0
 40
0.1500000000000057
100
AcDbArc
 50
0.0
 51
49.60810525840001
  0
ARC
  5
EA
330
1F
100
AcDbEntity
  8
DIMENSION
  6
CONTINUOUS
 62
     0
100
AcDbCircle
 10
57.1204513447
 20
55.6392136479
 30
0.0
 40
0.1500000000000057
100
AcDbArc
 50
227.6963403022
 51
0.0
  0
ARC
  5
EB
330
1F
100
AcDbEntity
  8
DIMENSION
  6
CONTINUOUS
 62
     0
100
AcDbCircle
 10
56.1204513447
 20
53.8392136479
 30
0.0
 40
0.1500000000000053
100
AcDbArc
 50
270.0
 51
78.8136611547
  0
LWPOLYLINE
  5
EC
330
1F
100
AcDbEntity
  8
DIMENSION
  6
CONTINUOUS
 62
     0
100
AcDbPolyline
 90
        3
 70
   128
 43
0.0
 10
56.0597641901
 20
53.7020382276
 10
56.0630489649
 20
53.7006316977
 10
56.1204514974
 20
53.6892136829
  0
CIRCLE
  5
ED
330
1F
100
AcDbEntity
  8
DIMENSION
  6
CONTINUOUS
 62
     0
100
AcDbCircle
 10
56.1204513447
 20
53.2392136479
 30
0.0
 40
0.1499999999999986
  0
CIRCLE
  5
EE
330
1F
100
AcDbEntity
  8
DIMENSION
  6
CONTINUOUS
 62
     0
100
AcDbCircle
 10
62.3704513447
 20
48.5892136479
 30
0.0
 40
0.1499999999999986
  0
CIRCLE
  5
EF
330
1F
100
AcDbEntity
  8
DIMENSION
  6
CONTINUOUS
 62
     0
100
AcDbCircle
 10
61.7704513447
 20
48.5892136479
 30
0.0
 40
0.1499999999999986
  0
CIRCLE
  5
F0
330
1F
100
AcDbEntity
  8
DIMENSION
  6
CONTINUOUS
 62
     0
100
AcDbCircle
 10
64.6204513447
 20
53.8392136479
 30
0.0
 40
0.1500000000000057
  0
CIRCLE
  5
F1
330
1F
100
AcDbEntity
  8
DIMENSION
  6
CONTINUOUS
 62
     0
100
AcDbCircle
 10
64.6204513447
 20
53.2392136479
 30
0.0
 40
0.1500000000000057
  0
CIRCLE
  5
F2
330
1F
100
AcDbEntity
  8
DIMENSION
  6
CONTINUOUS
 62
     0
100
AcDbCircle
 10
64.6204513447
 20
52.6392136479
 30
0.0
 40
0.1499999999999915
  0
CIRCLE
  5
F3
330
1F
100
AcDbEntity
  8
DIMENSION
  6
CONTINUOUS
 62
     0
100
AcDbCircle
 10
64.6204513447
 20
54.4392136479
 30
0.0
 40
0.1500000000000057
  0
CIRCLE
  5
F4
330
1F
100
AcDbEntity
  8
DIMENSION
  6
CONTINUOUS
 62
     0
100
AcDbCircle
 10
59.3704513447
 20
48.5892136479
 30
0.0
 40
0.1499999999999986
  0
CIRCLE
  5
F5
330
1F
100
AcDbEntity
  8
DIMENSION
  6
CONTINUOUS
 62
     0
100
AcDbCircle
 10
58.7704513447
 20
48.5892136479
 30
0.0
 40
0.1499999999999986
  0
CIRCLE
  5
F6
330
1F
100
AcDbEntity
  8
DIMENSION
  6
CONTINUOUS
 62
     0
100
AcDbCircle
 10
58.1704513447
 20
48.5892136479
 30
0.0
 40
0.1499999999999986
  0
CIRCLE
  5
F7
330
1F
100
AcDbEntity
  8
DIMENSION
  6
CONTINUOUS
 62
     0
100
AcDbCircle
 10
64.6204513447
 20
52.0392136479
 30
0.0
 40
0.1499999999999915
  0
ARC
  5
F8
330
1F
100
AcDbEntity
  8
DIMENSION
  6
CONTINUOUS
 62
     0
100
AcDbCircle
 10
64.6204513447
 20
55.6392136479
 30
0.0
 40
0.1500000000000057
100
AcDbArc
 50
180.0
 51
312.3036596977
  0
ARC
  5
F9
330
1F
100
AcDbEntity
  8
DIMENSION
  6
CONTINUOUS
 62
     0
100
AcDbCircle
 10
64.6204513447
 20
55.6392136479
 30
0.0
 40
0.1500000000000057
100
AcDbArc
 50
130.3918947417
 51
180.0
  0
CIRCLE
  5
FA
330
1F
100
AcDbEntity
  8
DIMENSION
  6
CONTINUOUS
 62
     0
100
AcDbCircle
 10
64.6204513447
 20
55.0392136479
 30
0.0
 40
0.1500000000000057
  0
CIRCLE
  5
FB
330
1F
100
AcDbEntity
  8
DIMENSION
  6
CONTINUOUS
 62
     0
100
AcDbCircle
 10
59.9704513447
 20
48.5892136479
 30
0.0
 40
0.1499999999999986
  0
CIRCLE
  5
FC
330
1F
100
AcDbEntity
  8
DIMENSION
  6
CONTINUOUS
 62
     0
100
AcDbCircle
 10
64.6204513447
 20
51.4392136479
 30
0.0
 40
0.1499999999999915
  0
CIRCLE
  5
FD
330
1F
100
AcDbEntity
  8
DIMENSION
  6
CONTINUOUS
 62
     0
100
AcDbCircle
 10
64.6204513447
 20
50.8392136479
 30
0.0
 40
0.1500000000000057
  0
CIRCLE
  5
FE
330
1F
100
AcDbEntity
  8
DIMENSION
  6
CONTINUOUS
 62
     0
100
AcDbCircle
 10
64.6204513447
 20
50.2392136479
 30
0.0
 40
0.1500000000000057
  0
ARC
  5
FF
330
1F
100
AcDbEntity
  8
DIMENSION
  6
CONTINUOUS
 62
     0
100
AcDbCircle
 10
57.5704513447
 20
48.5892136479
 30
0.0
 40
0.1500000000000069
100
AcDbArc
 50
90.0
 51
139.6081052584
  0
ARC
  5
100
330
1F
100
AcDbEntity
  8
DIMENSION
  6
CONTINUOUS
 62
     0
100
AcDbCircle
 10
57.5704513447
 20
48.5892136479
 30
0.0
 40
0.1499999999999986
100
AcDbArc
 50
317.6963403022
 51
90.0
  0
ARC
  5
101
330
1F
100
AcDbEntity
  8
DIMENSION
  6
CONTINUOUS
 62
     0
100
AcDbCircle
 10
57.1204513447
 20
49.0392136479
 30
0.0
 40
0.1500000000000027
100
AcDbArc
 50
0.0
 51
132.3036596978
  0
ARC
  5
102
330
1F
100
AcDbEntity
  8
DIMENSION
  6
CONTINUOUS
 62
     0
100
AcDbCircle
 10
57.1204513447
 20
49.0392136479
 30
0.0
 40
0.1499999999999976
100
AcDbArc
 50
310.3918947416001
 51
0.0
  0
CIRCLE
  5
103
330
1F
100
AcDbEntity
  8
DIMENSION
  6
CONTINUOUS
 62
     0
100
AcDbCircle
 10
57.1204513447
 20
49.6392136479
 30
0.0
 40
0.1500000000000057
  0
CIRCLE
  5
104
330
1F
100
AcDbEntity
  8
DIMENSION
  6
CONTINUOUS
 62
     0
100
AcDbCircle
 10
61.1704513447
 20
48.5892136479
 30
0.0
 40
0.1499999999999986
  0
CIRCLE
  5
105
330
1F
100
AcDbEntity
  8
DIMENSION
  6
CONTINUOUS
 62
     0
100
AcDbCircle
 10
60.5704513447
 20
48.5892136479
 30
0.0
 40
0.1499999999999986
  0
CIRCLE
  5
106
330
1F
100
AcDbEntity
  8
DIMENSION
  6
CONTINUOUS
 62
     0
100
AcDbCircle
 10
57.1204513447
 20
50.2392136479
 30
0.0
 40
0.1500000000000057
  0
LINE
  5
107
330
1F
100
AcDbEntity
  8
DIMENSION
  6
CONTINUOUS
 62
     0
100
AcDbLine
 10
63.7454513503
 20
55.2142136535
 30
0.0
 11
57.9954513391
 21
55.2142136535
 31
0.0
  0
LINE
  5
108
330
1F
100
AcDbEntity
  8
DIMENSION
  6
CONTINUOUS
 62
     0
100
AcDbLine
 10
57.9954513391
 20
49.4642136423
 30
0.0
 11
63.7454513503
 21
49.4642136423
 31
0.0
  0
LINE
  5
109
330
1F
100
AcDbEntity
  8
DIMENSION
  6
CONTINUOUS
 62
     0
100
AcDbLine
 10
57.9954513391
 20
55.2142136535
 30
0.0
 11
57.9954513391
 21
49.4642136423
 31
0.0
  0
LINE
  5
10A
330
1F
100
AcDbEntity
  8
DIMENSION
  6
CONTINUOUS
 62
     0
100
AcDbLine
 10
63.7454513503
 20
49.4642136423
 30
0.0
 11
63.7454513503
 21
55.2142136535
 31
0.0
  0
LINE
  5
10B
330
1F
100
AcDbEntity
  8
DIMENSION
  6
CONTINUOUS
 62
     0
100
AcDbLine
 10
49.3704513223
 20
32.7267132039
 30
0.0
 11
49.3704513223
 21
34.7267135317
 31
0.0
  0
ARC
  5
10C
330
1F
100
AcDbEntity
  8
DIMENSION
  6
CONTINUOUS
 62
     0
100
AcDbCircle
 10
47.3704513447
 20
41.7267136479
 30
0.0
 40
2.0
100
AcDbArc
 50
0.0
 51
90.0
  0
LINE
  5
10D
330
1F
100
AcDbEntity
  8
DIMENSION
  6
CONTINUOUS
 62
     0
100
AcDbLine
 10
46.5704514222
 20
43.7267140756
 30
0.0
 11
47.3704509945
 21
43.7267140756
 31
0.0
  0
ARC
  5
10E
330
1F
100
AcDbEntity
  8
DIMENSION
  6
CONTINUOUS
 62
     0
100
AcDbCircle
 10
46.5704513447
 20
45.7267136479
 30
0.0
 40
2.0
100
AcDbArc
 50
180.0
 51
270.0
  0
LINE
  5
10F
330
1F
100
AcDbEntity
  8
DIMENSION
  6
CONTINUOUS
 62
     0
100
AcDbLine
 10
44.5704510943
 20
58.9517138237
 30
0.0
 11
44.5704510943
 21
45.7267134721
 31
0.0
  0
ARC
  5
110
330
1F
100
AcDbEntity
  8
DIMENSION
  6
CONTINUOUS
 62
     0
100
AcDbCircle
 10
46.5704513447
 20
58.9517136479
 30
0.0
 40
2.000000000000007
100
AcDbArc
 50
90.0
 51
180.0
  0
LINE
  5
111
330
1F
100
AcDbEntity
  8
DIMENSION
  6
CONTINUOUS
 62
     0
100
AcDbLine
 10
47.3704509945
 20
60.9517132202
 30
0.0
 11
46.5704514222
 21
60.9517132202
 31
0.0
  0
ARC
  5
112
330
1F
100
AcDbEntity
  8
DIMENSION
  6
CONTINUOUS
 62
     0
100
AcDbCircle
 10
47.3704513447
 20
62.9517136479
 30
0.0
 40
2.0
100
AcDbArc
 50
270.0
 51
0.0
  0
LINE
  5
113
330
1F
100
AcDbEntity
  8
DIMENSION
  6
CONTINUOUS
 62
     0
100
AcDbLine
 10
49.3704513223
 20
69.9517137641
 30
0.0
 11
49.3704513223
 21
62.9517135481
 31
0.0
  0
LINE
  5
114
330
1F
100
AcDbEntity
  8
DIMENSION
  6
CONTINUOUS
 62
     0
100
AcDbLine
 10
72.370451367
 20
62.9517135481
 30
0.0
 11
72.370451367
 21
69.9517137641
 31
0.0
  0
ARC
  5
115
330
1F
100
AcDbEntity
  8
DIMENSION
  6
CONTINUOUS
 62
     0
100
AcDbCircle
 10
74.3704513447
 20
62.9517136479
 30
0.0
 40
2.000000000000014
100
AcDbArc
 50
180.0
 51
270.0
  0
LINE
  5
116
330
1F
100
AcDbEntity
  8
DIMENSION
  6
CONTINUOUS
 62
     0
100
AcDbLine
 10
75.1704512672
 20
60.9517132202
 30
0.0
 11
74.3704516949
 21
60.9517132202
 31
0.0
  0
ARC
  5
117
330
1F
100
AcDbEntity
  8
DIMENSION
  6
CONTINUOUS
 62
     0
100
AcDbCircle
 10
75.1704513447
 20
58.9517136479
 30
0.0
 40
2.000000000000007
100
AcDbArc
 50
0.0
 51
90.0
  0
LINE
  5
118
330
1F
100
AcDbEntity
  8
DIMENSION
  6
CONTINUOUS
 62
     0
100
AcDbLine
 10
74.3704516949
 20
43.7267140756
 30
0.0
 11
75.1704512672
 21
43.7267140756
 31
0.0
  0
ARC
  5
119
330
1F
100
AcDbEntity
  8
DIMENSION
  6
CONTINUOUS
 62
     0
100
AcDbCircle
 10
74.3704513447
 20
41.7267136479
 30
0.0
 40
2.000000000000014
100
AcDbArc
 50
90.0
 51
180.0
  0
LINE
  5
11A
330
1F
100
AcDbEntity
  8
DIMENSION
  6
CONTINUOUS
 62
     0
100
AcDbLine
 10
72.370451367
 20
34.7267135317
 30
0.0
 11
72.370451367
 21
41.7267137477
 31
0.0
  0
LINE
  5
11B
330
1F
100
AcDbEntity
  8
DIMENSION
  6
CONTINUOUS
 62
     0
100
AcDbLine
 10
49.3704513223
 20
41.7267137477
 30
0.0
 11
49.3704513223
 21
34.7267135317
 31
0.0
  0
ARC
  5
11C
330
1F
100
AcDbEntity
  8
DIMENSION
  6
CONTINUOUS
 62
     0
100
AcDbCircle
 10
75.1704513447
 20
45.7267136479
 30
0.0
 40
2.0
100
AcDbArc
 50
270.0
 51
0.0
  0
LINE
  5
11D
330
1F
100
AcDbEntity
  8
DIMENSION
  6
CONTINUOUS
 62
     0
100
AcDbLine
 10
49.3704513223
 20
69.9517137641
 30
0.0
 11
49.3704513223
 21
71.951714092
 31
0.0
  0
LINE
  5
11E
330
1F
100
AcDbEntity
  8
DIMENSION
  6
CONTINUOUS
 62
     0
100
AcDbLine
 10
72.370451367
 20
71.951714092
 30
0.0
 11
72.370451367
 21
69.9517137641
 31
0.0
  0
LINE
  5
11F
330
1F
100
AcDbEntity
  8
DIMENSION
  6
CONTINUOUS
 62
     0
100
AcDbLine
 10
72.370451367
 20
34.7267135317
 30
0.0
 11
72.370451367
 21
32.7267132039
 31
0.0
  0
LINE
  5
120
330
1F
100
AcDbEntity
  8
DIMENSION
  6
CONTINUOUS
 62
     0
100
AcDbLine
 10
56.1204514974
 20
50.6892136569
 30
0.0
 11
56.1495516026
 21
50.6920633875
 31
0.0
  0
ARC
  5
121
330
1F
100
AcDbEntity
  8
DIMENSION
  6
CONTINUOUS
 62
     0
100
AcDbCircle
 10
56.1204513447
 20
50.8392136479
 30
0.0
 40
0.150000000000007
100
AcDbArc
 50
113.8647979021
 51
270.0
  0
CIRCLE
  5
122
330
1F
100
AcDbEntity
  8
DIMENSION
  6
CONTINUOUS
 62
     0
100
AcDbCircle
 10
56.1204513447
 20
49.0392136479
 30
0.0
 40
0.1499999999999986
  0
CIRCLE
  5
123
330
1F
100
AcDbEntity
  8
DIMENSION
  6
CONTINUOUS
 62
     0
100
AcDbCircle
 10
55.7704513447
 20
58.0892136479
 30
0.0
 40
0.1499999999999915
  0
CIRCLE
  5
124
330
1F
100
AcDbEntity
  8
DIMENSION
  6
CONTINUOUS
 62
     0
100
AcDbCircle
 10
56.1204513447
 20
50.2392136479
 30
0.0
 40
0.1500000000000057
  0
CIRCLE
  5
125
330
1F
100
AcDbEntity
  8
DIMENSION
  6
CONTINUOUS
 62
     0
100
AcDbCircle
 10
56.1204513447
 20
49.6392136479
 30
0.0
 40
0.1499999999999986
  0
CIRCLE
  5
126
330
1F
100
AcDbEntity
  8
DIMENSION
  6
CONTINUOUS
 62
     0
100
AcDbCircle
 10
58.7704513447
 20
46.5892136479
 30
0.0
 40
0.1499999999999986
  0
CIRCLE
  5
127
330
1F
100
AcDbEntity
  8
DIMENSION
  6
CONTINUOUS
 62
     0
100
AcDbCircle
 10
58.1704513447
 20
46.5892136479
 30
0.0
 40
0.1499999999999986
  0
CIRCLE
  5
128
330
1F
100
AcDbEntity
  8
DIMENSION
  6
CONTINUOUS
 62
     0
100
AcDbCircle
 10
57.5704513447
 20
46.5892136479
 30
0.0
 40
0.1499999999999986
  0
CIRCLE
  5
129
330
1F
100
AcDbEntity
  8
DIMENSION
  6
CONTINUOUS
 62
     0
100
AcDbCircle
 10
56.9704513447
 20
46.5892136479
 30
0.0
 40
0.1499999999999986
  0
CIRCLE
  5
12A
330
1F
100
AcDbEntity
  8
DIMENSION
  6
CONTINUOUS
 62
     0
100
AcDbCircle
 10
56.3704513447
 20
46.5892136479
 30
0.0
 40
0.1499999999999986
  0
CIRCLE
  5
12B
330
1F
100
AcDbEntity
  8
DIMENSION
  6
CONTINUOUS
 62
     0
100
AcDbCircle
 10
55.7704513447
 20
46.5892136479
 30
0.0
 40
0.1499999999999986
  0
CIRCLE
  5
12C
330
1F
100
AcDbEntity
  8
DIMENSION
  6
CONTINUOUS
 62
     0
100
AcDbCircle
 10
55.1204513447
 20
47.2392136479
 30
0.0
 40
0.1500000000000057
  0
CIRCLE
  5
12D
330
1F
100
AcDbEntity
  8
DIMENSION
  6
CONTINUOUS
 62
     0
100
AcDbCircle
 10
56.3704513447
 20
58.0892136479
 30
0.0
 40
0.1499999999999915
  0
CIRCLE
  5
12E
330
1F
100
AcDbEntity
  8
DIMENSION
  6
CONTINUOUS
 62
     0
100
AcDbCircle
 10
56.9704513447
 20
58.0892136479
 30
0.0
 40
0.1499999999999915
  0
CIRCLE
  5
12F
330
1F
100
AcDbEntity
  8
DIMENSION
  6
CONTINUOUS
 62
     0
100
AcDbCircle
 10
57.5704513447
 20
58.0892136479
 30
0.0
 40
0.1499999999999915
  0
CIRCLE
  5
130
330
1F
100
AcDbEntity
  8
DIMENSION
  6
CONTINUOUS
 62
     0
100
AcDbCircle
 10
58.1704513447
 20
58.0892136479
 30
0.0
 40
0.1499999999999915
  0
CIRCLE
  5
131
330
1F
100
AcDbEntity
  8
DIMENSION
  6
CONTINUOUS
 62
     0
100
AcDbCircle
 10
58.7704513447
 20
58.0892136479
 30
0.0
 40
0.1499999999999915
  0
CIRCLE
  5
132
330
1F
100
AcDbEntity
  8
DIMENSION
  6
CONTINUOUS
 62
     0
100
AcDbCircle
 10
59.3704513447
 20
58.0892136479
 30
0.0
 40
0.1499999999999915
  0
CIRCLE
  5
133
330
1F
100
AcDbEntity
  8
DIMENSION
  6
CONTINUOUS
 62
     0
100
AcDbCircle
 10
59.9704513447
 20
58.0892136479
 30
0.0
 40
0.1499999999999915
  0
CIRCLE
  5
134
330
1F
100
AcDbEntity
  8
DIMENSION
  6
CONTINUOUS
 62
     0
100
AcDbCircle
 10
60.5704513447
 20
58.0892136479
 30
0.0
 40
0.1499999999999915
  0
CIRCLE
  5
135
330
1F
100
AcDbEntity
  8
DIMENSION
  6
CONTINUOUS
 62
     0
100
AcDbCircle
 10
61.1704513447
 20
58.0892136479
 30
0.0
 40
0.1499999999999915
  0
CIRCLE
  5
136
330
1F
100
AcDbEntity
  8
DIMENSION
  6
CONTINUOUS
 62
     0
100
AcDbCircle
 10
61.7704513447
 20
58.0892136479
 30
0.0
 40
0.1499999999999915
  0
CIRCLE
  5
137
330
1F
100
AcDbEntity
  8
DIMENSION
  6
CONTINUOUS
 62
     0
100
AcDbCircle
 10
62.3704513447
 20
58.0892136479
 30
0.0
 40
0.1499999999999915
  0
CIRCLE
  5
138
330
1F
100
AcDbEntity
  8
DIMENSION
  6
CONTINUOUS
 62
     0
100
AcDbCircle
 10
62.9704513447
 20
58.0892136479
 30
0.0
 40
0.1499999999999915
  0
CIRCLE
  5
139
330
1F
100
AcDbEntity
  8
DIMENSION
  6
CONTINUOUS
 62
     0
100
AcDbCircle
 10
63.5704513447
 20
58.0892136479
 30
0.0
 40
0.1499999999999915
  0
CIRCLE
  5
13A
330
1F
100
AcDbEntity
  8
DIMENSION
  6
CONTINUOUS
 62
     0
100
AcDbCircle
 10
64.1704513447
 20
58.0892136479
 30
0.0
 40
0.1499999999999915
  0
CIRCLE
  5
13B
330
1F
100
AcDbEntity
  8
DIMENSION
  6
CONTINUOUS
 62
     0
100
AcDbCircle
 10
64.7704513447
 20
58.0892136479
 30
0.0
 40
0.1499999999999915
  0
CIRCLE
  5
13C
330
1F
100
AcDbEntity
  8
DIMENSION
  6
CONTINUOUS
 62
     0
100
AcDbCircle
 10
65.3704513447
 20
58.0892136479
 30
0.0
 40
0.1499999999999915
  0
CIRCLE
  5
13D
330
1F
100
AcDbEntity
  8
DIMENSION
  6
CONTINUOUS
 62
     0
100
AcDbCircle
 10
65.9704513447
 20
58.0892136479
 30
0.0
 40
0.1499999999999915
  0
ARC
  5
13E
330
1F
100
AcDbEntity
  8
DIMENSION
  6
CONTINUOUS
 62
     0
100
AcDbCircle
 10
57.5704513447
 20
56.0892136479
 30
0.0
 40
0.150000000000006
100
AcDbArc
 50
42.3036596978
 51
220.3918947416
  0
ARC
  5
13F
330
1F
100
AcDbEntity
  8
DIMENSION
  6
CONTINUOUS
 62
     0
100
AcDbCircle
 10
64.1704513447
 20
56.0892136479
 30
0.0
 40
0.1500000000000002
100
AcDbArc
 50
319.6081052583999
 51
137.6963403023
  0
CIRCLE
  5
140
330
1F
100
AcDbEntity
  8
DIMENSION
  6
CONTINUOUS
 62
     0
100
AcDbCircle
 10
65.6204513447
 20
48.4392136479
 30
0.0
 40
0.1499999999999915
  0
CIRCLE
  5
141
330
1F
100
AcDbEntity
  8
DIMENSION
  6
CONTINUOUS
 62
     0
100
AcDbCircle
 10
65.6204513447
 20
49.0392136479
 30
0.0
 40
0.1499999999999986
  0
CIRCLE
  5
142
330
1F
100
AcDbEntity
  8
DIMENSION
  6
CONTINUOUS
 62
     0
100
AcDbCircle
 10
66.6204513447
 20
57.4392136479
 30
0.0
 40
0.1500000000000057
  0
CIRCLE
  5
143
330
1F
100
AcDbEntity
  8
DIMENSION
  6
CONTINUOUS
 62
     0
100
AcDbCircle
 10
66.6204513447
 20
56.8392136479
 30
0.0
 40
0.1500000000000057
  0
CIRCLE
  5
144
330
1F
100
AcDbEntity
  8
DIMENSION
  6
CONTINUOUS
 62
     0
100
AcDbCircle
 10
66.6204513447
 20
56.2392136479
 30
0.0
 40
0.1500000000000057
  0
CIRCLE
  5
145
330
1F
100
AcDbEntity
  8
DIMENSION
  6
CONTINUOUS
 62
     0
100
AcDbCircle
 10
66.6204513447
 20
55.6392136479
 30
0.0
 40
0.1499999999999915
  0
CIRCLE
  5
146
330
1F
100
AcDbEntity
  8
DIMENSION
  6
CONTINUOUS
 62
     0
100
AcDbCircle
 10
66.6204513447
 20
55.0392136479
 30
0.0
 40
0.1499999999999915
  0
CIRCLE
  5
147
330
1F
100
AcDbEntity
  8
DIMENSION
  6
CONTINUOUS
 62
     0
100
AcDbCircle
 10
66.6204513447
 20
54.4392136479
 30
0.0
 40
0.1500000000000057
  0
CIRCLE
  5
148
330
1F
100
AcDbEntity
  8
DIMENSION
  6
CONTINUOUS
 62
     0
100
AcDbCircle
 10
66.6204513447
 20
53.8392136479
 30
0.0
 40
0.1500000000000057
  0
CIRCLE
  5
149
330
1F
100
AcDbEntity
  8
DIMENSION
  6
CONTINUOUS
 62
     0
100
AcDbCircle
 10
66.6204513447
 20
53.2392136479
 30
0.0
 40
0.1500000000000057
  0
CIRCLE
  5
14A
330
1F
100
AcDbEntity
  8
DIMENSION
  6
CONTINUOUS
 62
     0
100
AcDbCircle
 10
66.6204513447
 20
52.6392136479
 30
0.0
 40
0.1499999999999915
  0
CIRCLE
  5
14B
330
1F
100
AcDbEntity
  8
DIMENSION
  6
CONTINUOUS
 62
     0
100
AcDbCircle
 10
66.6204513447
 20
52.0392136479
 30
0.0
 40
0.1499999999999915
  0
CIRCLE
  5
14C
330
1F
100
AcDbEntity
  8
DIMENSION
  6
CONTINUOUS
 62
     0
100
AcDbCircle
 10
66.6204513447
 20
51.4392136479
 30
0.0
 40
0.1500000000000057
  0
CIRCLE
  5
14D
330
1F
100
AcDbEntity
  8
DIMENSION
  6
CONTINUOUS
 62
     0
100
AcDbCircle
 10
66.6204513447
 20
50.8392136479
 30
0.0
 40
0.1500000000000057
  0
CIRCLE
  5
14E
330
1F
100
AcDbEntity
  8
DIMENSION
  6
CONTINUOUS
 62
     0
100
AcDbCircle
 10
66.6204513447
 20
50.2392136479
 30
0.0
 40
0.1500000000000057
  0
CIRCLE
  5
14F
330
1F
100
AcDbEntity
  8
DIMENSION
  6
CONTINUOUS
 62
     0
100
AcDbCircle
 10
66.6204513447
 20
49.6392136479
 30
0.0
 40
0.1499999999999915
  0
CIRCLE
  5
150
330
1F
100
AcDbEntity
  8
DIMENSION
  6
CONTINUOUS
 62
     0
100
AcDbCircle
 10
66.6204513447
 20
49.0392136479
 30
0.0
 40
0.1499999999999915
  0
CIRCLE
  5
151
330
1F
100
AcDbEntity
  8
DIMENSION
  6
CONTINUOUS
 62
     0
100
AcDbCircle
 10
66.6204513447
 20
48.4392136479
 30
0.0
 40
0.1499999999999915
  0
CIRCLE
  5
152
330
1F
100
AcDbEntity
  8
DIMENSION
  6
CONTINUOUS
 62
     0
100
AcDbCircle
 10
66.6204513447
 20
47.8392136479
 30
0.0
 40
0.1500000000000057
  0
CIRCLE
  5
153
330
1F
100
AcDbEntity
  8
DIMENSION
  6
CONTINUOUS
 62
     0
100
AcDbCircle
 10
66.6204513447
 20
47.2392136479
 30
0.0
 40
0.1500000000000057
  0
CIRCLE
  5
154
330
1F
100
AcDbEntity
  8
DIMENSION
  6
CONTINUOUS
 62
     0
100
AcDbCircle
 10
65.9704513447
 20
46.5892136479
 30
0.0
 40
0.1499999999999986
  0
CIRCLE
  5
155
330
1F
100
AcDbEntity
  8
DIMENSION
  6
CONTINUOUS
 62
     0
100
AcDbCircle
 10
65.3704513447
 20
46.5892136479
 30
0.0
 40
0.1499999999999986
  0
CIRCLE
  5
156
330
1F
100
AcDbEntity
  8
DIMENSION
  6
CONTINUOUS
 62
     0
100
AcDbCircle
 10
64.7704513447
 20
46.5892136479
 30
0.0
 40
0.1499999999999986
  0
CIRCLE
  5
157
330
1F
100
AcDbEntity
  8
DIMENSION
  6
CONTINUOUS
 62
     0
100
AcDbCircle
 10
64.1704513447
 20
46.5892136479
 30
0.0
 40
0.1499999999999986
  0
CIRCLE
  5
158
330
1F
100
AcDbEntity
  8
DIMENSION
  6
CONTINUOUS
 62
     0
100
AcDbCircle
 10
63.5704513447
 20
46.5892136479
 30
0.0
 40
0.1499999999999986
  0
CIRCLE
  5
159
330
1F
100
AcDbEntity
  8
DIMENSION
  6
CONTINUOUS
 62
     0
100
AcDbCircle
 10
62.9704513447
 20
46.5892136479
 30
0.0
 40
0.1499999999999986
  0
CIRCLE
  5
15A
330
1F
100
AcDbEntity
  8
DIMENSION
  6
CONTINUOUS
 62
     0
100
AcDbCircle
 10
62.3704513447
 20
46.5892136479
 30
0.0
 40
0.1499999999999986
  0
CIRCLE
  5
15B
330
1F
100
AcDbEntity
  8
DIMENSION
  6
CONTINUOUS
 62
     0
100
AcDbCircle
 10
61.7704513447
 20
46.5892136479
 30
0.0
 40
0.1499999999999986
  0
CIRCLE
  5
15C
330
1F
100
AcDbEntity
  8
DIMENSION
  6
CONTINUOUS
 62
     0
100
AcDbCircle
 10
61.1704513447
 20
46.5892136479
 30
0.0
 40
0.1499999999999986
  0
CIRCLE
  5
15D
330
1F
100
AcDbEntity
  8
DIMENSION
  6
CONTINUOUS
 62
     0
100
AcDbCircle
 10
60.5704513447
 20
46.5892136479
 30
0.0
 40
0.1499999999999986
  0
CIRCLE
  5
15E
330
1F
100
AcDbEntity
  8
DIMENSION
  6
CONTINUOUS
 62
     0
100
AcDbCircle
 10
59.9704513447
 20
46.5892136479
 30
0.0
 40
0.1499999999999986
  0
CIRCLE
  5
15F
330
1F
100
AcDbEntity
  8
DIMENSION
  6
CONTINUOUS
 62
     0
100
AcDbCircle
 10
59.3704513447
 20
46.5892136479
 30
0.0
 40
0.1499999999999986
  0
CIRCLE
  5
160
330
1F
100
AcDbEntity
  8
DIMENSION
  6
CONTINUOUS
 62
     0
100
AcDbCircle
 10
56.9704513447
 20
47.5892136479
 30
0.0
 40
0.1499999999999986
  0
CIRCLE
  5
161
330
1F
100
AcDbEntity
  8
DIMENSION
  6
CONTINUOUS
 62
     0
100
AcDbCircle
 10
65.6204513447
 20
47.8392136479
 30
0.0
 40
0.1499999999999986
  0
ARC
  5
162
330
1F
100
AcDbEntity
  8
DIMENSION
  6
CONTINUOUS
 62
     0
100
AcDbCircle
 10
64.1704513447
 20
48.5892136479
 30
0.0
 40
0.1500000000000034
100
AcDbArc
 50
222.3036596978
 51
40.3918947416
  0
CIRCLE
  5
163
330
1F
100
AcDbEntity
  8
DIMENSION
  6
CONTINUOUS
 62
     0
100
AcDbCircle
 10
65.6204513447
 20
49.6392136479
 30
0.0
 40
0.1499999999999986
  0
CIRCLE
  5
164
330
1F
100
AcDbEntity
  8
DIMENSION
  6
CONTINUOUS
 62
     0
100
AcDbCircle
 10
65.6204513447
 20
50.2392136479
 30
0.0
 40
0.1499999999999915
  0
CIRCLE
  5
165
330
1F
100
AcDbEntity
  8
DIMENSION
  6
CONTINUOUS
 62
     0
100
AcDbCircle
 10
56.1204513447
 20
48.4392136479
 30
0.0
 40
0.1500000000000057
  0
CIRCLE
  5
166
330
1F
100
AcDbEntity
  8
DIMENSION
  6
CONTINUOUS
 62
     0
100
AcDbCircle
 10
56.1204513447
 20
47.8392136479
 30
0.0
 40
0.1499999999999986
  0
CIRCLE
  5
167
330
1F
100
AcDbEntity
  8
DIMENSION
  6
CONTINUOUS
 62
     0
100
AcDbCircle
 10
57.5704513447
 20
57.0892136479
 30
0.0
 40
0.1500000000000057
  0
CIRCLE
  5
168
330
1F
100
AcDbEntity
  8
DIMENSION
  6
CONTINUOUS
 62
     0
100
AcDbCircle
 10
58.1704513447
 20
57.0892136479
 30
0.0
 40
0.1500000000000057
  0
CIRCLE
  5
169
330
1F
100
AcDbEntity
  8
DIMENSION
  6
CONTINUOUS
 62
     0
100
AcDbCircle
 10
58.7704513447
 20
57.0892136479
 30
0.0
 40
0.1500000000000057
  0
ARC
  5
16A
330
1F
100
AcDbEntity
  8
DIMENSION
  6
CONTINUOUS
 62
     0
100
AcDbCircle
 10
59.3704513447
 20
57.0892136479
 30
0.0
 40
0.1500000000000008
100
AcDbArc
 50
23.8647979021
 51
191.1863388454
  0
ARC
  5
16B
330
1F
100
AcDbEntity
  8
DIMENSION
  6
CONTINUOUS
 62
     0
100
AcDbCircle
 10
62.3704513447
 20
57.0892136479
 30
0.0
 40
0.1500000000000091
100
AcDbArc
 50
348.8136611546
 51
156.135202098
  0
CIRCLE
  5
16C
330
1F
100
AcDbEntity
  8
DIMENSION
  6
CONTINUOUS
 62
     0
100
AcDbCircle
 10
62.9704513447
 20
57.0892136479
 30
0.0
 40
0.1500000000000057
  0
CIRCLE
  5
16D
330
1F
100
AcDbEntity
  8
DIMENSION
  6
CONTINUOUS
 62
     0
100
AcDbCircle
 10
63.5704513447
 20
57.0892136479
 30
0.0
 40
0.1500000000000057
  0
CIRCLE
  5
16E
330
1F
100
AcDbEntity
  8
DIMENSION
  6
CONTINUOUS
 62
     0
100
AcDbCircle
 10
64.1704513447
 20
57.0892136479
 30
0.0
 40
0.1500000000000057
  0
CIRCLE
  5
16F
330
1F
100
AcDbEntity
  8
DIMENSION
  6
CONTINUOUS
 62
     0
100
AcDbCircle
 10
64.7704513447
 20
57.0892136479
 30
0.0
 40
0.1500000000000057
  0
CIRCLE
  5
170
330
1F
100
AcDbEntity
  8
DIMENSION
  6
CONTINUOUS
 62
     0
100
AcDbCircle
 10
64.7704513447
 20
47.5892136479
 30
0.0
 40
0.1499999999999986
  0
CIRCLE
  5
171
330
1F
100
AcDbEntity
  8
DIMENSION
  6
CONTINUOUS
 62
     0
100
AcDbCircle
 10
64.1704513447
 20
47.5892136479
 30
0.0
 40
0.1499999999999986
  0
CIRCLE
  5
172
330
1F
100
AcDbEntity
  8
DIMENSION
  6
CONTINUOUS
 62
     0
100
AcDbCircle
 10
63.5704513447
 20
47.5892136479
 30
0.0
 40
0.1499999999999986
  0
CIRCLE
  5
173
330
1F
100
AcDbEntity
  8
DIMENSION
  6
CONTINUOUS
 62
     0
100
AcDbCircle
 10
62.9704513447
 20
47.5892136479
 30
0.0
 40
0.1499999999999986
  0
ARC
  5
174
330
1F
100
AcDbEntity
  8
DIMENSION
  6
CONTINUOUS
 62
     0
100
AcDbCircle
 10
62.3704513447
 20
47.5892136479
 30
0.0
 40
0.1500000000000001
100
AcDbArc
 50
203.8647979021
 51
11.1863388454
  0
ARC
  5
175
330
1F
100
AcDbEntity
  8
DIMENSION
  6
CONTINUOUS
 62
     0
100
AcDbCircle
 10
59.3704513447
 20
47.5892136479
 30
0.0
 40
0.1500000000000015
100
AcDbArc
 50
168.8136611546
 51
336.1352020978999
  0
CIRCLE
  5
176
330
1F
100
AcDbEntity
  8
DIMENSION
  6
CONTINUOUS
 62
     0
100
AcDbCircle
 10
58.7704513447
 20
47.5892136479
 30
0.0
 40
0.1499999999999986
  0
CIRCLE
  5
177
330
1F
100
AcDbEntity
  8
DIMENSION
  6
CONTINUOUS
 62
     0
100
AcDbCircle
 10
58.1704513447
 20
47.5892136479
 30
0.0
 40
0.1499999999999986
  0
CIRCLE
  5
178
330
1F
100
AcDbEntity
  8
DIMENSION
  6
CONTINUOUS
 62
     0
100
AcDbCircle
 10
57.5704513447
 20
47.5892136479
 30
0.0
 40
0.1499999999999986
  0
ARC
  5
179
330
1F
100
AcDbEntity
  8
DIMENSION
  6
CONTINUOUS
 62
     0
100
AcDbCircle
 10
64.6204513447
 20
49.0392136479
 30
0.0
 40
0.1500000000000036
100
AcDbArc
 50
229.6081052584
 51
47.69634030230001
  0
ARC
  5
17A
330
1F
100
AcDbEntity
  8
DIMENSION
  6
CONTINUOUS
 62
     0
100
AcDbCircle
 10
65.6204513447
 20
50.8392136479
 30
0.0
 40
0.1499999999999957
100
AcDbArc
 50
258.8136611546
 51
66.13520209789999
  0
LINE
  5
17B
330
1F
100
AcDbEntity
  8
DIMENSION
  6
CONTINUOUS
 62
     0
100
AcDbLine
 10
65.6204511919
 20
53.989213639
 30
0.0
 11
65.5913510868
 21
53.9863639083
 31
0.0
  0
ARC
  5
17C
330
1F
100
AcDbEntity
  8
DIMENSION
  6
CONTINUOUS
 62
     0
100
AcDbCircle
 10
65.6204513447
 20
53.8392136479
 30
0.0
 40
0.1500000000000057
100
AcDbArc
 50
293.8647979021
 51
90.0
  0
CIRCLE
  5
17D
330
1F
100
AcDbEntity
  8
DIMENSION
  6
CONTINUOUS
 62
     0
100
AcDbCircle
 10
65.6204513447
 20
54.4392136479
 30
0.0
 40
0.1500000000000057
  0
CIRCLE
  5
17E
330
1F
100
AcDbEntity
  8
DIMENSION
  6
CONTINUOUS
 62
     0
100
AcDbCircle
 10
65.6204513447
 20
55.0392136479
 30
0.0
 40
0.1500000000000057
  0
CIRCLE
  5
17F
330
1F
100
AcDbEntity
  8
DIMENSION
  6
CONTINUOUS
 62
     0
100
AcDbCircle
 10
65.6204513447
 20
55.6392136479
 30
0.0
 40
0.1500000000000057
  0
CIRCLE
  5
180
330
1F
100
AcDbEntity
  8
DIMENSION
  6
CONTINUOUS
 62
     0
100
AcDbCircle
 10
65.6204513447
 20
56.2392136479
 30
0.0
 40
0.1500000000000057
  0
CIRCLE
  5
181
330
1F
100
AcDbEntity
  8
DIMENSION
  6
CONTINUOUS
 62
     0
100
AcDbCircle
 10
65.6204513447
 20
56.8392136479
 30
0.0
 40
0.1500000000000057
  0
CIRCLE
  5
182
330
1F
100
AcDbEntity
  8
DIMENSION
  6
CONTINUOUS
 62
     0
100
AcDbCircle
 10
55.1204513447
 20
55.0392136479
 30
0.0
 40
0.1499999999999915
  0
CIRCLE
  5
183
330
1F
100
AcDbEntity
  8
DIMENSION
  6
CONTINUOUS
 62
     0
100
AcDbCircle
 10
55.1204513447
 20
55.6392136479
 30
0.0
 40
0.1500000000000057
  0
ARC
  5
184
330
1F
100
AcDbEntity
  8
DIMENSION
  6
CONTINUOUS
 62
     0
100
AcDbCircle
 10
57.1204513447
 20
55.6392136479
 30
0.0
 40
0.150000000000005
100
AcDbArc
 50
49.60810525840001
 51
227.6963403022
  0
CIRCLE
  5
185
330
1F
100
AcDbEntity
  8
DIMENSION
  6
CONTINUOUS
 62
     0
100
AcDbCircle
 10
56.9704513447
 20
57.0892136479
 30
0.0
 40
0.1500000000000057
  0
CIRCLE
  5
186
330
1F
100
AcDbEntity
  8
DIMENSION
  6
CONTINUOUS
 62
     0
100
AcDbCircle
 10
56.1204513447
 20
56.8392136479
 30
0.0
 40
0.1499999999999986
  0
CIRCLE
  5
187
330
1F
100
AcDbEntity
  8
DIMENSION
  6
CONTINUOUS
 62
     0
100
AcDbCircle
 10
56.1204513447
 20
56.2392136479
 30
0.0
 40
0.1499999999999986
  0
CIRCLE
  5
188
330
1F
100
AcDbEntity
  8
DIMENSION
  6
CONTINUOUS
 62
     0
100
AcDbCircle
 10
56.1204513447
 20
55.6392136479
 30
0.0
 40
0.1499999999999915
  0
CIRCLE
  5
189
330
1F
100
AcDbEntity
  8
DIMENSION
  6
CONTINUOUS
 62
     0
100
AcDbCircle
 10
56.1204513447
 20
55.0392136479
 30
0.0
 40
0.1499999999999915
  0
CIRCLE
  5
18A
330
1F
100
AcDbEntity
  8
DIMENSION
  6
CONTINUOUS
 62
     0
100
AcDbCircle
 10
56.1204513447
 20
54.4392136479
 30
0.0
 40
0.1499999999999915
  0
ARC
  5
18B
330
1F
100
AcDbEntity
  8
DIMENSION
  6
CONTINUOUS
 62
     0
100
AcDbCircle
 10
56.1204513447
 20
53.8392136479
 30
0.0
 40
0.1500000000000053
100
AcDbArc
 50
78.8136611547
 51
246.1352020979
  0
CIRCLE
  5
18C
330
1F
100
AcDbEntity
  8
DIMENSION
  6
CONTINUOUS
 62
     0
100
AcDbCircle
 10
55.1204513447
 20
53.8392136479
 30
0.0
 40
0.1499999999999986
  0
CIRCLE
  5
18D
330
1F
100
AcDbEntity
  8
DIMENSION
  6
CONTINUOUS
 62
     0
100
AcDbCircle
 10
55.1204513447
 20
54.4392136479
 30
0.0
 40
0.1500000000000057
  0
CIRCLE
  5
18E
330
1F
100
AcDbEntity
  8
DIMENSION
  6
CONTINUOUS
 62
     0
100
AcDbCircle
 10
55.1204513447
 20
49.6392136479
 30
0.0
 40
0.1499999999999915
  0
CIRCLE
  5
18F
330
1F
100
AcDbEntity
  8
DIMENSION
  6
CONTINUOUS
 62
     0
100
AcDbCircle
 10
55.1204513447
 20
50.2392136479
 30
0.0
 40
0.1500000000000057
  0
CIRCLE
  5
190
330
1F
100
AcDbEntity
  8
DIMENSION
  6
CONTINUOUS
 62
     0
100
AcDbCircle
 10
55.1204513447
 20
50.8392136479
 30
0.0
 40
0.1499999999999986
  0
CIRCLE
  5
191
330
1F
100
AcDbEntity
  8
DIMENSION
  6
CONTINUOUS
 62
     0
100
AcDbCircle
 10
55.1204513447
 20
56.2392136479
 30
0.0
 40
0.1499999999999986
  0
CIRCLE
  5
192
330
1F
100
AcDbEntity
  8
DIMENSION
  6
CONTINUOUS
 62
     0
100
AcDbCircle
 10
55.1204513447
 20
47.8392136479
 30
0.0
 40
0.1499999999999915
  0
CIRCLE
  5
193
330
1F
100
AcDbEntity
  8
DIMENSION
  6
CONTINUOUS
 62
     0
100
AcDbCircle
 10
55.1204513447
 20
48.4392136479
 30
0.0
 40
0.1500000000000057
  0
CIRCLE
  5
194
330
1F
100
AcDbEntity
  8
DIMENSION
  6
CONTINUOUS
 62
     0
100
AcDbCircle
 10
55.1204513447
 20
49.0392136479
 30
0.0
 40
0.1499999999999986
  0
CIRCLE
  5
195
330
1F
100
AcDbEntity
  8
DIMENSION
  6
CONTINUOUS
 62
     0
100
AcDbCircle
 10
55.1204513447
 20
51.4392136479
 30
0.0
 40
0.1500000000000057
  0
CIRCLE
  5
196
330
1F
100
AcDbEntity
  8
DIMENSION
  6
CONTINUOUS
 62
     0
100
AcDbCircle
 10
55.1204513447
 20
52.0392136479
 30
0.0
 40
0.1499999999999915
  0
CIRCLE
  5
197
330
1F
100
AcDbEntity
  8
DIMENSION
  6
CONTINUOUS
 62
     0
100
AcDbCircle
 10
55.1204513447
 20
52.6392136479
 30
0.0
 40
0.1500000000000057
  0
CIRCLE
  5
198
330
1F
100
AcDbEntity
  8
DIMENSION
  6
CONTINUOUS
 62
     0
100
AcDbCircle
 10
55.1204513447
 20
53.2392136479
 30
0.0
 40
0.1499999999999915
  0
CIRCLE
  5
199
330
1F
100
AcDbEntity
  8
DIMENSION
  6
CONTINUOUS
 62
     0
100
AcDbCircle
 10
55.1204513447
 20
56.8392136479
 30
0.0
 40
0.1500000000000057
  0
CIRCLE
  5
19A
330
1F
100
AcDbEntity
  8
DIMENSION
  6
CONTINUOUS
 62
     0
100
AcDbCircle
 10
55.1204513447
 20
57.4392136479
 30
0.0
 40
0.1499999999999915
  0
ARC
  5
19B
330
1F
100
AcDbEntity
  8
DIMENSION
  6
CONTINUOUS
 62
     0
100
AcDbCircle
 10
64.6204513447
 20
55.6392136479
 30
0.0
 40
0.1499999999999994
100
AcDbArc
 50
312.3036596977
 51
130.3918947417
  0
ARC
  5
19C
330
1F
100
AcDbEntity
  8
DIMENSION
  6
CONTINUOUS
 62
     0
100
AcDbCircle
 10
57.5704513447
 20
48.5892136479
 30
0.0
 40
0.1500000000000069
100
AcDbArc
 50
139.6081052584
 51
317.6963403022
  0
ARC
  5
19D
330
1F
100
AcDbEntity
  8
DIMENSION
  6
CONTINUOUS
 62
     0
100
AcDbCircle
 10
57.1204513447
 20
49.0392136479
 30
0.0
 40
0.1500000000000027
100
AcDbArc
 50
132.3036596978
 51
310.3918947416001
  0
CIRCLE
  5
19E
330
1F
100
AcDbEntity
  8
DIMENSION
  6
CONTINUOUS
 62
     0
100
AcDbCircle
 10
53.0079513447
 20
44.4767136479
 30
0.0
 40
0.8549999999999969
  0
CIRCLE
  5
19F
330
1F
100
AcDbEntity
  8
DIMENSION
  6
CONTINUOUS
 62
     0
100
AcDbCircle
 10
68.7329513447
 20
44.4767136479
 30
0.0
 40
0.855000000000004
  0
CIRCLE
  5
1A0
330
1F
100
AcDbEntity
  8
DIMENSION
  6
CONTINUOUS
 62
     0
100
AcDbCircle
 10
68.7329513447
 20
60.2017136479
 30
0.0
 40
0.855000000000004
  0
CIRCLE
  5
1A1
330
1F
100
AcDbEntity
  8
DIMENSION
  6
CONTINUOUS
 62
     0
100
AcDbCircle
 10
53.0079513447
 20
60.2017136479
 30
0.0
 40
0.855000000000004
  0
ARC
  5
1A2
330
1F
100
AcDbEntity
  8
DIMENSION
  6
CONTINUOUS
 62
     0
100
AcDbCircle
 10
55.414004228
 20
60.0787979271
 30
0.0
 40
0.2500000000000021
100
AcDbArc
 50
30.0
 51
150.0
  0
LINE
  5
1A3
330
1F
100
AcDbEntity
  8
DIMENSION
  6
CONTINUOUS
 62
     0
100
AcDbLine
 10
55.1974977875
 20
60.2037978629
 30
0.0
 11
54.8805105077
 21
59.6547599221
 31
0.0
  0
ARC
  5
1A4
330
1F
100
AcDbEntity
  8
DIMENSION
  6
CONTINUOUS
 62
     0
100
AcDbCircle
 10
55.0970169299
 20
59.5297598214
 30
0.0
 40
0.2499999999999929
100
AcDbArc
 50
150.0
 51
270.0
  0
LINE
  5
1A5
330
1F
100
AcDbEntity
  8
DIMENSION
  6
CONTINUOUS
 62
     0
100
AcDbLine
 10
55.0970169292
 20
59.2797596278
 30
0.0
 11
55.7309914888
 21
59.2797596278
 31
0.0
  0
ARC
  5
1A6
330
1F
100
AcDbEntity
  8
DIMENSION
  6
CONTINUOUS
 62
     0
100
AcDbCircle
 10
55.7309915261
 20
59.5297598214
 30
0.0
 40
0.2499999999999968
100
AcDbArc
 50
270.0
 51
30.0
  0
LINE
  5
1A7
330
1F
100
AcDbEntity
  8
DIMENSION
  6
CONTINUOUS
 62
     0
100
AcDbLine
 10
55.9474979104
 20
59.6547599221
 30
0.0
 11
55.6305106306
 21
60.2037978629
 31
0.0
  0
CIRCLE
  5
1A8
330
1F
100
AcDbEntity
  8
DIMENSION
  6
CONTINUOUS
 62
     0
100
AcDbCircle
 10
68.7329513447
 20
57.6617136479
 30
0.0
 40
0.4249999999999901
  0
CIRCLE
  5
1A9
330
1F
100
AcDbEntity
  8
DIMENSION
  6
CONTINUOUS
 62
     0
100
AcDbCircle
 10
53.0079513447
 20
49.5567136479
 30
0.0
 40
0.4249999999999901
  0
CIRCLE
  5
1AA
330
1F
100
AcDbEntity
  8
DIMENSION
  6
DOT2
 62
     0
100
AcDbCircle
 10
53.0079513447
 20
60.2017136479
 30
0.0
 40
1.999999999999986
  0
CIRCLE
  5
1AB
330
1F
100
AcDbEntity
  8
DIMENSION
  6
DOT2
 62
     0
100
AcDbCircle
 10
53.0079513447
 20
60.2017136479
 30
0.0
 40
0.8500000000000085
  0
ARC
  5
1AC
330
1F
100
AcDbEntity
  8
DIMENSION
  6
DOT2
 62
     0
100
AcDbCircle
 10
63.2454513447
 20
49.9642136479
 30
0.0
 40
0.5
100
AcDbArc
 50
270.0
 51
0.0
  0
ARC
  5
1AD
330
1F
100
AcDbEntity
  8
DIMENSION
  6
DOT2
 62
     0
100
AcDbCircle
 10
58.4954513447
 20
49.9642136479
 30
0.0
 40
0.5
100
AcDbArc
 50
180.0
 51
270.0
  0
ARC
  5
1AE
330
1F
100
AcDbEntity
  8
DIMENSION
  6
DOT2
 62
     0
100
AcDbCircle
 10
58.4954513447
 20
54.7142136479
 30
0.0
 40
0.5
100
AcDbArc
 50
90.0
 51
180.0
  0
ARC
  5
1AF
330
1F
100
AcDbEntity
  8
DIMENSION
  6
DOT2
 62
     0
100
AcDbCircle
 10
63.2454513447
 20
54.7142136479
 30
0.0
 40
0.5
100
AcDbArc
 50
0.0
 51
90.0
  0
CIRCLE
  5
1B0
330
1F
100
AcDbEntity
  8
DIMENSION
  6
DOT2
 62
     0
100
AcDbCircle
 10
68.7329513447
 20
60.2017136479
 30
0.0
 40
0.8500000000000085
  0
CIRCLE
  5
1B1
330
1F
100
AcDbEntity
  8
DIMENSION
  6
DOT2
 62
     0
100
AcDbCircle
 10
68.7329513447
 20
60.2017136479
 30
0.0
 40
1.999999999999986
  0
CIRCLE
  5
1B2
330
1F
100
AcDbEntity
  8
DIMENSION
  6
DOT2
 62
     0
100
AcDbCircle
 10
53.0079513447
 20
44.4767136479
 30
0.0
 40
2.0
  0
CIRCLE
  5
1B3
330
1F
100
AcDbEntity
  8
DIMENSION
  6
DOT2
 62
     0
100
AcDbCircle
 10
53.0079513447
 20
44.4767136479
 30
0.0
 40
0.8500000000000014
  0
CIRCLE
  5
1B4
330
1F
100
AcDbEntity
  8
DIMENSION
  6
DOT2
 62
     0
100
AcDbCircle
 10
68.7329513447
 20
44.4767136479
 30
0.0
 40
0.8500000000000014
  0
CIRCLE
  5
1B5
330
1F
100
AcDbEntity
  8
DIMENSION
  6
DOT2
 62
     0
100
AcDbCircle
 10
68.7329513447
 20
44.4767136479
 30
0.0
 40
2.0
  0
ARC
  5
1B6
330
1F
100
AcDbEntity
  8
DIMENSION
  6
DOT2
 62
     0
100
AcDbCircle
 10
60.8704513447
 20
57.9960678974
 30
0.0
 40
2.000000000000006
100
AcDbArc
 50
225.0
 51
315.0
  0
LINE
  5
1B7
330
1F
100
AcDbEntity
  8
DIMENSION
  6
DOT2
 62
     0
100
AcDbLine
 10
67.3187379302
 20
61.6159268925
 30
0.0
 11
62.2846649071
 21
56.5818541022
 31
0.0
  0
LINE
  5
1B8
330
1F
100
AcDbEntity
  8
DIMENSION
  6
DOT2
 62
     0
100
AcDbLine
 10
65.113091799
 20
53.7534272103
 30
0.0
 11
70.1471645893
 21
58.7875002334
 31
0.0
  0
ARC
  5
1B9
330
1F
100
AcDbEntity
  8
DIMENSION
  6
DOT2
 62
     0
100
AcDbCircle
 10
66.5273055942
 20
52.3392136479
 30
0.0
 40
2.000000000000001
100
AcDbArc
 50
135.0
 51
225.0
  0
LINE
  5
1BA
330
1F
100
AcDbEntity
  8
DIMENSION
  6
DOT2
 62
     0
100
AcDbLine
 10
70.1471645893
 20
45.8909270624
 30
0.0
 11
65.113091799
 21
50.9250000855
 31
0.0
  0
LINE
  5
1BB
330
1F
100
AcDbEntity
  8
DIMENSION
  6
DOT2
 62
     0
100
AcDbLine
 10
62.2846649071
 20
48.0965731936
 30
0.0
 11
67.3187379302
 21
43.0625004033
 31
0.0
  0
ARC
  5
1BC
330
1F
100
AcDbEntity
  8
DIMENSION
  6
DOT2
 62
     0
100
AcDbCircle
 10
60.8704513447
 20
46.6823593984
 30
0.0
 40
2.000000000000011
100
AcDbArc
 50
45.0
 51
135.0
  0
LINE
  5
1BD
330
1F
100
AcDbEntity
  8
DIMENSION
  6
DOT2
 62
     0
100
AcDbLine
 10
54.4221647592
 20
43.0625004033
 30
0.0
 11
59.4562377823
 21
48.0965731936
 31
0.0
  0
LINE
  5
1BE
330
1F
100
AcDbEntity
  8
DIMENSION
  6
DOT2
 62
     0
100
AcDbLine
 10
56.6278108904
 20
50.9250000855
 30
0.0
 11
51.5937381001
 21
45.8909270624
 31
0.0
  0
ARC
  5
1BF
330
1F
100
AcDbEntity
  8
DIMENSION
  6
DOT2
 62
     0
100
AcDbCircle
 10
55.2135970952
 20
52.3392136479
 30
0.0
 40
2.000000000000001
100
AcDbArc
 50
315.0
 51
45.0
  0
LINE
  5
1C0
330
1F
100
AcDbEntity
  8
DIMENSION
  6
DOT2
 62
     0
100
AcDbLine
 10
51.5937381001
 20
58.7875002334
 30
0.0
 11
56.6278108904
 21
53.7534272103
 31
0.0
  0
LINE
  5
1C1
330
1F
100
AcDbEntity
  8
DIMENSION
  6
DOT2
 62
     0
100
AcDbLine
 10
59.4562377823
 20
56.5818541022
 30
0.0
 11
54.4221647592
 21
61.6159268925
 31
0.0
  0
ARC
  5
1C2
330
1F
100
AcDbEntity
  8
DIMENSION
  6
HIDDEN
 62
     0
100
AcDbCircle
 10
65.9829513447
 20
38.7267136479
 30
0.0
 40
4.0
100
AcDbArc
 50
321.3178125465
 51
0.0
  0
ARC
  5
1C3
330
1F
100
AcDbEntity
  8
DIMENSION
  6
HIDDEN
 62
     0
100
AcDbCircle
 10
55.7579513447
 20
38.7267136479
 30
0.0
 40
4.0
100
AcDbArc
 50
180.0
 51
218.6821874535
  0
ARC
  5
1C4
330
1F
100
AcDbEntity
  8
DIMENSION
  6
HIDDEN
 62
     0
100
AcDbCircle
 10
65.9829513447
 20
67.9517136479
 30
0.0
 40
4.000000000000008
100
AcDbArc
 50
0.0
 51
84.89391955579998
  0
ARC
  5
1C5
330
1F
100
AcDbEntity
  8
DIMENSION
  6
HIDDEN
 62
     0
100
AcDbCircle
 10
65.9829513447
 20
38.7267136479
 30
0.0
 40
3.999999999999993
100
AcDbArc
 50
270.0
 51
321.3178125465
  0
ARC
  5
1C6
330
1F
100
AcDbEntity
  8
DIMENSION
  6
HIDDEN
 62
     0
100
AcDbCircle
 10
55.7579513447
 20
38.7267136479
 30
0.0
 40
3.999999999999993
100
AcDbArc
 50
218.6821874535
 51
270.0
  0
LINE
  5
1C7
330
1F
100
AcDbEntity
  8
DIMENSION
 62
     0
100
AcDbLine
 10
51.7579513447
 20
67.9517136479
 30
0.0
 11
51.7579513447
 21
61.4517136479
 31
0.0
  0
LINE
  5
1C8
330
1F
100
AcDbEntity
  8
DIMENSION
 62
     0
100
AcDbLine
 10
58.2270586383
 20
43.2267136479
 30
0.0
 11
51.7579513447
 21
43.2267136479
 31
0.0
  0
LINE
  5
1C9
330
1F
100
AcDbEntity
  8
DIMENSION
 62
     0
100
AcDbLine
 10
69.9829513447
 20
61.4517136479
 30
0.0
 11
69.9829513447
 21
67.9517136479
 31
0.0
  0
LINE
  5
1CA
330
1F
100
AcDbEntity
  8
DIMENSION
 62
     0
100
AcDbLine
 10
65.9829513447
 20
71.9517136479
 30
0.0
 11
55.7579513447
 21
71.9517136479
 31
0.0
  0
LINE
  5
1CB
330
1F
100
AcDbEntity
  8
DIMENSION
 62
     0
100
AcDbLine
 10
63.513844051
 20
43.2267136479
 30
0.0
 11
69.9829513447
 21
43.2267136479
 31
0.0
  0
LINE
  5
1CC
330
1F
100
AcDbEntity
  8
DIMENSION
 62
     0
100
AcDbLine
 10
65.3704513447
 20
34.7267136479
 30
0.0
 11
65.3704513447
 21
39.2267136479
 31
0.0
  0
LINE
  5
1CD
330
1F
100
AcDbEntity
  8
DIMENSION
 62
     0
100
AcDbLine
 10
69.9829513447
 20
43.2267136479
 30
0.0
 11
69.9829513447
 21
38.7267136479
 31
0.0
  0
LINE
  5
1CE
330
1F
100
AcDbEntity
  8
DIMENSION
 62
     0
100
AcDbLine
 10
69.9829513447
 20
38.7267136479
 30
0.0
 11
70.0609304286
 21
38.8047233836
 31
0.0
  0
LINE
  5
1CF
330
1F
100
AcDbEntity
  8
DIMENSION
 62
     0
100
AcDbLine
 10
69.9829513447
 20
43.2267136479
 30
0.0
 11
69.9749742314
 21
43.2816269031
 31
0.0
  0
LINE
  5
1D0
330
1F
100
AcDbEntity
  8
DIMENSION
 62
     0
100
AcDbLine
 10
56.3704513447
 20
34.7267136479
 30
0.0
 11
56.3704513447
 21
39.2267136479
 31
0.0
  0
LINE
  5
1D1
330
1F
100
AcDbEntity
  8
DIMENSION
 62
     0
100
AcDbLine
 10
56.3704513447
 20
39.2267136479
 30
0.0
 11
65.3704513447
 21
39.2267136479
 31
0.0
  0
LINE
  5
1D2
330
1F
100
AcDbEntity
  8
DIMENSION
 62
     0
100
AcDbLine
 10
69.9829513447
 20
38.7267136479
 30
0.0
 11
69.9829513447
 21
43.2267136479
 31
0.0
  0
LINE
  5
1D3
330
1F
100
AcDbEntity
  8
DIMENSION
 62
     0
100
AcDbLine
 10
51.7579513447
 20
43.2267136479
 30
0.0
 11
51.7579513447
 21
38.7267136479
 31
0.0
  0
LINE
  5
1D4
330
1F
100
AcDbEntity
  8
DIMENSION
 62
     0
100
AcDbLine
 10
58.2270586383
 20
61.4517136479
 30
0.0
 11
51.7579513447
 21
61.4517136479
 31
0.0
  0
LINE
  5
1D5
330
1F
100
AcDbEntity
  8
DIMENSION
 62
     0
100
AcDbLine
 10
55.7579513447
 20
34.7267136479
 30
0.0
 11
56.3704513447
 21
34.7267136479
 31
0.0
  0
LINE
  5
1D6
330
1F
100
AcDbEntity
  8
DIMENSION
 62
     0
100
AcDbLine
 10
51.7579513447
 20
49.6958209416
 30
0.0
 11
51.7579513447
 21
38.7267136479
 31
0.0
  0
LINE
  5
1D7
330
1F
100
AcDbEntity
  8
DIMENSION
 62
     0
100
AcDbLine
 10
51.7579513447
 20
67.9517136479
 30
0.0
 11
51.7579513447
 21
54.9826063543
 31
0.0
  0
LINE
  5
1D8
330
1F
100
AcDbEntity
  8
DIMENSION
 62
     0
100
AcDbLine
 10
69.9829513447
 20
54.9826063543
 30
0.0
 11
69.9829513447
 21
67.9517136479
 31
0.0
  0
LINE
  5
1D9
330
1F
100
AcDbEntity
  8
DIMENSION
 62
     0
100
AcDbLine
 10
69.9829513447
 20
49.6958209416
 30
0.0
 11
69.9829513447
 21
38.7267136479
 31
0.0
  0
LINE
  5
1DA
330
1F
100
AcDbEntity
  8
DIMENSION
 62
     0
100
AcDbLine
 10
65.3704513447
 20
34.7267136479
 30
0.0
 11
65.9829513447
 21
34.7267136479
 31
0.0
  0
LINE
  5
1DB
330
1F
100
AcDbEntity
  8
DIMENSION
 62
     0
100
AcDbLine
 10
63.513844051
 20
61.4517136479
 30
0.0
 11
69.9829513447
 21
61.4517136479
 31
0.0
  0
LINE
  5
1DC
330
1F
100
AcDbEntity
  8
DIMENSION
 62
     0
100
AcDbLine
 10
56.3704513447
 20
39.2267136479
 30
0.0
 11
65.3704513447
 21
39.2267136479
 31
0.0
  0
LINE
  5
1DD
330
1F
100
AcDbEntity
  8
DIMENSION
 62
     0
100
AcDbLine
 10
56.3704513447
 20
39.2267136479
 30
0.0
 11
56.3704513447
 21
32.7267136479
 31
0.0
  0
LINE
  5
1DE
330
1F
100
AcDbEntity
  8
DIMENSION
 62
     0
100
AcDbLine
 10
56.3704513447
 20
32.7267136479
 30
0.0
 11
65.3704513447
 21
32.7267136479
 31
0.0
  0
LINE
  5
1DF
330
1F
100
AcDbEntity
  8
DIMENSION
 62
     0
100
AcDbLine
 10
65.3704513447
 20
39.2267136479
 30
0.0
 11
65.3704513447
 21
32.7267136479
 31
0.0
  0
LINE
  5
1E0
330
1F
100
AcDbEntity
  8
DIMENSION
 62
     0
100
AcDbLine
 10
49.3704513447
 20
69.9517136479
 30
0.0
 11
49.3704513447
 21
62.9517136479
 31
0.0
  0
LINE
  5
1E1
330
1F
100
AcDbEntity
  8
DIMENSION
 62
     0
100
AcDbLine
 10
47.3704513447
 20
60.9517136479
 30
0.0
 11
46.5704513447
 21
60.9517136479
 31
0.0
  0
LINE
  5
1E2
330
1F
100
AcDbEntity
  8
DIMENSION
 62
     0
100
AcDbLine
 10
72.3704513447
 20
69.9517136479
 30
0.0
 11
72.3704513447
 21
71.9517136479
 31
0.0
  0
LINE
  5
1E3
330
1F
100
AcDbEntity
  8
DIMENSION
 62
     0
100
AcDbLine
 10
55.7579513447
 20
71.9517136479
 30
0.0
 11
49.3704513447
 21
71.9517136479
 31
0.0
  0
LINE
  5
1E4
330
1F
100
AcDbEntity
  8
DIMENSION
 62
     0
100
AcDbLine
 10
44.5704513447
 20
58.9517136479
 30
0.0
 11
44.5704513447
 21
45.7267136479
 31
0.0
  0
LINE
  5
1E5
330
1F
100
AcDbEntity
  8
DIMENSION
 62
     0
100
AcDbLine
 10
49.3704513447
 20
71.9517136479
 30
0.0
 11
49.3704513447
 21
69.9517136479
 31
0.0
  0
LINE
  5
1E6
330
1F
100
AcDbEntity
  8
DIMENSION
 62
     0
100
AcDbLine
 10
46.5704513447
 20
43.7267136479
 30
0.0
 11
47.3704513447
 21
43.7267136479
 31
0.0
  0
LINE
  5
1E7
330
1F
100
AcDbEntity
  8
DIMENSION
 62
     0
100
AcDbLine
 10
49.3704513447
 20
41.7267136479
 30
0.0
 11
49.3704513447
 21
34.7267136479
 31
0.0
  0
LINE
  5
1E8
330
1F
100
AcDbEntity
  8
DIMENSION
 62
     0
100
AcDbLine
 10
72.3704513447
 20
34.7267136479
 30
0.0
 11
72.3704513447
 21
41.7267136479
 31
0.0
  0
LINE
  5
1E9
330
1F
100
AcDbEntity
  8
DIMENSION
 62
     0
100
AcDbLine
 10
77.1704513447
 20
45.7267136479
 30
0.0
 11
77.1704513447
 21
58.9517136479
 31
0.0
  0
LINE
  5
1EA
330
1F
100
AcDbEntity
  8
DIMENSION
 62
     0
100
AcDbLine
 10
65.9829513447
 20
71.9517136479
 30
0.0
 11
72.3704513447
 21
71.9517136479
 31
0.0
  0
LINE
  5
1EB
330
1F
100
AcDbEntity
  8
DIMENSION
 62
     0
100
AcDbLine
 10
75.1704513447
 20
60.9517136479
 30
0.0
 11
74.3704513447
 21
60.9517136479
 31
0.0
  0
LINE
  5
1EC
330
1F
100
AcDbEntity
  8
DIMENSION
 62
     0
100
AcDbLine
 10
72.3704513447
 20
62.9517136479
 30
0.0
 11
72.3704513447
 21
69.9517136479
 31
0.0
  0
LINE
  5
1ED
330
1F
100
AcDbEntity
  8
DIMENSION
 62
     0
100
AcDbLine
 10
74.3704513447
 20
43.7267136479
 30
0.0
 11
75.1704513447
 21
43.7267136479
 31
0.0
  0
LINE
  5
1EE
330
1F
100
AcDbEntity
  8
DIMENSION
 62
     0
100
AcDbLine
 10
65.3704513447
 20
32.7267136479
 30
0.0
 11
72.3704513447
 21
32.7267136479
 31
0.0
  0
LINE
  5
1EF
330
1F
100
AcDbEntity
  8
DIMENSION
 62
     0
100
AcDbLine
 10
72.3704513447
 20
34.7267136479
 30
0.0
 11
72.3704513447
 21
32.7267136479
 31
0.0
  0
LINE
  5
1F0
330
1F
100
AcDbEntity
  8
DIMENSION
 62
     0
100
AcDbLine
 10
65.3704513447
 20
34.7267136479
 30
0.0
 11
65.3704513447
 21
32.7267136479
 31
0.0
  0
LINE
  5
1F1
330
1F
100
AcDbEntity
  8
DIMENSION
 62
     0
100
AcDbLine
 10
56.3704513447
 20
34.7267136479
 30
0.0
 11
56.3704513447
 21
32.7267136479
 31
0.0
  0
LINE
  5
1F2
330
1F
100
AcDbEntity
  8
DIMENSION
 62
     0
100
AcDbLine
 10
56.3704513447
 20
32.7267136479
 30
0.0
 11
49.3704513447
 21
32.7267136479
 31
0.0
  0
LINE
  5
1F3
330
1F
100
AcDbEntity
  8
DIMENSION
 62
     0
100
AcDbLine
 10
49.3704513447
 20
34.7267136479
 30
0.0
 11
49.3704513447
 21
32.7267136479
 31
0.0
  0
ARC
  5
1F4
330
1F
100
AcDbEntity
  8
DIMENSION
 62
     0
100
AcDbCircle
 10
65.9829513447
 20
38.7267136479
 30
0.0
 40
4.0
100
AcDbArc
 50
270.0
 51
0.0
  0
ARC
  5
1F5
330
1F
100
AcDbEntity
  8
DIMENSION
 62
     0
100
AcDbCircle
 10
55.7579513447
 20
38.7267136479
 30
0.0
 40
4.0
100
AcDbArc
 50
180.0
 51
270.0
  0
ARC
  5
1F6
330
1F
100
AcDbEntity
  8
DIMENSION
 62
     0
100
AcDbCircle
 10
60.8704513447
 20
60.2017136479
 30
0.0
 40
2.004999999999991
100
AcDbArc
 50
58.1194308319
 51
121.8805691681
  0
ARC
  5
1F7
330
1F
100
AcDbEntity
  8
DIMENSION
 62
     0
100
AcDbCircle
 10
58.2270586383
 20
64.4517136479
 30
0.0
 40
2.999999999999997
100
AcDbArc
 50
270.0
 51
301.8805691681
  0
ARC
  5
1F8
330
1F
100
AcDbEntity
  8
DIMENSION
 62
     0
100
AcDbCircle
 10
63.513844051
 20
64.4517136479
 30
0.0
 40
3.000000000000001
100
AcDbArc
 50
238.1194308319
 51
270.0
  0
ARC
  5
1F9
330
1F
100
AcDbEntity
  8
DIMENSION
 62
     0
100
AcDbCircle
 10
48.7579513447
 20
54.9826063543
 30
0.0
 40
3.0
100
AcDbArc
 50
328.1194308319
 51
0.0
  0
ARC
  5
1FA
330
1F
100
AcDbEntity
  8
DIMENSION
 62
     0
100
AcDbCircle
 10
53.0079513447
 20
52.3392136479
 30
0.0
 40
2.004999999999997
100
AcDbArc
 50
148.1194308319
 51
211.8805691681
  0
ARC
  5
1FB
330
1F
100
AcDbEntity
  8
DIMENSION
 62
     0
100
AcDbCircle
 10
48.7579513447
 20
49.6958209416
 30
0.0
 40
3.0
100
AcDbArc
 50
0.0
 51
31.8805691681
  0
ARC
  5
1FC
330
1F
100
AcDbEntity
  8
DIMENSION
 62
     0
100
AcDbCircle
 10
60.8704513447
 20
44.4767136479
 30
0.0
 40
2.005000000000001
100
AcDbArc
 50
238.1194308319
 51
301.8805691681
  0
ARC
  5
1FD
330
1F
100
AcDbEntity
  8
DIMENSION
 62
     0
100
AcDbCircle
 10
58.2270586383
 20
40.2267136479
 30
0.0
 40
3.000000000000007
100
AcDbArc
 50
58.1194308319
 51
90.0
  0
ARC
  5
1FE
330
1F
100
AcDbEntity
  8
DIMENSION
 62
     0
100
AcDbCircle
 10
63.513844051
 20
40.2267136479
 30
0.0
 40
3.000000000000007
100
AcDbArc
 50
90.0
 51
121.8805691681
  0
ARC
  5
1FF
330
1F
100
AcDbEntity
  8
DIMENSION
 62
     0
100
AcDbCircle
 10
72.9829513447
 20
54.9826063543
 30
0.0
 40
3.000000000000008
100
AcDbArc
 50
180.0
 51
211.8805691681
  0
ARC
  5
200
330
1F
100
AcDbEntity
  8
DIMENSION
 62
     0
100
AcDbCircle
 10
68.7329513447
 20
52.3392136479
 30
0.0
 40
2.004999999999997
100
AcDbArc
 50
328.1194308319
 51
31.8805691681
  0
ARC
  5
201
330
1F
100
AcDbEntity
  8
DIMENSION
 62
     0
100
AcDbCircle
 10
72.9829513447
 20
49.6958209416
 30
0.0
 40
3.000000000000008
100
AcDbArc
 50
148.1194308319
 51
180.0
  0
ARC
  5
202
330
1F
100
AcDbEntity
  8
DIMENSION
 62
     0
100
AcDbCircle
 10
47.3704513447
 20
62.9517136479
 30
0.0
 40
2.0
100
AcDbArc
 50
270.0
 51
0.0
  0
ARC
  5
203
330
1F
100
AcDbEntity
  8
DIMENSION
 62
     0
100
AcDbCircle
 10
46.5704513447
 20
58.9517136479
 30
0.0
 40
2.000000000000007
100
AcDbArc
 50
90.0
 51
180.0
  0
ARC
  5
204
330
1F
100
AcDbEntity
  8
DIMENSION
 62
     0
100
AcDbCircle
 10
46.5704513447
 20
45.7267136479
 30
0.0
 40
2.0
100
AcDbArc
 50
180.0
 51
270.0
  0
ARC
  5
205
330
1F
100
AcDbEntity
  8
DIMENSION
 62
     0
100
AcDbCircle
 10
47.3704513447
 20
41.7267136479
 30
0.0
 40
2.000000000000007
100
AcDbArc
 50
0.0
 51
90.0
  0
ARC
  5
206
330
1F
100
AcDbEntity
  8
DIMENSION
 62
     0
100
AcDbCircle
 10
55.7579513447
 20
67.9517136479
 30
0.0
 40
4.000000000000014
100
AcDbArc
 50
90.0
 51
180.0
  0
ARC
  5
207
330
1F
100
AcDbEntity
  8
DIMENSION
 62
     0
100
AcDbCircle
 10
65.9829513447
 20
67.9517136479
 30
0.0
 40
4.000000000000014
100
AcDbArc
 50
0.0
 51
90.0
  0
ARC
  5
208
330
1F
100
AcDbEntity
  8
DIMENSION
 62
     0
100
AcDbCircle
 10
74.3704513447
 20
41.7267136479
 30
0.0
 40
2.000000000000014
100
AcDbArc
 50
90.0
 51
180.0
  0
ARC
  5
209
330
1F
100
AcDbEntity
  8
DIMENSION
 62
     0
100
AcDbCircle
 10
75.1704513447
 20
45.7267136479
 30
0.0
 40
2.0
100
AcDbArc
 50
270.0
 51
0.0
  0
ARC
  5
20A
330
1F
100
AcDbEntity
  8
DIMENSION
 62
     0
100
AcDbCircle
 10
65.9829513447
 20
38.7267136479
 30
0.0
 40
4.000000000000004
100
AcDbArc
 50
270.0
 51
321.3178125465
  0
ARC
  5
20B
330
1F
100
AcDbEntity
  8
DIMENSION
 62
     0
100
AcDbCircle
 10
65.9829513447
 20
38.7267136479
 30
0.0
 40
4.000000000000014
100
AcDbArc
 50
321.3178125465
 51
0.0
  0
ARC
  5
20C
330
1F
100
AcDbEntity
  8
DIMENSION
 62
     0
100
AcDbCircle
 10
55.7579513447
 20
38.7267136479
 30
0.0
 40
4.0
100
AcDbArc
 50
218.6821874535
 51
270.0
  0
ARC
  5
20D
330
1F
100
AcDbEntity
  8
DIMENSION
 62
     0
100
AcDbCircle
 10
55.7579513447
 20
38.7267136479
 30
0.0
 40
4.0
100
AcDbArc
 50
180.0
 51
218.6821874535
  0
ARC
  5
20E
330
1F
100
AcDbEntity
  8
DIMENSION
 62
     0
100
AcDbCircle
 10
75.1704513447
 20
58.9517136479
 30
0.0
 40
2.000000000000007
100
AcDbArc
 50
0.0
 51
90.0
  0
ARC
  5
20F
330
1F
100
AcDbEntity
  8
DIMENSION
 62
     0
100
AcDbCircle
 10
74.3704513447
 20
62.9517136479
 30
0.0
 40
2.000000000000014
100
AcDbArc
 50
180.0
 51
270.0
  0
HATCH
  5
210
330
1F
100
AcDbEntity
  8
DIMENSION
 62
     0
100
AcDbHatch
 10
0.0
 20
0.0
 30
0.0
210
0.0
220
0.0
230
1.0
  2
ANSI31
 70
     0
 71
     0
 91
        1
 92
        0
 93
        5
 72
     1
 10
55.75795134467691
 20
34.72671364791056
 11
49.37045134467689
 21
34.72671364791056
 72
     1
 10
49.37045134467689
 20
34.72671364791056
 11
49.37045134467689
 21
32.72671364791056
 72
     1
 10
49.37045134467689
 20
32.72671364791056
 11
56.37045134467689
 21
32.72671364791056
 72
     1
 10
56.37045134467689
 20
32.72671364791056
 11
56.37045134467689
 21
34.72671364791056
 72
     1
 10
56.37045134467689
 20
34.72671364791056
 11
55.75795134467691
 21
34.72671364791056
 97
        0
 75
     0
 76
     1
 52
0.0
 41
0.25
 77
     0
 78
     1
 53
45.0
 43
0.0
 44
0.0
 45
-0.561266007566822
 46
0.5612660075668221
 79
     0
 98
        1
 10
0.0
 20
0.0
  0
HATCH
  5
211
330
1F
100
AcDbEntity
  8
DIMENSION
 62
     0
100
AcDbHatch
 10
0.0
 20
0.0
 30
0.0
210
0.0
220
0.0
230
1.0
  2
ANSI31
 70
     0
 71
     0
 91
        1
 92
        0
 93
       10
 72
     2
 10
55.75795134467691
 20
67.95171364791057
 40
4.000000000000009
 50
90.0
 51
180.0
 73
     1
 72
     1
 10
51.75795134467691
 20
67.95171364791057
 11
51.75795134467691
 21
61.45171364791057
 72
     1
 10
51.75795134467691
 20
61.45171364791057
 11
58.22705863832395
 21
61.45171364791068
 72
     2
 10
58.22705863832395
 20
64.45171364791067
 40
3.0
 50
270.0000000000007
 51
301.8805691681211
 73
     1
 72
     2
 10
60.8704513446769
 20
60.20171364791068
 40
2.004999999999997
 50
238.1194308318804
 51
301.8805691681212
 73
     0
 72
     2
 10
63.51384405102986
 20
64.45171364791067
 40
3.0
 50
238.1194308318804
 51
270.0000000000007
 73
     1
 72
     1
 10
63.51384405102986
 20
61.45171364791068
 11
69.98295134467692
 21
61.45171364791057
 72
     1
 10
69.98295134467692
 20
61.45171364791057
 11
69.98295134467692
 21
67.95171364791057
 72
     2
 10
65.9829513446769
 20
67.95171364791057
 40
3.999999999999997
 50
0.0
 51
90.0
 73
     1
 72
     1
 10
65.9829513446769
 20
71.95171364791057
 11
55.75795134467691
 21
71.95171364791058
 97
        0
 75
     0
 76
     1
 52
90.0
 41
0.125
 77
     0
 78
     1
 53
135.0000000000002
 43
0.0
 44
0.0
 45
-0.2806330037834101
 46
-0.280633003783412
 79
     0
 98
        1
 10
0.0
 20
0.0
  0
HATCH
  5
212
330
1F
100
AcDbEntity
  8
DIMENSION
 62
     0
100
AcDbHatch
 10
0.0
 20
0.0
 30
0.0
210
0.0
220
0.0
230
1.0
  2
ANSI31
 70
     0
 71
     0
 91
        1
 92
        0
 93
       20
 72
     2
 10
71.8704513446769
 20
49.83921364791058
 40
3.000000000000006
 50
247.4425495339933
 51
488.9886674401517
 73
     0
 72
     1
 10
69.98295134467692
 20
47.50740238839575
 11
69.98295134467692
 21
43.22671364791068
 72
     1
 10
69.98295134467692
 20
43.22671364791068
 11
69.98295134467692
 21
38.72671364791058
 72
     1
 10
69.98295134467692
 20
38.72671364791058
 11
69.98295134467692
 21
34.72671364791056
 72
     1
 10
69.98295134467692
 20
34.72671364791056
 11
72.37045134467691
 21
34.72671364791057
 72
     1
 10
72.37045134467691
 20
34.72671364791057
 11
72.3704513446769
 21
41.72671364791057
 72
     2
 10
74.37045134467691
 20
41.72671364791057
 40
2.000000000000002
 50
180.0
 51
270.0000000000007
 73
     0
 72
     1
 10
74.37045134467691
 20
43.72671364791058
 11
75.1704513446769
 21
43.72671364791058
 72
     2
 10
75.1704513446769
 20
45.72671364791058
 40
1.999999999999996
 50
270.0000000000007
 51
360.0000000000006
 73
     1
 72
     1
 10
77.17045134467689
 20
45.72671364791057
 11
77.17045134467689
 21
58.95171364791057
 72
     2
 10
75.1704513446769
 20
58.95171364791057
 40
1.999999999999996
 50
0.0
 51
90.0
 73
     1
 72
     1
 10
75.1704513446769
 20
60.95171364791058
 11
74.37045134467691
 21
60.95171364791058
 72
     2
 10
74.37045134467691
 20
62.95171364791058
 40
2.000000000000002
 50
90.0
 51
180.0
 73
     0
 72
     1
 10
72.3704513446769
 20
62.95171364791058
 11
72.3704513446769
 21
69.95171364791058
 72
     1
 10
72.3704513446769
 20
69.95171364791058
 11
69.44705295981466
 21
69.95171364791058
 72
     2
 10
65.98295134467692
 20
67.95171364791057
 40
3.999999999999999
 50
330.0000000000006
 51
360.0000000000008
 73
     0
 72
     1
 10
69.98295134467692
 20
67.95171364791057
 11
69.98295134467692
 21
61.45171364791057
 72
     1
 10
69.98295134467692
 20
61.45171364791057
 11
69.98295134467692
 21
54.98260635426362
 72
     2
 10
72.9829513446769
 20
54.98260635426362
 40
2.999999999999992
 50
180.0
 51
211.8805691681208
 73
     1
 72
     2
 10
68.7329513446769
 20
52.33921364791068
 40
2.005
 50
328.1194308318805
 51
352.2468293487698
 73
     0
 97
        0
 75
     0
 76
     1
 52
0.0
 41
0.25
 77
     0
 78
     1
 53
45.0
 43
0.0
 44
0.0
 45
-0.561266007566822
 46
0.5612660075668221
 79
     0
 98
        1
 10
0.0
 20
0.0
  0
HATCH
  5
213
330
1F
100
AcDbEntity
  8
DIMENSION
 62
     0
100
AcDbHatch
 10
0.0
 20
0.0
 30
0.0
210
0.0
220
0.0
230
1.0
  2
ANSI31
 70
     0
 71
     0
 91
        3
 92
        0
 93
       18
 72
     2
 10
65.4829513446769
 20
45.72671364791056
 40
3.000000000000012
 50
56.44269023807509
 51
123.5573097619248
 73
     0
 72
     1
 10
63.82463894949903
 20
43.22671364791068
 11
63.51384405102986
 21
43.22671364791068
 72
     2
 10
63.51384405102986
 20
40.22671364791067
 40
3.000000000000003
 50
90.00000000000016
 51
121.8805691681202
 73
     1
 72
     2
 10
60.8704513446769
 20
44.47671364791067
 40
2.004999999999999
 50
58.11943083187943
 51
121.8805691681203
 73
     0
 72
     2
 10
58.22705863832395
 20
40.22671364791067
 40
3.000000000000003
 50
58.11943083187978
 51
90.0
 73
     1
 72
     1
 10
58.22705863832395
 20
43.22671364791068
 11
57.9162637398548
 21
43.22671364791068
 72
     2
 10
56.25795134467692
 20
45.72671364791056
 40
3.000000000000009
 50
56.44269023807522
 51
123.5573097619249
 73
     0
 72
     1
 10
54.59963894949903
 20
43.22671364791068
 11
51.75795134467691
 21
43.22671364791068
 72
     1
 10
51.75795134467691
 20
43.22671364791068
 11
51.75795134467693
 21
38.72671364791059
 72
     2
 10
55.75795134467693
 20
38.72671364791057
 40
3.999999999999999
 50
179.9999999999998
 51
218.6821874534901
 73
     1
 72
     1
 10
52.63545234547772
 20
36.22671364791057
 11
56.37045134467691
 21
36.22671364791057
 72
     1
 10
56.37045134467691
 20
36.22671364791057
 11
56.37045134467689
 21
39.22671364791057
 72
     1
 10
56.37045134467689
 20
39.22671364791057
 11
65.3704513446769
 21
39.22671364791057
 72
     1
 10
65.3704513446769
 20
39.22671364791057
 11
65.37045134467691
 21
36.22671364791057
 72
     1
 10
65.37045134467691
 20
36.22671364791057
 11
69.10545034387611
 21
36.22671364791057
 72
     2
 10
65.98295134467692
 20
38.72671364791057
 40
3.999999999999992
 50
321.3178125465113
 51
360.0000000000009
 73
     1
 72
     1
 10
69.98295134467692
 20
38.72671364791058
 11
69.98295134467692
 21
43.22671364791068
 72
     1
 10
69.98295134467692
 20
43.22671364791068
 11
67.1412637398548
 21
43.22671364791068
 97
        0
 92
        0
 93
        1
 72
     2
 10
56.37045134467692
 20
41.33921364791057
 40
0.5956299999999971
 50
0.0
 51
360.0
 73
     1
 97
        0
 92
        0
 93
        1
 72
     2
 10
65.37045134467692
 20
41.33921364791057
 40
0.5956299999999971
 50
0.0
 51
360.0
 73
     1
 97
        0
 75
     0
 76
     1
 52
90.0
 41
0.125
 77
     0
 78
     1
 53
135.0000000000002
 43
0.0
 44
0.0
 45
-0.2806330037834101
 46
-0.280633003783412
 79
     0
 98
        1
 10
0.0
 20
0.0
  0
HATCH
  5
214
330
1F
100
AcDbEntity
  8
DIMENSION
 62
     0
100
AcDbHatch
 10
0.0
 20
0.0
 30
0.0
210
0.0
220
0.0
230
1.0
  2
ANSI31
 70
     0
 71
     0
 91
        1
 92
        0
 93
       21
 72
     2
 10
49.8704513446769
 20
54.83921364791058
 40
2.999999999999992
 50
67.4425495339915
 51
308.9886674401527
 73
     0
 72
     1
 10
51.75795134467691
 20
57.17102490742536
 11
51.75795134467691
 21
61.45171364791068
 72
     1
 10
51.75795134467691
 20
61.45171364791068
 11
51.75795134467691
 21
67.95171364791057
 72
     2
 10
55.75795134467691
 20
67.95171364791057
 40
4.000000000000014
 50
180.0
 51
210.000000000001
 73
     0
 72
     1
 10
52.29384972953915
 20
69.95171364791058
 11
49.3704513446769
 21
69.95171364791058
 72
     1
 10
49.3704513446769
 20
69.95171364791058
 11
49.3704513446769
 21
62.95171364791058
 72
     2
 10
47.3704513446769
 20
62.95171364791058
 40
2.000000000000002
 50
0.0
 51
90.0
 73
     0
 72
     1
 10
47.3704513446769
 20
60.95171364791058
 11
46.5704513446769
 21
60.95171364791058
 72
     2
 10
46.5704513446769
 20
58.95171364791057
 40
2.000000000000002
 50
90.0
 51
180.0
 73
     1
 72
     1
 10
44.5704513446769
 20
58.95171364791057
 11
44.5704513446769
 21
45.72671364791057
 72
     2
 10
46.5704513446769
 20
45.72671364791058
 40
2.000000000000002
 50
180.000000000001
 51
270.0000000000007
 73
     1
 72
     1
 10
46.5704513446769
 20
43.72671364791058
 11
47.3704513446769
 21
43.72671364791058
 72
     2
 10
47.3704513446769
 20
41.72671364791057
 40
2.000000000000002
 50
270.0000000000007
 51
360.0000000000008
 73
     0
 72
     1
 10
49.3704513446769
 20
41.72671364791057
 11
49.3704513446769
 21
34.72671364791058
 72
     1
 10
49.3704513446769
 20
34.72671364791058
 11
55.75795134467691
 21
34.72671364791058
 72
     2
 10
55.75795134467693
 20
38.72671364791057
 40
4.000000000000004
 50
90.0000000000002
 51
141.3178125465107
 73
     0
 72
     2
 10
55.75795134467693
 20
38.72671364791057
 40
4.000000000000004
 50
141.3178125465107
 51
180.0000000000009
 73
     0
 72
     1
 10
51.75795134467691
 20
38.72671364791058
 11
51.75795134467691
 21
43.22671364791068
 72
     1
 10
51.75795134467691
 20
43.22671364791068
 11
51.75795134467691
 21
49.69582094155772
 72
     2
 10
48.75795134467691
 20
49.69582094155772
 40
3.000000000000006
 50
0.0
 51
31.88056916812023
 73
     1
 72
     2
 10
53.0079513446769
 20
52.33921364791068
 40
2.004999999999991
 50
148.1194308318796
 51
172.2468293487643
 73
     0
 97
        0
 75
     0
 76
     1
 52
0.0
 41
0.25
 77
     0
 78
     1
 53
45.0
 43
0.0
 44
0.0
 45
-0.561266007566822
 46
0.5612660075668221
 79
     0
 98
        1
 10
0.0
 20
0.0
  0
HATCH
  5
215
330
1F
100
AcDbEntity
  8
DIMENSION
 62
     0
100
AcDbHatch
 10
0.0
 20
0.0
 30
0.0
210
0.0
220
0.0
230
1.0
  2
ANSI31
 70
     0
 71
     0
 91
        1
 92
        0
 93
        5
 72
     1
 10
65.98295134467692
 20
34.72671364791057
 11
65.3704513446769
 21
34.72671364791057
 72
     1
 10
65.3704513446769
 20
34.72671364791057
 11
65.3704513446769
 21
32.72671364791057
 72
     1
 10
65.3704513446769
 20
32.72671364791057
 11
72.3704513446769
 21
32.72671364791057
 72
     1
 10
72.3704513446769
 20
32.72671364791057
 11
72.3704513446769
 21
34.72671364791057
 72
     1
 10
72.3704513446769
 20
34.72671364791057
 11
65.98295134467692
 21
34.72671364791057
 97
        0
 75
     0
 76
     1
 52
0.0
 41
0.25
 77
     0
 78
     1
 53
45.0
 43
0.0
 44
0.0
 45
-0.561266007566822
 46
0.5612660075668221
 79
     0
 98
        1
 10
0.0
 20
0.0
  0
HATCH
  5
216
330
1F
100
AcDbEntity
  8
DIMENSION
 62
     0
100
AcDbHatch
 10
0.0
 20
0.0
 30
0.0
210
0.0
220
0.0
230
1.0
  2
ANSI31
 70
     0
 71
     0
 91
        1
 92
        0
 93
        2
 72
     1
 10
57.91626373985479
 20
43.22671364791068
 11
54.59963894949904
 21
43.22671364791068
 72
     2
 10
56.25795134467692
 20
45.72671364791056
 40
3.000000000000008
 50
236.442690238076
 51
303.5573097619255
 73
     1
 97
        0
 75
     0
 76
     1
 52
90.0
 41
0.125
 77
     0
 78
     1
 53
135.0000000000002
 43
0.0
 44
0.0
 45
-0.2806330037834101
 46
-0.280633003783412
 79
     0
 98
        1
 10
0.0
 20
0.0
  0
HATCH
  5
217
330
1F
100
AcDbEntity
  8
DIMENSION
 62
     0
100
AcDbHatch
 10
0.0
 20
0.0
 30
0.0
210
0.0
220
0.0
230
1.0
  2
ANSI31
 70
     0
 71
     0
 91
        1
 92
        0
 93
        2
 72
     1
 10
67.1412637398548
 20
43.22671364791068
 11
63.82463894949903
 21
43.22671364791068
 72
     2
 10
65.4829513446769
 20
45.72671364791056
 40
3.000000000000012
 50
236.442690238076
 51
303.5573097619258
 73
     1
 97
        0
 75
     0
 76
     1
 52
90.0
 41
0.125
 77
     0
 78
     1
 53
135.0000000000002
 43
0.0
 44
0.0
 45
-0.2806330037834101
 46
-0.280633003783412
 79
     0
 98
        1
 10
0.0
 20
0.0
  0
HATCH
  5
218
330
1F
100
AcDbEntity
  8
DIMENSION
 62
     0
100
AcDbHatch
 10
0.0
 20
0.0
 30
0.0
210
0.0
220
0.0
230
1.0
  2
ANSI31
 70
     0
 71
     0
 91
        1
 92
        0
 93
        4
 72
     1
 10
56.37045134467689
 20
39.22671364791057
 11
56.37045134467689
 21
32.72671364791056
 72
     1
 10
56.37045134467689
 20
32.72671364791056
 11
65.3704513446769
 21
32.72671364791056
 72
     1
 10
65.3704513446769
 20
32.72671364791056
 11
65.3704513446769
 21
39.22671364791057
 72
     1
 10
65.3704513446769
 20
39.22671364791057
 11
56.37045134467689
 21
39.22671364791057
 97
        0
 75
     0
 76
     1
 52
-10.0
 41
0.0625
 77
     0
 78
     1
 53
34.99999999999999
 43
0.0
 44
0.0
 45
-0.1138190740884106
 46
0.1625504837885968
 79
     0
 98
        1
 10
0.0
 20
0.0
  0
HATCH
  5
219
330
1F
100
AcDbEntity
  8
DIMENSION
 62
     0
100
AcDbHatch
 10
0.0
 20
0.0
 30
0.0
210
0.0
220
0.0
230
1.0
  2
ANSI31
 70
     0
 71
     0
 91
        1
 92
        0
 93
        4
 72
     1
 10
56.37045134467691
 20
36.22671364791057
 11
52.63545234547772
 21
36.22671364791057
 72
     2
 10
55.75795134467693
 20
38.72671364791057
 40
3.999999999999999
 50
218.6821874534901
 51
270.0000000000007
 73
     1
 72
     1
 10
55.75795134467691
 20
34.72671364791058
 11
56.37045134467691
 21
34.72671364791058
 72
     1
 10
56.37045134467691
 20
34.72671364791058
 11
56.37045134467691
 21
36.22671364791057
 97
        0
 75
     0
 76
     1
 52
90.0
 41
0.125
 77
     0
 78
     1
 53
135.0000000000002
 43
0.0
 44
0.0
 45
-0.2806330037834101
 46
-0.280633003783412
 79
     0
 98
        1
 10
0.0
 20
0.0
  0
HATCH
  5
21A
330
1F
100
AcDbEntity
  8
DIMENSION
 62
     0
100
AcDbHatch
 10
0.0
 20
0.0
 30
0.0
210
0.0
220
0.0
230
1.0
  2
ANSI31
 70
     0
 71
     0
 91
        1
 92
        0
 93
        4
 72
     2
 10
65.98295134467692
 20
38.72671364791057
 40
3.999999999999992
 50
270.0000000000007
 51
321.3178125465113
 73
     1
 72
     1
 10
69.10545034387611
 20
36.22671364791057
 11
65.37045134467691
 21
36.22671364791057
 72
     1
 10
65.37045134467691
 20
36.22671364791057
 11
65.37045134467691
 21
34.72671364791058
 72
     1
 10
65.37045134467691
 20
34.72671364791058
 11
65.98295134467692
 21
34.72671364791058
 97
        0
 75
     0
 76
     1
 52
90.0
 41
0.125
 77
     0
 78
     1
 53
135.0000000000002
 43
0.0
 44
0.0
 45
-0.2806330037834101
 46
-0.280633003783412
 79
     0
 98
        1
 10
0.0
 20
0.0
  0
HATCH
  5
21B
330
1F
100
AcDbEntity
  8
DIMENSION
 62
     0
100
AcDbHatch
 10
0.0
 20
0.0
 30
0.0
210
0.0
220
0.0
230
1.0
  2
ANSI31
 70
     0
 71
     0
 91
        1
 92
        0
 93
        1
 72
     2
 10
56.37045134467692
 20
41.33921364791057
 40
0.5956299999999971
 50
0.0
 51
360.0
 73
     1
 97
        0
 75
     0
 76
     1
 52
90.0
 41
0.125
 77
     0
 78
     1
 53
135.0000000000002
 43
0.0
 44
0.0
 45
-0.2806330037834101
 46
-0.280633003783412
 79
     0
 98
        1
 10
0.0
 20
0.0
  0
HATCH
  5
21C
330
1F
100
AcDbEntity
  8
DIMENSION
 62
     0
100
AcDbHatch
 10
0.0
 20
0.0
 30
0.0
210
0.0
220
0.0
230
1.0
  2
ANSI31
 70
     0
 71
     0
 91
        1
 92
        0
 93
        4
 72
     1
 10
51.75795134467691
 20
54.98260635426363
 11
51.75795134467691
 21
57.17102490742536
 72
     2
 10
49.8704513446769
 20
54.83921364791058
 40
2.999999999999992
 50
51.01133255984814
 51
292.5574504660091
 73
     1
 72
     2
 10
53.0079513446769
 20
52.33921364791068
 40
2.005
 50
172.2468293487639
 51
211.8805691681211
 73
     0
 72
     2
 10
48.75795134467691
 20
54.98260635426363
 40
3.0
 50
328.1194308318805
 51
360.0000000000008
 73
     1
 97
        0
 75
     0
 76
     1
 52
0.0
 41
0.25
 77
     0
 78
     1
 53
45.0
 43
0.0
 44
0.0
 45
-0.561266007566822
 46
0.5612660075668221
 79
     0
 98
        1
 10
0.0
 20
0.0
  0
HATCH
  5
21D
330
1F
100
AcDbEntity
  8
DIMENSION
 62
     0
100
AcDbHatch
 10
0.0
 20
0.0
 30
0.0
210
0.0
220
0.0
230
1.0
  2
ANSI31
 70
     0
 71
     0
 91
        1
 92
        0
 93
        1
 72
     2
 10
65.37045134467692
 20
41.33921364791057
 40
0.5956299999999971
 50
0.0
 51
360.0
 73
     1
 97
        0
 75
     0
 76
     1
 52
90.0
 41
0.125
 77
     0
 78
     1
 53
135.0000000000002
 43
0.0
 44
0.0
 45
-0.2806330037834101
 46
-0.280633003783412
 79
     0
 98
        1
 10
0.0
 20
0.0
  0
HATCH
  5
21E
330
1F
100
AcDbEntity
  8
DIMENSION
 62
     0
100
AcDbHatch
 10
0.0
 20
0.0
 30
0.0
210
0.0
220
0.0
230
1.0
  2
ANSI31
 70
     0
 71
     0
 91
        1
 92
        0
 93
        4
 72
     2
 10
55.75795134467691
 20
67.95171364791057
 40
4.000000000000014
 50
210.000000000001
 51
270.0000000000007
 73
     0
 72
     1
 10
55.75795134467691
 20
71.95171364791058
 11
49.3704513446769
 21
71.95171364791058
 72
     1
 10
49.3704513446769
 20
71.95171364791058
 11
49.3704513446769
 21
69.95171364791058
 72
     1
 10
49.3704513446769
 20
69.95171364791058
 11
52.29384972953915
 21
69.95171364791058
 97
        0
 75
     0
 76
     1
 52
0.0
 41
0.25
 77
     0
 78
     1
 53
45.0
 43
0.0
 44
0.0
 45
-0.561266007566822
 46
0.5612660075668221
 79
     0
 98
        1
 10
0.0
 20
0.0
  0
HATCH
  5
21F
330
1F
100
AcDbEntity
  8
DIMENSION
 62
     0
100
AcDbHatch
 10
0.0
 20
0.0
 30
0.0
210
0.0
220
0.0
230
1.0
  2
ANSI31
 70
     0
 71
     0
 91
        2
 92
        0
 93
        4
 72
     1
 10
69.98295134467692
 20
49.69582094155773
 11
69.98295134467692
 21
47.50740238839575
 72
     2
 10
71.8704513446769
 20
49.83921364791058
 40
3.000000000000006
 50
231.0113325598499
 51
472.5574504660082
 73
     1
 72
     2
 10
68.7329513446769
 20
52.33921364791068
 40
2.005
 50
352.2468293487698
 51
391.8805691681211
 73
     0
 72
     2
 10
72.9829513446769
 20
49.69582094155773
 40
2.999999999999992
 50
148.11943083188
 51
180.0
 73
     1
 97
        0
 92
        0
 93
        1
 72
     2
 10
71.8704513446769
 20
49.83921364791058
 40
1.599999999999997
 50
0.0
 51
360.0
 73
     1
 97
        0
 75
     0
 76
     1
 52
0.0
 41
0.25
 77
     0
 78
     1
 53
45.0
 43
0.0
 44
0.0
 45
-0.561266007566822
 46
0.5612660075668221
 79
     0
 98
        1
 10
0.0
 20
0.0
  0
HATCH
  5
220
330
1F
100
AcDbEntity
  8
DIMENSION
 62
     0
100
AcDbHatch
 10
0.0
 20
0.0
 30
0.0
210
0.0
220
0.0
230
1.0
  2
ANSI31
 70
     0
 71
     0
 91
        1
 92
        0
 93
        1
 72
     2
 10
71.8704513446769
 20
49.83921364791058
 40
1.599999999999997
 50
0.0
 51
360.0
 73
     1
 97
        0
 75
     0
 76
     1
 52
0.0
 41
0.25
 77
     0
 78
     1
 53
45.0
 43
0.0
 44
0.0
 45
-0.561266007566822
 46
0.5612660075668221
 79
     0
 98
        1
 10
0.0
 20
0.0
  0
HATCH
  5
221
330
1F
100
AcDbEntity
  8
DIMENSION
 62
     0
100
AcDbHatch
 10
0.0
 20
0.0
 30
0.0
210
0.0
220
0.0
230
1.0
  2
ANSI31
 70
     0
 71
     0
 91
        1
 92
        0
 93
        4
 72
     1
 10
69.98295134467692
 20
34.72671364791056
 11
69.98295134467692
 21
38.72671364791058
 72
     2
 10
65.98295134467692
 20
38.72671364791057
 40
3.999999999999992
 50
0.0000000000007124
 51
38.68218745349031
 73
     0
 72
     2
 10
65.98295134467692
 20
38.72671364791057
 40
3.999999999999992
 50
38.68218745348948
 51
90.0
 73
     0
 72
     1
 10
65.98295134467692
 20
34.72671364791058
 11
69.98295134467692
 21
34.72671364791056
 97
        0
 75
     0
 76
     1
 52
0.0
 41
0.25
 77
     0
 78
     1
 53
45.0
 43
0.0
 44
0.0
 45
-0.561266007566822
 46
0.5612660075668221
 79
     0
 98
        1
 10
0.0
 20
0.0
  0
HATCH
  5
222
330
1F
100
AcDbEntity
  8
DIMENSION
 62
     0
100
AcDbHatch
 10
0.0
 20
0.0
 30
0.0
210
0.0
220
0.0
230
1.0
  2
ANSI31
 70
     0
 71
     0
 91
        1
 92
        0
 93
        4
 72
     2
 10
65.98295134467692
 20
67.95171364791057
 40
3.999999999999999
 50
270.0000000000007
 51
330.0000000000006
 73
     0
 72
     1
 10
69.44705295981466
 20
69.95171364791058
 11
72.3704513446769
 21
69.95171364791058
 72
     1
 10
72.3704513446769
 20
69.95171364791058
 11
72.3704513446769
 21
71.95171364791058
 72
     1
 10
72.3704513446769
 20
71.95171364791058
 11
65.9829513446769
 21
71.95171364791057
 97
        0
 75
     0
 76
     1
 52
0.0
 41
0.25
 77
     0
 78
     1
 53
45.0
 43
0.0
 44
0.0
 45
-0.561266007566822
 46
0.5612660075668221
 79
     0
 98
        1
 10
0.0
 20
0.0
  0
INSERT
  5
22A
330
1F
100
AcDbEntity
  8
DIMENSION
 62
     0
100
AcDbBlockReference
  2
SW_CENTERMARKSYMBOL_0
 10
68.7329513447
 20
57.6617136479
 30
0.0
  0
INSERT
  5
24C
330
1F
100
AcDbEntity
  8
DIMENSION
 62
     0
100
AcDbBlockReference
  2
SW_CENTERMARKSYMBOL_1
 10
53.0079513447
 20
60.2017136479
 30
0.0
  0
LINE
  5
24D
330
1F
100
AcDbEntity
  8
DIMENSION
  6
CENTERX2
 62
     0
100
AcDbLine
 10
56.5929153455
 20
52.3392136479
 30
0.0
 11
65.3204513447
 21
52.3392136479
 31
0.0
  0
ENDSEC
  0
SECTION
  2
OBJECTS
  0
DICTIONARY
  5
C
330
0
100
AcDbDictionary
  3
ACAD_GROUP
350
D
  3
ACAD_IMAGE_VARS
350
26F
  3
ACAD_MLINESTYLE
350
17
  3
ACAD_SCALELIST
350
47
  3
APPDATA
350
26D
  3
DWGPROPS
350
270
  0
DICTIONARY
  5
D
102
{ACAD_REACTORS
330
C
102
}
330
C
100
AcDbDictionary
  0
RASTERVARIABLES
  5
26F
102
{ACAD_REACTORS
330
C
102
}
330
C
100
AcDbRasterVariables
 90
        0
 70
     1
 71
     1
 72
     1
  0
DICTIONARY
  5
17
102
{ACAD_REACTORS
330
C
102
}
330
C
100
AcDbDictionary
  3
STANDARD
350
18
  0
DICTIONARY
  5
47
102
{ACAD_REACTORS
330
C
102
}
330
C
100
AcDbDictionary
  0
DICTIONARY
  5
26D
102
{ACAD_REACTORS
330
C
102
}
330
C
100
AcDbDictionary
  0
XRECORD
  5
270
102
{ACAD_REACTORS
330
C
102
}
330
C
100
AcDbXrecord
  1
DWGPROPS COOKIE
  2

  3

  4

  6

  7

  8
sueh
  9

300
=
301
=
302
=
303
=
304
=
305
=
306
=
307
=
308
=
309
=
 40
0.0
 41
2457134.775171875
 42
2457134.778429097
  1

 90
        0
  0
MLINESTYLE
  5
18
102
{ACAD_REACTORS
330
17
102
}
330
17
100
AcDbMlineStyle
  2
Standard
 70
     0
  3

 62
   256
 51
90.0
 52
90.0
 71
     2
 49
0.5
 62
   256
  6
BYLAYER
 49
-0.5
 62
   256
  6
BYLAYER
  0
ENDSEC
  0
EOF
