  0
SECTION
  2
HEADER
  9
$ACADVER
  1
AC1014
  9
$ACADMAINTVER
 70
     9
  9
$DWGCODEPAGE
  3
ANSI_1252
  9
$INSBASE
 10
0.0
 20
0.0
 30
0.0
  9
$EXTMIN
 10
0.0
 20
0.0
 30
0.0
  9
$EXTMAX
 10
69.85
 20
53.975
 30
0.0
  9
$LIMMIN
 10
0.0
 20
0.0
  9
$LIMMAX
 10
69.85
 20
53.975
  9
$ORTHOMODE
 70
     0
  9
$REGENMODE
 70
     1
  9
$FILLMODE
 70
     1
  9
$QTEXTMODE
 70
     0
  9
$MIRRTEXT
 70
     1
  9
$DRAGMODE
 70
     2
  9
$LTSCALE
 40
0.25
  9
$OSMODE
 70
   511
  9
$ATTMODE
 70
     1
  9
$TEXTSIZE
 40
0.79375
  9
$TRACEWID
 40
1.0
  9
$TEXTSTYLE
  7
STANDARD
  9
$CLAYER
  8
0
  9
$CELTYPE
  6
BYLAYER
  9
$CECOLOR
 62
   256
  9
$CELTSCALE
 40
1.0
  9
$DELOBJ
 70
     1
  9
$DISPSILH
 70
     0
  9
$DIMSCALE
 40
1.0
  9
$DIMASZ
 40
0.5778717041
  9
$DIMEXO
 40
0.3175
  9
$DIMDLI
 40
3.75
  9
$DIMRND
 40
0.0
  9
$DIMDLE
 40
0.0
  9
$DIMEXE
 40
0.79375
  9
$DIMTP
 40
0.0
  9
$DIMTM
 40
0.0
  9
$DIMTXT
 40
0.79375
  9
$DIMCEN
 40
2.5
  9
$DIMTSZ
 40
0.0
  9
$DIMTOL
 70
     0
  9
$DIMLIM
 70
     0
  9
$DIMTIH
 70
     1
  9
$DIMTOH
 70
     1
  9
$DIMSE1
 70
     0
  9
$DIMSE2
 70
     0
  9
$DIMTAD
 70
     0
  9
$DIMZIN
 70
     1
  9
$DIMBLK
  1

  9
$DIMASO
 70
     1
  9
$DIMSHO
 70
     1
  9
$DIMPOST
  1

  9
$DIMAPOST
  1

  9
$DIMALT
 70
     0
  9
$DIMALTD
 70
     3
  9
$DIMALTF
 40
0.0393700787
  9
$DIMLFAC
 40
1.0
  9
$DIMTOFL
 70
     1
  9
$DIMTVP
 40
0.0
  9
$DIMTIX
 70
     0
  9
$DIMSOXD
 70
     0
  9
$DIMSAH
 70
     0
  9
$DIMBLK1
  1

  9
$DIMBLK2
  1

  9
$DIMSTYLE
  2
ISO-25
  9
$DIMCLRD
 70
     0
  9
$DIMCLRE
 70
     0
  9
$DIMCLRT
 70
     0
  9
$DIMTFAC
 40
1.0
  9
$DIMGAP
 40
0.381
  9
$DIMJUST
 70
     0
  9
$DIMSD1
 70
     0
  9
$DIMSD2
 70
     0
  9
$DIMTOLJ
 70
     0
  9
$DIMTZIN
 70
     1
  9
$DIMALTZ
 70
     0
  9
$DIMALTTZ
 70
     0
  9
$DIMFIT
 70
     3
  9
$DIMUPT
 70
     0
  9
$DIMUNIT
 70
     2
  9
$DIMDEC
 70
     3
  9
$DIMTDEC
 70
     3
  9
$DIMALTU
 70
     2
  9
$DIMALTTD
 70
     3
  9
$DIMTXSTY
  7
STANDARD
  9
$DIMAUNIT
 70
     0
  9
$LUNITS
 70
     2
  9
$LUPREC
 70
     4
  9
$SKETCHINC
 40
1.0
  9
$FILLETRAD
 40
10.0
  9
$AUNITS
 70
     0
  9
$AUPREC
 70
     2
  9
$MENU
  1
.
  9
$ELEVATION
 40
0.0
  9
$PELEVATION
 40
0.0
  9
$THICKNESS
 40
0.0
  9
$LIMCHECK
 70
     0
  9
$CHAMFERA
 40
0.0
  9
$CHAMFERB
 40
0.0
  9
$CHAMFERC
 40
0.0
  9
$CHAMFERD
 40
0.0
  9
$SKPOLY
 70
     0
  9
$TDCREATE
 40
2457183.60813662
  9
$TDUPDATE
 40
2457183.608693229
  9
$TDINDWG
 40
0.0003650116
  9
$TDUSRTIMER
 40
2457183.816661713
  9
$USRTIMER
 70
     1
  9
$ANGBASE
 50
0.0
  9
$ANGDIR
 70
     0
  9
$PDMODE
 70
     0
  9
$PDSIZE
 40
-1.0
  9
$PLINEWID
 40
0.0
  9
$COORDS
 70
     1
  9
$SPLFRAME
 70
     0
  9
$SPLINETYPE
 70
     6
  9
$SPLINESEGS
 70
     8
  9
$ATTDIA
 70
     0
  9
$ATTREQ
 70
     1
  9
$HANDLING
 70
     1
  9
$HANDSEED
  5
233
  9
$SURFTAB1
 70
     6
  9
$SURFTAB2
 70
     6
  9
$SURFTYPE
 70
     6
  9
$SURFU
 70
     6
  9
$SURFV
 70
     6
  9
$UCSNAME
  2

  9
$UCSORG
 10
0.0
 20
0.0
 30
0.0
  9
$UCSXDIR
 10
1.0
 20
0.0
 30
0.0
  9
$UCSYDIR
 10
0.0
 20
1.0
 30
0.0
  9
$PUCSNAME
  2

  9
$PUCSORG
 10
0.0
 20
0.0
 30
0.0
  9
$PUCSXDIR
 10
1.0
 20
0.0
 30
0.0
  9
$PUCSYDIR
 10
0.0
 20
1.0
 30
0.0
  9
$USERI1
 70
     0
  9
$USERI2
 70
     0
  9
$USERI3
 70
     0
  9
$USERI4
 70
     0
  9
$USERI5
 70
     0
  9
$USERR1
 40
0.0
  9
$USERR2
 40
0.0
  9
$USERR3
 40
0.0
  9
$USERR4
 40
0.0
  9
$USERR5
 40
0.0
  9
$WORLDVIEW
 70
     1
  9
$SHADEDGE
 70
     3
  9
$SHADEDIF
 70
    70
  9
$TILEMODE
 70
     1
  9
$MAXACTVP
 70
    64
  9
$PINSBASE
 10
0.0
 20
0.0
 30
0.0
  9
$PLIMCHECK
 70
     0
  9
$PEXTMIN
 10
1.000000000000000E+20
 20
1.000000000000000E+20
 30
1.000000000000000E+20
  9
$PEXTMAX
 10
-1.000000000000000E+20
 20
-1.000000000000000E+20
 30
-1.000000000000000E+20
  9
$PLIMMIN
 10
0.0
 20
0.0
  9
$PLIMMAX
 10
0.0
 20
0.0
  9
$UNITMODE
 70
     0
  9
$VISRETAIN
 70
     1
  9
$PLINEGEN
 70
     0
  9
$PSLTSCALE
 70
     1
  9
$TREEDEPTH
 70
  3020
  9
$PICKSTYLE
 70
     0
  9
$CMLSTYLE
  2
STANDARD
  9
$CMLJUST
 70
     0
  9
$CMLSCALE
 40
20.0
  9
$PROXYGRAPHICS
 70
     1
  9
$MEASUREMENT
 70
     1
  0
ENDSEC
  0
SECTION
  2
CLASSES
  0
CLASS
  1
ACDBDICTIONARYWDFLT
  2
AcDbDictionaryWithDefault
  3
ObjectDBX Classes
 90
        0
280
     0
281
     0
  0
CLASS
  1
VISUALSTYLE
  2
AcDbVisualStyle
  3
ObjectDBX Classes
 90
     4095
280
     0
281
     0
  0
CLASS
  1
MATERIAL
  2
AcDbMaterial
  3
ObjectDBX Classes
 90
     1153
280
     0
281
     0
  0
CLASS
  1
SCALE
  2
AcDbScale
  3
ObjectDBX Classes
 90
     1153
280
     0
281
     0
  0
CLASS
  1
SUN
  2
AcDbSun
  3
SCENEOE
 90
     1153
280
     0
281
     0
  0
CLASS
  1
ACDBPLACEHOLDER
  2
AcDbPlaceHolder
  3
ObjectDBX Classes
 90
        0
280
     0
281
     0
  0
CLASS
  1
LAYOUT
  2
AcDbLayout
  3
ObjectDBX Classes
 90
        0
280
     0
281
     0
  0
CLASS
  1
TABLESTYLE
  2
AcDbTableStyle
  3
ObjectDBX Classes
 90
     4095
280
     0
281
     0
  0
CLASS
  1
RASTERVARIABLES
  2
AcDbRasterVariables
  3
ISM
 90
        0
280
     0
281
     0
  0
CLASS
  1
XRECORD
  2
AcDbXrecord
  3
ObjectDBX Classes
 90
        0
280
     0
281
     0
  0
CLASS
  1
LWPOLYLINE
  2
AcDbPolyline
  3
ObjectDBX Classes
 90
        0
280
     0
281
     1
  0
CLASS
  1
HATCH
  2
AcDbHatch
  3
ObjectDBX Classes
 90
        0
280
     0
281
     1
  0
ENDSEC
  0
SECTION
  2
TABLES
  0
TABLE
  2
VPORT
  5
8
330
0
100
AcDbSymbolTable
 70
     1
  0
VPORT
  5
29
330
8
100
AcDbSymbolTableRecord
100
AcDbViewportTableRecord
  2
*ACTIVE
 70
     0
 10
0.0
 20
0.0
 11
1.0
 21
1.0
 12
32.53285355029585
 22
34.67813905325444
 13
0.0
 23
0.0
 14
10.0
 24
10.0
 15
10.0
 25
10.0
 16
0.0
 26
0.0
 36
1.0
 17
0.0
 27
0.0
 37
0.0
 40
34.544
 41
1.92603550295858
 42
50.0
 43
0.0
 44
0.0
 50
0.0
 51
0.0
 71
    16
 72
  2000
 73
     1
 74
     3
 75
     0
 76
     0
 77
     0
 78
     0
  0
ENDTAB
  0
TABLE
  2
LTYPE
  5
5
330
0
100
AcDbSymbolTable
 70
     6
  0
LTYPE
  5
14
330
5
100
AcDbSymbolTableRecord
100
AcDbLinetypeTableRecord
  2
BYBLOCK
 70
     0
  3

 72
    65
 73
     0
 40
0.0
  0
LTYPE
  5
15
330
5
100
AcDbSymbolTableRecord
100
AcDbLinetypeTableRecord
  2
BYLAYER
 70
     0
  3

 72
    65
 73
     0
 40
0.0
  0
LTYPE
  5
16
330
5
100
AcDbSymbolTableRecord
100
AcDbLinetypeTableRecord
  2
CONTINUOUS
 70
     0
  3
Solid line
 72
    65
 73
     0
 40
0.0
  0
LTYPE
  5
6A
330
5
100
AcDbSymbolTableRecord
100
AcDbLinetypeTableRecord
  2
HIDDEN
 70
     0
  3
Hidden __ __ __ __ __ __ __ __ __ __ __ __ __ __
 72
    65
 73
     2
 40
1.905
 49
1.27
 74
     0
 49
-0.635
 74
     0
  0
LTYPE
  5
6B
330
5
100
AcDbSymbolTableRecord
100
AcDbLinetypeTableRecord
  2
PHANTOM
 70
     0
  3
Phantom ______  __  __  ______  __  __  ______
 72
    65
 73
     6
 40
12.7
 49
6.35
 74
     0
 49
-1.27
 74
     0
 49
1.27
 74
     0
 49
-1.27
 74
     0
 49
1.27
 74
     0
 49
-1.27
 74
     0
  0
LTYPE
  5
6C
330
5
100
AcDbSymbolTableRecord
100
AcDbLinetypeTableRecord
  2
CENTER
 70
     0
  3
Center ____ _ ____ _ ____ _ ____ _ ____ _ ____
 72
    65
 73
     4
 40
10.16
 49
6.35
 74
     0
 49
-1.27
 74
     0
 49
1.27
 74
     0
 49
-1.27
 74
     0
  0
LTYPE
  5
6D
330
5
100
AcDbSymbolTableRecord
100
AcDbLinetypeTableRecord
  2
CENTERX2
 70
     0
  3
Center (2x) ________  __  ________  __  _____
 72
    65
 73
     4
 40
20.32
 49
12.7
 74
     0
 49
-2.54
 74
     0
 49
2.54
 74
     0
 49
-2.54
 74
     0
  0
LTYPE
  5
6E
330
5
100
AcDbSymbolTableRecord
100
AcDbLinetypeTableRecord
  2
DOT2
 70
     0
  3
Dot (.5x) ........................................
 72
    65
 73
     2
 40
0.635
 49
0.0
 74
     0
 49
-0.635
 74
     0
  0
ENDTAB
  0
TABLE
  2
LAYER
  5
2
330
0
100
AcDbSymbolTable
 70
     6
  0
LAYER
  5
10
330
2
100
AcDbSymbolTableRecord
100
AcDbLayerTableRecord
  2
0
 70
     0
 62
     7
  6
CONTINUOUS
  0
LAYER
  5
6F
330
2
100
AcDbSymbolTableRecord
100
AcDbLayerTableRecord
  2
FORMAT
 70
     0
 62
     7
  6
CONTINUOUS
  0
LAYER
  5
70
330
2
100
AcDbSymbolTableRecord
100
AcDbLayerTableRecord
  2
NONE
 70
     0
 62
   179
  6
CONTINUOUS
  0
LAYER
  5
71
330
2
100
AcDbSymbolTableRecord
100
AcDbLayerTableRecord
  2
DIMENSION
 70
     0
 62
   179
  6
CONTINUOUS
  0
LAYER
  5
72
330
2
100
AcDbSymbolTableRecord
100
AcDbLayerTableRecord
  2
PAGE_FRAME
 70
     0
 62
   179
  6
CONTINUOUS
  0
LAYER
  5
73
330
2
100
AcDbSymbolTableRecord
100
AcDbLayerTableRecord
  2
LAYOUT
 70
     0
 62
   179
  6
CONTINUOUS
  0
ENDTAB
  0
TABLE
  2
STYLE
  5
3
330
0
100
AcDbSymbolTable
 70
     3
  0
STYLE
  5
11
330
3
100
AcDbSymbolTableRecord
100
AcDbTextStyleTableRecord
  2
STANDARD
 70
     0
 40
0.0
 41
1.0
 50
0.0
 71
     0
 42
0.79375
  3
txt
  4

  0
STYLE
  5
87
330
3
100
AcDbSymbolTableRecord
100
AcDbTextStyleTableRecord
  2
SLDTEXTSTYLE0
 70
     0
 40
0.0
 41
0.605
 50
0.0
 71
     0
 42
0.79375
  3
TXT
  4

  0
STYLE
  5
B1
330
3
100
AcDbSymbolTableRecord
100
AcDbTextStyleTableRecord
  2
SLDTEXTSTYLE1
 70
     0
 40
0.0
 41
0.575
 50
0.0
 71
     0
 42
0.79375
  3
TXT
  4

  0
ENDTAB
  0
TABLE
  2
VIEW
  5
6
330
0
100
AcDbSymbolTable
 70
     0
  0
ENDTAB
  0
TABLE
  2
UCS
  5
7
330
0
100
AcDbSymbolTable
 70
     0
  0
ENDTAB
  0
TABLE
  2
APPID
  5
9
330
0
100
AcDbSymbolTable
 70
     1
  0
APPID
  5
12
330
9
100
AcDbSymbolTableRecord
100
AcDbRegAppTableRecord
  2
ACAD
 70
     0
  0
ENDTAB
  0
TABLE
  2
DIMSTYLE
  5
A
330
0
100
AcDbSymbolTable
 70
     2
  0
DIMSTYLE
105
27
330
A
100
AcDbSymbolTableRecord
100
AcDbDimStyleTableRecord
  2
ISO-25
 70
     0
  3

  4

  5

  6

  7

 40
1.0
 41
2.5
 42
0.625
 43
3.75
 44
1.25
 45
0.0
 46
0.0
 47
0.0
 48
0.0
140
2.5
141
2.5
142
0.0
143
0.0393700787
144
1.0
145
0.0
146
1.0
147
0.625
 71
     0
 72
     0
 73
     0
 74
     0
 75
     0
 76
     0
 77
     1
 78
     8
170
     0
171
     3
172
     1
173
     0
174
     0
175
     0
176
     0
177
     0
178
     0
270
     2
271
     2
272
     2
273
     2
274
     3
340
11
275
     0
280
     0
281
     0
282
     0
283
     0
284
     8
285
     0
286
     0
287
     3
288
     0
  0
DIMSTYLE
105
1E4
330
A
100
AcDbSymbolTableRecord
100
AcDbDimStyleTableRecord
  2
SLDDIMSTYLE0
 70
     0
  3

  4

  5

  6

  7

 40
1.0
 41
0.5778717041
 42
0.0625
 43
0.38
 44
0.0
 45
0.000000001
 46
0.0
 47
0.0
 48
0.0
140
0.18
141
0.09
142
0.0
143
25.4
144
1.0
145
0.0
146
0.5778717041
147
0.0
 71
     0
 72
     0
 73
     1
 74
     1
 75
     0
 76
     0
 77
     0
 78
     0
170
     0
171
     2
172
     0
173
     1
174
     0
175
     0
176
     0
177
     0
178
     0
270
     2
271
     0
272
     0
273
     2
274
     2
340
11
275
     0
280
     0
281
     0
282
     0
283
     1
284
     0
285
     0
286
     0
287
     3
288
     0
  0
ENDTAB
  0
TABLE
  2
BLOCK_RECORD
  5
1
330
0
100
AcDbSymbolTable
 70
     8
  0
BLOCK_RECORD
  5
1F
330
1
100
AcDbSymbolTableRecord
100
AcDbBlockTableRecord
  2
*MODEL_SPACE
  0
BLOCK_RECORD
  5
1B
330
1
100
AcDbSymbolTableRecord
100
AcDbBlockTableRecord
  2
*PAPER_SPACE
  0
BLOCK_RECORD
  5
23
330
1
100
AcDbSymbolTableRecord
100
AcDbBlockTableRecord
  2
*PAPER_SPACE0
  0
BLOCK_RECORD
  5
84
330
1
100
AcDbSymbolTableRecord
100
AcDbBlockTableRecord
  2
SW_NOTE_0
  0
BLOCK_RECORD
  5
8C
330
1
100
AcDbSymbolTableRecord
100
AcDbBlockTableRecord
  2
SW_NOTE_1
  0
BLOCK_RECORD
  5
95
330
1
100
AcDbSymbolTableRecord
100
AcDbBlockTableRecord
  2
SW_NOTE_2
  0
BLOCK_RECORD
  5
9C
330
1
100
AcDbSymbolTableRecord
100
AcDbBlockTableRecord
  2
SW_NOTE_3
  0
BLOCK_RECORD
  5
A8
330
1
100
AcDbSymbolTableRecord
100
AcDbBlockTableRecord
  2
SW_NOTE_4
  0
BLOCK_RECORD
  5
1DE
330
1
100
AcDbSymbolTableRecord
100
AcDbBlockTableRecord
  2
SW_NOTE_5
  0
BLOCK_RECORD
  5
1E6
330
1
100
AcDbSymbolTableRecord
100
AcDbBlockTableRecord
  2
SW_CENTERMARKSYMBOL_0
  0
ENDTAB
  0
ENDSEC
  0
SECTION
  2
BLOCKS
  0
BLOCK
  5
20
330
1F
100
AcDbEntity
  8
0
100
AcDbBlockBegin
  2
*MODEL_SPACE
 70
     0
 10
0.0
 20
0.0
 30
0.0
  3
*MODEL_SPACE
  1

  0
ENDBLK
  5
21
330
1F
100
AcDbEntity
  8
0
100
AcDbBlockEnd
  0
BLOCK
  5
1C
330
1B
100
AcDbEntity
 67
     1
  8
0
100
AcDbBlockBegin
  2
*PAPER_SPACE
 70
     0
 10
0.0
 20
0.0
 30
0.0
  3
*PAPER_SPACE
  1

  0
ENDBLK
  5
1D
330
1B
100
AcDbEntity
 67
     1
  8
0
100
AcDbBlockEnd
  0
BLOCK
  5
24
330
23
100
AcDbEntity
  8
0
100
AcDbBlockBegin
  2
*PAPER_SPACE0
 70
     0
 10
0.0
 20
0.0
 30
0.0
  3
*PAPER_SPACE0
  1
*Paper_Space0
  0
ENDBLK
  5
25
330
23
100
AcDbEntity
  8
0
100
AcDbBlockEnd
  0
BLOCK
  5
85
330
84
100
AcDbEntity
  8
0
100
AcDbBlockBegin
  2
SW_NOTE_0
 70
     0
 10
0.0
 20
0.0
 30
0.0
  3
SW_NOTE_0
  1
SW_NOTE_0
  0
MTEXT
  5
88
330
84
100
AcDbEntity
  8
LAYOUT
 62
     0
100
AcDbMText
 10
0.0
 20
1.0231975184
 30
0.0
 40
0.79375
 41
0.0
 71
     1
 72
     1
  1
NOTE: PAD LAYOUT IS NOT CENTERED
  7
SLDTEXTSTYLE0
  0
MTEXT
  5
89
330
84
100
AcDbEntity
  8
LAYOUT
 62
     0
100
AcDbMText
 10
0.0
 20
-0.0351358021
 30
0.0
 40
0.79375
 41
0.0
 71
     1
 72
     1
  1
IT IS SHIFTED 0.375MM WITH RESPECT
  7
SLDTEXTSTYLE0
  0
MTEXT
  5
8A
330
84
100
AcDbEntity
  8
LAYOUT
 62
     0
100
AcDbMText
 10
0.0
 20
-1.0934691226
 30
0.0
 40
0.79375
 41
0.0
 71
     1
 72
     1
  1
TO THE CENTER OF MOUNTING HOLES
  7
SLDTEXTSTYLE0
  0
ENDBLK
  5
86
330
84
100
AcDbEntity
  8
0
100
AcDbBlockEnd
  0
BLOCK
  5
8D
330
8C
100
AcDbEntity
  8
0
100
AcDbBlockBegin
  2
SW_NOTE_1
 70
     0
 10
0.0
 20
0.0
 30
0.0
  3
SW_NOTE_1
  1
SW_NOTE_1
  0
MTEXT
  5
8F
330
8C
100
AcDbEntity
  8
LAYOUT
 62
     0
100
AcDbMText
 10
0.0
 20
0.9379310586
 30
0.0
 40
0.7276041667
 41
0.0
 71
     1
 72
     1
  1
Target PCB Recommendations
  7
SLDTEXTSTYLE0
  0
MTEXT
  5
90
330
8C
100
AcDbEntity
  8
LAYOUT
 62
     0
100
AcDbMText
 10
0.0
 20
-0.0322078186
 30
0.0
 40
0.7276041667
 41
0.0
 71
     1
 72
     1
  1
Total Thickness: 1.6mm min.
  7
SLDTEXTSTYLE0
  0
MTEXT
  5
91
330
8C
100
AcDbEntity
  8
LAYOUT
 62
     0
100
AcDbMText
 10
0.0
 20
-1.0023466958
 30
0.0
 40
0.7276041667
 41
0.0
 71
     1
 72
     1
  1
Plating: Gold Immersion, Silver Immersion or Solder
  7
SLDTEXTSTYLE0
  0
MTEXT
  5
92
330
8C
100
AcDbEntity
  8
LAYOUT
 62
     0
100
AcDbMText
 10
0.0
 20
-1.9724855729
 30
0.0
 40
0.7276041667
 41
0.0
 71
     1
 72
     1
  1
PCB Pad Height: same or higher than solder mask
  7
SLDTEXTSTYLE0
  0
ENDBLK
  5
8E
330
8C
100
AcDbEntity
  8
0
100
AcDbBlockEnd
  0
BLOCK
  5
96
330
95
100
AcDbEntity
  8
0
100
AcDbBlockBegin
  2
SW_NOTE_2
 70
     0
 10
0.0
 20
0.0
 30
0.0
  3
SW_NOTE_2
  1
SW_NOTE_2
  0
MTEXT
  5
98
330
95
100
AcDbEntity
  8
0
  6
CONTINUOUS
 62
     0
100
AcDbMText
 10
4.0845052083
 20
0.682131679
 30
0.0
 40
0.5291666667
 41
0.0
 71
     2
 72
     1
  1
Ironwood Electronics, Inc.
  7
SLDTEXTSTYLE0
  0
MTEXT
  5
99
330
95
100
AcDbEntity
  8
0
  6
CONTINUOUS
 62
     0
100
AcDbMText
 10
4.0685802452
 20
-0.0234238681
 30
0.0
 40
0.5291666667
 41
0.0
 71
     2
 72
     1
  1
Tele: (800) 404-0204
  7
SLDTEXTSTYLE0
  0
MTEXT
  5
9A
330
95
100
AcDbEntity
  8
0
  6
CONTINUOUS
 62
     0
100
AcDbMText
 10
4.0404079946
 20
-0.7289794151
 30
0.0
 40
0.5291666667
 41
0.0
 71
     2
 72
     1
  1
www.ironwoodelectronics.com
  7
SLDTEXTSTYLE0
  0
ENDBLK
  5
97
330
95
100
AcDbEntity
  8
0
100
AcDbBlockEnd
  0
BLOCK
  5
9D
330
9C
100
AcDbEntity
  8
0
100
AcDbBlockBegin
  2
SW_NOTE_3
 70
     0
 10
0.0
 20
0.0
 30
0.0
  3
SW_NOTE_3
  1
SW_NOTE_3
  0
MTEXT
  5
9F
330
9C
100
AcDbEntity
  8
0
  6
CONTINUOUS
 62
     0
100
AcDbMText
 10
0.0
 20
0.5115987592
 30
0.0
 40
0.396875
 41
0.0
 71
     1
 72
     1
  1
\LTolerances:
  7
SLDTEXTSTYLE0
  0
MTEXT
  5
A0
330
9C
100
AcDbEntity
  8
0
  6
CONTINUOUS
 62
     0
100
AcDbMText
 10
2.9122540563
 20
0.5115987592
 30
0.0
 40
0.396875
 41
0.0
 71
     1
 72
     1
  1
Hole diameters ±0.03mm [±0.001"], Pitches (from true position) ±0.025mm [±0.001"], substrate thickness tolerance ±10%, all
  7
SLDTEXTSTYLE0
  0
MTEXT
  5
A1
330
9C
100
AcDbEntity
  8
0
  6
CONTINUOUS
 62
     0
100
AcDbMText
 10
0.0
 20
-0.017567901
 30
0.0
 40
0.396875
 41
0.0
 71
     1
 72
     1
  1
other tolerances ±0.13mm [±0.005"] unless stated otherwise.  Materials and specifications are subject to change without notice.
  7
SLDTEXTSTYLE0
  0
ENDBLK
  5
9E
330
9C
100
AcDbEntity
  8
0
100
AcDbBlockEnd
  0
BLOCK
  5
A9
330
A8
100
AcDbEntity
  8
0
100
AcDbBlockBegin
  2
SW_NOTE_4
 70
     0
 10
0.0
 20
0.0
 30
0.0
  3
SW_NOTE_4
  1
SW_NOTE_4
  0
MTEXT
  5
AB
330
A8
100
AcDbEntity
  8
0
  6
CONTINUOUS
 62
     0
100
AcDbMText
 10
0.0
 20
0.7673981388
 30
0.0
 40
0.5953125
 41
0.0
 71
     1
 72
     1
  1
Material: N/A
  7
SLDTEXTSTYLE0
  0
MTEXT
  5
AC
330
A8
100
AcDbEntity
  8
0
  6
CONTINUOUS
 62
     0
100
AcDbMText
 10
0.0
 20
-0.0263518516
 30
0.0
 40
0.5953125
 41
0.0
 71
     1
 72
     1
  1
Finish: N/A
  7
SLDTEXTSTYLE0
  0
MTEXT
  5
AD
330
A8
100
AcDbEntity
  8
0
  6
CONTINUOUS
 62
     0
100
AcDbMText
 10
0.0
 20
-0.820101842
 30
0.0
 40
0.5953125
 41
0.0
 71
     1
 72
     1
  1
Weight: 23.52
  7
SLDTEXTSTYLE0
  0
ENDBLK
  5
AA
330
A8
100
AcDbEntity
  8
0
100
AcDbBlockEnd
  0
BLOCK
  5
1DF
330
1DE
100
AcDbEntity
  8
0
100
AcDbBlockBegin
  2
SW_NOTE_5
 70
     0
 10
0.0
 20
0.0
 30
0.0
  3
SW_NOTE_5
  1
SW_NOTE_5
  0
MTEXT
  5
1E1
330
1DE
100
AcDbEntity
  8
LAYOUT
 62
     0
100
AcDbMText
 10
-7.1226734077
 20
1.102246326
 30
0.0
 40
0.5953125
 41
0.0
 71
     1
 72
     1
  1
A1  CORNER MARK
  7
SLDTEXTSTYLE0
  0
MTEXT
  5
1E2
330
1DE
100
AcDbEntity
  8
LAYOUT
 62
     0
100
AcDbMText
 10
-7.1226734077
 20
0.3084963356
 30
0.0
 40
0.5953125
 41
0.0
 71
     1
 72
     1
  1
ON SOCKET BASE
  7
SLDTEXTSTYLE0
  0
ENDBLK
  5
1E0
330
1DE
100
AcDbEntity
  8
0
100
AcDbBlockEnd
  0
BLOCK
  5
1E7
330
1E6
100
AcDbEntity
  8
0
100
AcDbBlockBegin
  2
SW_CENTERMARKSYMBOL_0
 70
     0
 10
0.0
 20
0.0
 30
0.0
  3
SW_CENTERMARKSYMBOL_0
  1
SW_CENTERMARKSYMBOL_0
  0
LINE
  5
1E9
330
1E6
100
AcDbEntity
  8
LAYOUT
 62
     0
100
AcDbLine
 10
0.0
 20
0.0
 30
0.0
 11
-0.5
 21
0.0
 31
0.0
  0
LINE
  5
1EA
330
1E6
100
AcDbEntity
  8
LAYOUT
 62
     0
100
AcDbLine
 10
0.0
 20
0.0
 30
0.0
 11
0.0
 21
-0.5
 31
0.0
  0
LINE
  5
1EB
330
1E6
100
AcDbEntity
  8
LAYOUT
 62
     0
100
AcDbLine
 10
0.0
 20
0.0
 30
0.0
 11
0.5
 21
0.0
 31
0.0
  0
LINE
  5
1EC
330
1E6
100
AcDbEntity
  8
LAYOUT
 62
     0
100
AcDbLine
 10
0.0
 20
0.0
 30
0.0
 11
0.0
 21
0.5
 31
0.0
  0
LINE
  5
1ED
330
1E6
100
AcDbEntity
  8
LAYOUT
 62
     0
100
AcDbLine
 10
0.0
 20
14.645
 30
0.0
 11
-0.5
 21
14.645
 31
0.0
  0
LINE
  5
1EE
330
1E6
100
AcDbEntity
  8
LAYOUT
 62
     0
100
AcDbLine
 10
0.0
 20
14.645
 30
0.0
 11
0.0
 21
14.145
 31
0.0
  0
LINE
  5
1EF
330
1E6
100
AcDbEntity
  8
LAYOUT
 62
     0
100
AcDbLine
 10
0.0
 20
14.645
 30
0.0
 11
0.5
 21
14.645
 31
0.0
  0
LINE
  5
1F0
330
1E6
100
AcDbEntity
  8
LAYOUT
 62
     0
100
AcDbLine
 10
0.0
 20
14.645
 30
0.0
 11
0.0
 21
15.145
 31
0.0
  0
LINE
  5
1F1
330
1E6
100
AcDbEntity
  8
LAYOUT
 62
     0
100
AcDbLine
 10
19.725
 20
12.105
 30
0.0
 11
19.225
 21
12.105
 31
0.0
  0
LINE
  5
1F2
330
1E6
100
AcDbEntity
  8
LAYOUT
 62
     0
100
AcDbLine
 10
19.725
 20
12.105
 30
0.0
 11
19.725
 21
11.605
 31
0.0
  0
LINE
  5
1F3
330
1E6
100
AcDbEntity
  8
LAYOUT
 62
     0
100
AcDbLine
 10
19.725
 20
12.105
 30
0.0
 11
20.225
 21
12.105
 31
0.0
  0
LINE
  5
1F4
330
1E6
100
AcDbEntity
  8
LAYOUT
 62
     0
100
AcDbLine
 10
19.725
 20
12.105
 30
0.0
 11
19.725
 21
12.605
 31
0.0
  0
LINE
  5
1F5
330
1E6
100
AcDbEntity
  8
LAYOUT
 62
     0
100
AcDbLine
 10
19.725
 20
14.645
 30
0.0
 11
19.225
 21
14.645
 31
0.0
  0
LINE
  5
1F6
330
1E6
100
AcDbEntity
  8
LAYOUT
 62
     0
100
AcDbLine
 10
19.725
 20
14.645
 30
0.0
 11
19.725
 21
14.145
 31
0.0
  0
LINE
  5
1F7
330
1E6
100
AcDbEntity
  8
LAYOUT
 62
     0
100
AcDbLine
 10
19.725
 20
14.645
 30
0.0
 11
20.225
 21
14.645
 31
0.0
  0
LINE
  5
1F8
330
1E6
100
AcDbEntity
  8
LAYOUT
 62
     0
100
AcDbLine
 10
19.725
 20
14.645
 30
0.0
 11
19.725
 21
15.145
 31
0.0
  0
LINE
  5
1F9
330
1E6
100
AcDbEntity
  8
LAYOUT
 62
     0
100
AcDbLine
 10
0.0
 20
-5.08
 30
0.0
 11
-0.5
 21
-5.08
 31
0.0
  0
LINE
  5
1FA
330
1E6
100
AcDbEntity
  8
LAYOUT
 62
     0
100
AcDbLine
 10
0.0
 20
-5.08
 30
0.0
 11
0.0
 21
-5.58
 31
0.0
  0
LINE
  5
1FB
330
1E6
100
AcDbEntity
  8
LAYOUT
 62
     0
100
AcDbLine
 10
0.0
 20
-5.08
 30
0.0
 11
0.5
 21
-5.08
 31
0.0
  0
LINE
  5
1FC
330
1E6
100
AcDbEntity
  8
LAYOUT
 62
     0
100
AcDbLine
 10
0.0
 20
-5.08
 30
0.0
 11
0.0
 21
-4.58
 31
0.0
  0
LINE
  5
1FD
330
1E6
100
AcDbEntity
  8
LAYOUT
 62
     0
100
AcDbLine
 10
11.7375
 20
-2.7175
 30
0.0
 11
11.2375
 21
-2.7175
 31
0.0
  0
LINE
  5
1FE
330
1E6
100
AcDbEntity
  8
LAYOUT
 62
     0
100
AcDbLine
 10
11.7375
 20
-2.7175
 30
0.0
 11
11.7375
 21
-3.2175
 31
0.0
  0
LINE
  5
1FF
330
1E6
100
AcDbEntity
  8
LAYOUT
 62
     0
100
AcDbLine
 10
11.7375
 20
-2.7175
 30
0.0
 11
12.2375
 21
-2.7175
 31
0.0
  0
LINE
  5
200
330
1E6
100
AcDbEntity
  8
LAYOUT
 62
     0
100
AcDbLine
 10
11.7375
 20
-2.7175
 30
0.0
 11
11.7375
 21
-2.2175
 31
0.0
  0
LINE
  5
201
330
1E6
100
AcDbEntity
  8
LAYOUT
 62
     0
100
AcDbLine
 10
12.7375
 20
-2.7175
 30
0.0
 11
12.2375
 21
-2.7175
 31
0.0
  0
LINE
  5
202
330
1E6
100
AcDbEntity
  8
LAYOUT
 62
     0
100
AcDbLine
 10
12.7375
 20
-2.7175
 30
0.0
 11
12.7375
 21
-3.2175
 31
0.0
  0
LINE
  5
203
330
1E6
100
AcDbEntity
  8
LAYOUT
 62
     0
100
AcDbLine
 10
12.7375
 20
-2.7175
 30
0.0
 11
13.2375
 21
-2.7175
 31
0.0
  0
LINE
  5
204
330
1E6
100
AcDbEntity
  8
LAYOUT
 62
     0
100
AcDbLine
 10
12.7375
 20
-2.7175
 30
0.0
 11
12.7375
 21
-2.2175
 31
0.0
  0
LINE
  5
205
330
1E6
100
AcDbEntity
  8
LAYOUT
 62
     0
100
AcDbLine
 10
17.7375
 20
-1.7175
 30
0.0
 11
17.2375
 21
-1.7175
 31
0.0
  0
LINE
  5
206
330
1E6
100
AcDbEntity
  8
LAYOUT
 62
     0
100
AcDbLine
 10
17.7375
 20
-1.7175
 30
0.0
 11
17.7375
 21
-2.2175
 31
0.0
  0
LINE
  5
207
330
1E6
100
AcDbEntity
  8
LAYOUT
 62
     0
100
AcDbLine
 10
17.7375
 20
-1.7175
 30
0.0
 11
18.2375
 21
-1.7175
 31
0.0
  0
LINE
  5
208
330
1E6
100
AcDbEntity
  8
LAYOUT
 62
     0
100
AcDbLine
 10
17.7375
 20
-1.7175
 30
0.0
 11
17.7375
 21
-1.2175
 31
0.0
  0
LINE
  5
209
330
1E6
100
AcDbEntity
  8
LAYOUT
 62
     0
100
AcDbLine
 10
17.7375
 20
-0.7175
 30
0.0
 11
17.2375
 21
-0.7175
 31
0.0
  0
LINE
  5
20A
330
1E6
100
AcDbEntity
  8
LAYOUT
 62
     0
100
AcDbLine
 10
17.7375
 20
-0.7175
 30
0.0
 11
17.7375
 21
-1.2175
 31
0.0
  0
LINE
  5
20B
330
1E6
100
AcDbEntity
  8
LAYOUT
 62
     0
100
AcDbLine
 10
17.7375
 20
-0.7175
 30
0.0
 11
18.2375
 21
-0.7175
 31
0.0
  0
LINE
  5
20C
330
1E6
100
AcDbEntity
  8
LAYOUT
 62
     0
100
AcDbLine
 10
17.7375
 20
-0.7175
 30
0.0
 11
17.7375
 21
-0.2175
 31
0.0
  0
ENDBLK
  5
1E8
330
1E6
100
AcDbEntity
  8
0
100
AcDbBlockEnd
  0
ENDSEC
  0
SECTION
  2
ENTITIES
  0
LINE
  5
B6
330
1F
100
AcDbEntity
  8
0
  6
CONTINUOUS
 62
     7
100
AcDbLine
 10
23.2790993577
 20
20.7201103866
 30
0.0
 11
48.0040988004
 21
20.7201103866
 31
0.0
  0
LINE
  5
B7
330
1F
100
AcDbEntity
  8
0
  6
CONTINUOUS
 62
     7
100
AcDbLine
 10
23.2790993577
 20
45.4451098293
 30
0.0
 11
23.2790993577
 21
20.7201103866
 31
0.0
  0
LINE
  5
B8
330
1F
100
AcDbEntity
  8
0
  6
CONTINUOUS
 62
     7
100
AcDbLine
 10
48.0040988004
 20
45.4451098293
 30
0.0
 11
23.2790993577
 21
45.4451098293
 31
0.0
  0
LINE
  5
B9
330
1F
100
AcDbEntity
  8
0
  6
CONTINUOUS
 62
     7
100
AcDbLine
 10
48.0040988004
 20
20.7201103866
 30
0.0
 11
48.0040988004
 21
45.4451098293
 31
0.0
  0
CIRCLE
  5
BA
330
1F
100
AcDbEntity
  8
0
  6
CONTINUOUS
 62
     7
100
AcDbCircle
 10
32.5165990791
 20
33.5826101079
 30
0.0
 40
0.2150000000000034
  0
CIRCLE
  5
BB
330
1F
100
AcDbEntity
  8
0
  6
CONTINUOUS
 62
     7
100
AcDbCircle
 10
33.5165990791
 20
33.5826101079
 30
0.0
 40
0.2150000000000034
  0
CIRCLE
  5
BC
330
1F
100
AcDbEntity
  8
0
  6
CONTINUOUS
 62
     7
100
AcDbCircle
 10
34.5165990791
 20
33.5826101079
 30
0.0
 40
0.2150000000000034
  0
CIRCLE
  5
BD
330
1F
100
AcDbEntity
  8
0
  6
CONTINUOUS
 62
     7
100
AcDbCircle
 10
35.5165990791
 20
33.5826101079
 30
0.0
 40
0.2150000000000034
  0
CIRCLE
  5
BE
330
1F
100
AcDbEntity
  8
0
  6
CONTINUOUS
 62
     7
100
AcDbCircle
 10
36.5165990791
 20
33.5826101079
 30
0.0
 40
0.2150000000000034
  0
CIRCLE
  5
BF
330
1F
100
AcDbEntity
  8
0
  6
CONTINUOUS
 62
     7
100
AcDbCircle
 10
37.5165990791
 20
33.5826101079
 30
0.0
 40
0.2150000000000034
  0
CIRCLE
  5
C0
330
1F
100
AcDbEntity
  8
0
  6
CONTINUOUS
 62
     7
100
AcDbCircle
 10
38.5165990791
 20
33.5826101079
 30
0.0
 40
0.2150000000000034
  0
CIRCLE
  5
C1
330
1F
100
AcDbEntity
  8
0
  6
CONTINUOUS
 62
     7
100
AcDbCircle
 10
39.5165990791
 20
33.5826101079
 30
0.0
 40
0.2150000000000034
  0
CIRCLE
  5
C2
330
1F
100
AcDbEntity
  8
0
  6
CONTINUOUS
 62
     7
100
AcDbCircle
 10
40.5165990791
 20
33.5826101079
 30
0.0
 40
0.2150000000000034
  0
CIRCLE
  5
C3
330
1F
100
AcDbEntity
  8
0
  6
CONTINUOUS
 62
     7
100
AcDbCircle
 10
41.5165990791
 20
33.5826101079
 30
0.0
 40
0.2150000000000034
  0
CIRCLE
  5
C4
330
1F
100
AcDbEntity
  8
0
  6
CONTINUOUS
 62
     7
100
AcDbCircle
 10
42.5165990791
 20
33.5826101079
 30
0.0
 40
0.2150000000000034
  0
CIRCLE
  5
C5
330
1F
100
AcDbEntity
  8
0
  6
CONTINUOUS
 62
     7
100
AcDbCircle
 10
43.5165990791
 20
33.5826101079
 30
0.0
 40
0.2150000000000034
  0
CIRCLE
  5
C6
330
1F
100
AcDbEntity
  8
0
  6
CONTINUOUS
 62
     7
100
AcDbCircle
 10
28.5165990791
 20
32.5826101079
 30
0.0
 40
0.2150000000000034
  0
CIRCLE
  5
C7
330
1F
100
AcDbEntity
  8
0
  6
CONTINUOUS
 62
     7
100
AcDbCircle
 10
29.5165990791
 20
32.5826101079
 30
0.0
 40
0.2150000000000034
  0
CIRCLE
  5
C8
330
1F
100
AcDbEntity
  8
0
  6
CONTINUOUS
 62
     7
100
AcDbCircle
 10
30.5165990791
 20
32.5826101079
 30
0.0
 40
0.2150000000000034
  0
CIRCLE
  5
C9
330
1F
100
AcDbEntity
  8
0
  6
CONTINUOUS
 62
     7
100
AcDbCircle
 10
31.5165990791
 20
32.5826101079
 30
0.0
 40
0.2150000000000034
  0
CIRCLE
  5
CA
330
1F
100
AcDbEntity
  8
0
  6
CONTINUOUS
 62
     7
100
AcDbCircle
 10
32.5165990791
 20
32.5826101079
 30
0.0
 40
0.2150000000000034
  0
CIRCLE
  5
CB
330
1F
100
AcDbEntity
  8
0
  6
CONTINUOUS
 62
     7
100
AcDbCircle
 10
33.5165990791
 20
32.5826101079
 30
0.0
 40
0.2150000000000034
  0
CIRCLE
  5
CC
330
1F
100
AcDbEntity
  8
0
  6
CONTINUOUS
 62
     7
100
AcDbCircle
 10
34.5165990791
 20
32.5826101079
 30
0.0
 40
0.2150000000000034
  0
CIRCLE
  5
CD
330
1F
100
AcDbEntity
  8
0
  6
CONTINUOUS
 62
     7
100
AcDbCircle
 10
35.5165990791
 20
32.5826101079
 30
0.0
 40
0.2150000000000034
  0
CIRCLE
  5
CE
330
1F
100
AcDbEntity
  8
0
  6
CONTINUOUS
 62
     7
100
AcDbCircle
 10
36.5165990791
 20
32.5826101079
 30
0.0
 40
0.2150000000000034
  0
CIRCLE
  5
CF
330
1F
100
AcDbEntity
  8
0
  6
CONTINUOUS
 62
     7
100
AcDbCircle
 10
37.5165990791
 20
32.5826101079
 30
0.0
 40
0.2150000000000034
  0
CIRCLE
  5
D0
330
1F
100
AcDbEntity
  8
0
  6
CONTINUOUS
 62
     7
100
AcDbCircle
 10
38.5165990791
 20
32.5826101079
 30
0.0
 40
0.2150000000000034
  0
CIRCLE
  5
D1
330
1F
100
AcDbEntity
  8
0
  6
CONTINUOUS
 62
     7
100
AcDbCircle
 10
39.5165990791
 20
32.5826101079
 30
0.0
 40
0.2150000000000034
  0
CIRCLE
  5
D2
330
1F
100
AcDbEntity
  8
0
  6
CONTINUOUS
 62
     7
100
AcDbCircle
 10
28.5165990791
 20
40.5826101079
 30
0.0
 40
0.2150000000000034
  0
CIRCLE
  5
D3
330
1F
100
AcDbEntity
  8
0
  6
CONTINUOUS
 62
     7
100
AcDbCircle
 10
29.5165990791
 20
40.5826101079
 30
0.0
 40
0.2150000000000034
  0
CIRCLE
  5
D4
330
1F
100
AcDbEntity
  8
0
  6
CONTINUOUS
 62
     7
100
AcDbCircle
 10
30.5165990791
 20
40.5826101079
 30
0.0
 40
0.2150000000000034
  0
CIRCLE
  5
D5
330
1F
100
AcDbEntity
  8
0
  6
CONTINUOUS
 62
     7
100
AcDbCircle
 10
31.5165990791
 20
40.5826101079
 30
0.0
 40
0.2150000000000034
  0
CIRCLE
  5
D6
330
1F
100
AcDbEntity
  8
0
  6
CONTINUOUS
 62
     7
100
AcDbCircle
 10
32.5165990791
 20
40.5826101079
 30
0.0
 40
0.2150000000000034
  0
CIRCLE
  5
D7
330
1F
100
AcDbEntity
  8
0
  6
CONTINUOUS
 62
     7
100
AcDbCircle
 10
33.5165990791
 20
40.5826101079
 30
0.0
 40
0.2150000000000034
  0
CIRCLE
  5
D8
330
1F
100
AcDbEntity
  8
0
  6
CONTINUOUS
 62
     7
100
AcDbCircle
 10
34.5165990791
 20
40.5826101079
 30
0.0
 40
0.2150000000000034
  0
CIRCLE
  5
D9
330
1F
100
AcDbEntity
  8
0
  6
CONTINUOUS
 62
     7
100
AcDbCircle
 10
35.5165990791
 20
40.5826101079
 30
0.0
 40
0.2150000000000034
  0
CIRCLE
  5
DA
330
1F
100
AcDbEntity
  8
0
  6
CONTINUOUS
 62
     7
100
AcDbCircle
 10
36.5165990791
 20
40.5826101079
 30
0.0
 40
0.2150000000000034
  0
CIRCLE
  5
DB
330
1F
100
AcDbEntity
  8
0
  6
CONTINUOUS
 62
     7
100
AcDbCircle
 10
37.5165990791
 20
40.5826101079
 30
0.0
 40
0.2150000000000034
  0
CIRCLE
  5
DC
330
1F
100
AcDbEntity
  8
0
  6
CONTINUOUS
 62
     7
100
AcDbCircle
 10
38.5165990791
 20
40.5826101079
 30
0.0
 40
0.2150000000000034
  0
CIRCLE
  5
DD
330
1F
100
AcDbEntity
  8
0
  6
CONTINUOUS
 62
     7
100
AcDbCircle
 10
39.5165990791
 20
40.5826101079
 30
0.0
 40
0.2150000000000034
  0
CIRCLE
  5
DE
330
1F
100
AcDbEntity
  8
0
  6
CONTINUOUS
 62
     7
100
AcDbCircle
 10
40.5165990791
 20
40.5826101079
 30
0.0
 40
0.2150000000000034
  0
CIRCLE
  5
DF
330
1F
100
AcDbEntity
  8
0
  6
CONTINUOUS
 62
     7
100
AcDbCircle
 10
41.5165990791
 20
40.5826101079
 30
0.0
 40
0.2150000000000034
  0
CIRCLE
  5
E0
330
1F
100
AcDbEntity
  8
0
  6
CONTINUOUS
 62
     7
100
AcDbCircle
 10
42.5165990791
 20
40.5826101079
 30
0.0
 40
0.2150000000000034
  0
CIRCLE
  5
E1
330
1F
100
AcDbEntity
  8
0
  6
CONTINUOUS
 62
     7
100
AcDbCircle
 10
43.5165990791
 20
40.5826101079
 30
0.0
 40
0.2150000000000034
  0
CIRCLE
  5
E2
330
1F
100
AcDbEntity
  8
0
  6
CONTINUOUS
 62
     7
100
AcDbCircle
 10
28.5165990791
 20
39.5826101079
 30
0.0
 40
0.2150000000000034
  0
CIRCLE
  5
E3
330
1F
100
AcDbEntity
  8
0
  6
CONTINUOUS
 62
     7
100
AcDbCircle
 10
29.5165990791
 20
39.5826101079
 30
0.0
 40
0.2150000000000034
  0
CIRCLE
  5
E4
330
1F
100
AcDbEntity
  8
0
  6
CONTINUOUS
 62
     7
100
AcDbCircle
 10
30.5165990791
 20
39.5826101079
 30
0.0
 40
0.2150000000000034
  0
CIRCLE
  5
E5
330
1F
100
AcDbEntity
  8
0
  6
CONTINUOUS
 62
     7
100
AcDbCircle
 10
31.5165990791
 20
39.5826101079
 30
0.0
 40
0.2150000000000034
  0
CIRCLE
  5
E6
330
1F
100
AcDbEntity
  8
0
  6
CONTINUOUS
 62
     7
100
AcDbCircle
 10
32.5165990791
 20
39.5826101079
 30
0.0
 40
0.2150000000000034
  0
CIRCLE
  5
E7
330
1F
100
AcDbEntity
  8
0
  6
CONTINUOUS
 62
     7
100
AcDbCircle
 10
33.5165990791
 20
39.5826101079
 30
0.0
 40
0.2150000000000034
  0
CIRCLE
  5
E8
330
1F
100
AcDbEntity
  8
0
  6
CONTINUOUS
 62
     7
100
AcDbCircle
 10
34.5165990791
 20
39.5826101079
 30
0.0
 40
0.2150000000000034
  0
CIRCLE
  5
E9
330
1F
100
AcDbEntity
  8
0
  6
CONTINUOUS
 62
     7
100
AcDbCircle
 10
35.5165990791
 20
39.5826101079
 30
0.0
 40
0.2150000000000034
  0
CIRCLE
  5
EA
330
1F
100
AcDbEntity
  8
0
  6
CONTINUOUS
 62
     7
100
AcDbCircle
 10
36.5165990791
 20
39.5826101079
 30
0.0
 40
0.2150000000000034
  0
CIRCLE
  5
EB
330
1F
100
AcDbEntity
  8
0
  6
CONTINUOUS
 62
     7
100
AcDbCircle
 10
37.5165990791
 20
39.5826101079
 30
0.0
 40
0.2150000000000034
  0
CIRCLE
  5
EC
330
1F
100
AcDbEntity
  8
0
  6
CONTINUOUS
 62
     7
100
AcDbCircle
 10
38.5165990791
 20
39.5826101079
 30
0.0
 40
0.2150000000000034
  0
CIRCLE
  5
ED
330
1F
100
AcDbEntity
  8
0
  6
CONTINUOUS
 62
     7
100
AcDbCircle
 10
39.5165990791
 20
39.5826101079
 30
0.0
 40
0.2150000000000034
  0
CIRCLE
  5
EE
330
1F
100
AcDbEntity
  8
0
  6
CONTINUOUS
 62
     7
100
AcDbCircle
 10
40.5165990791
 20
39.5826101079
 30
0.0
 40
0.2150000000000034
  0
CIRCLE
  5
EF
330
1F
100
AcDbEntity
  8
0
  6
CONTINUOUS
 62
     7
100
AcDbCircle
 10
41.5165990791
 20
39.5826101079
 30
0.0
 40
0.2150000000000034
  0
CIRCLE
  5
F0
330
1F
100
AcDbEntity
  8
0
  6
CONTINUOUS
 62
     7
100
AcDbCircle
 10
42.5165990791
 20
39.5826101079
 30
0.0
 40
0.2150000000000034
  0
CIRCLE
  5
F1
330
1F
100
AcDbEntity
  8
0
  6
CONTINUOUS
 62
     7
100
AcDbCircle
 10
43.5165990791
 20
39.5826101079
 30
0.0
 40
0.2150000000000034
  0
CIRCLE
  5
F2
330
1F
100
AcDbEntity
  8
0
  6
CONTINUOUS
 62
     7
100
AcDbCircle
 10
28.5165990791
 20
38.5826101079
 30
0.0
 40
0.2149999999999892
  0
CIRCLE
  5
F3
330
1F
100
AcDbEntity
  8
0
  6
CONTINUOUS
 62
     7
100
AcDbCircle
 10
29.5165990791
 20
38.5826101079
 30
0.0
 40
0.2149999999999892
  0
CIRCLE
  5
F4
330
1F
100
AcDbEntity
  8
0
  6
CONTINUOUS
 62
     7
100
AcDbCircle
 10
30.5165990791
 20
38.5826101079
 30
0.0
 40
0.2149999999999892
  0
CIRCLE
  5
F5
330
1F
100
AcDbEntity
  8
0
  6
CONTINUOUS
 62
     7
100
AcDbCircle
 10
31.5165990791
 20
38.5826101079
 30
0.0
 40
0.2149999999999892
  0
CIRCLE
  5
F6
330
1F
100
AcDbEntity
  8
0
  6
CONTINUOUS
 62
     7
100
AcDbCircle
 10
32.5165990791
 20
38.5826101079
 30
0.0
 40
0.2149999999999892
  0
CIRCLE
  5
F7
330
1F
100
AcDbEntity
  8
0
  6
CONTINUOUS
 62
     7
100
AcDbCircle
 10
33.5165990791
 20
38.5826101079
 30
0.0
 40
0.2149999999999892
  0
CIRCLE
  5
F8
330
1F
100
AcDbEntity
  8
0
  6
CONTINUOUS
 62
     7
100
AcDbCircle
 10
34.5165990791
 20
38.5826101079
 30
0.0
 40
0.2149999999999892
  0
CIRCLE
  5
F9
330
1F
100
AcDbEntity
  8
0
  6
CONTINUOUS
 62
     7
100
AcDbCircle
 10
35.5165990791
 20
38.5826101079
 30
0.0
 40
0.2149999999999892
  0
CIRCLE
  5
FA
330
1F
100
AcDbEntity
  8
0
  6
CONTINUOUS
 62
     7
100
AcDbCircle
 10
36.5165990791
 20
38.5826101079
 30
0.0
 40
0.2149999999999892
  0
CIRCLE
  5
FB
330
1F
100
AcDbEntity
  8
0
  6
CONTINUOUS
 62
     7
100
AcDbCircle
 10
37.5165990791
 20
38.5826101079
 30
0.0
 40
0.2149999999999892
  0
CIRCLE
  5
FC
330
1F
100
AcDbEntity
  8
0
  6
CONTINUOUS
 62
     7
100
AcDbCircle
 10
38.5165990791
 20
38.5826101079
 30
0.0
 40
0.2149999999999892
  0
CIRCLE
  5
FD
330
1F
100
AcDbEntity
  8
0
  6
CONTINUOUS
 62
     7
100
AcDbCircle
 10
39.5165990791
 20
38.5826101079
 30
0.0
 40
0.2149999999999892
  0
CIRCLE
  5
FE
330
1F
100
AcDbEntity
  8
0
  6
CONTINUOUS
 62
     7
100
AcDbCircle
 10
40.5165990791
 20
38.5826101079
 30
0.0
 40
0.2149999999999892
  0
CIRCLE
  5
FF
330
1F
100
AcDbEntity
  8
0
  6
CONTINUOUS
 62
     7
100
AcDbCircle
 10
41.5165990791
 20
38.5826101079
 30
0.0
 40
0.2149999999999892
  0
CIRCLE
  5
100
330
1F
100
AcDbEntity
  8
0
  6
CONTINUOUS
 62
     7
100
AcDbCircle
 10
42.5165990791
 20
38.5826101079
 30
0.0
 40
0.2149999999999892
  0
CIRCLE
  5
101
330
1F
100
AcDbEntity
  8
0
  6
CONTINUOUS
 62
     7
100
AcDbCircle
 10
43.5165990791
 20
38.5826101079
 30
0.0
 40
0.2149999999999892
  0
CIRCLE
  5
102
330
1F
100
AcDbEntity
  8
0
  6
CONTINUOUS
 62
     7
100
AcDbCircle
 10
28.5165990791
 20
37.5826101079
 30
0.0
 40
0.2149999999999963
  0
CIRCLE
  5
103
330
1F
100
AcDbEntity
  8
0
  6
CONTINUOUS
 62
     7
100
AcDbCircle
 10
29.5165990791
 20
37.5826101079
 30
0.0
 40
0.2149999999999963
  0
CIRCLE
  5
104
330
1F
100
AcDbEntity
  8
0
  6
CONTINUOUS
 62
     7
100
AcDbCircle
 10
30.5165990791
 20
37.5826101079
 30
0.0
 40
0.2149999999999963
  0
CIRCLE
  5
105
330
1F
100
AcDbEntity
  8
0
  6
CONTINUOUS
 62
     7
100
AcDbCircle
 10
31.5165990791
 20
37.5826101079
 30
0.0
 40
0.2149999999999963
  0
CIRCLE
  5
106
330
1F
100
AcDbEntity
  8
0
  6
CONTINUOUS
 62
     7
100
AcDbCircle
 10
32.5165990791
 20
37.5826101079
 30
0.0
 40
0.2149999999999963
  0
CIRCLE
  5
107
330
1F
100
AcDbEntity
  8
0
  6
CONTINUOUS
 62
     7
100
AcDbCircle
 10
33.5165990791
 20
37.5826101079
 30
0.0
 40
0.2149999999999963
  0
CIRCLE
  5
108
330
1F
100
AcDbEntity
  8
0
  6
CONTINUOUS
 62
     7
100
AcDbCircle
 10
34.5165990791
 20
37.5826101079
 30
0.0
 40
0.2149999999999963
  0
CIRCLE
  5
109
330
1F
100
AcDbEntity
  8
0
  6
CONTINUOUS
 62
     7
100
AcDbCircle
 10
35.5165990791
 20
37.5826101079
 30
0.0
 40
0.2149999999999963
  0
CIRCLE
  5
10A
330
1F
100
AcDbEntity
  8
0
  6
CONTINUOUS
 62
     7
100
AcDbCircle
 10
36.5165990791
 20
37.5826101079
 30
0.0
 40
0.2149999999999963
  0
CIRCLE
  5
10B
330
1F
100
AcDbEntity
  8
0
  6
CONTINUOUS
 62
     7
100
AcDbCircle
 10
37.5165990791
 20
37.5826101079
 30
0.0
 40
0.2149999999999963
  0
CIRCLE
  5
10C
330
1F
100
AcDbEntity
  8
0
  6
CONTINUOUS
 62
     7
100
AcDbCircle
 10
38.5165990791
 20
37.5826101079
 30
0.0
 40
0.2149999999999963
  0
CIRCLE
  5
10D
330
1F
100
AcDbEntity
  8
0
  6
CONTINUOUS
 62
     7
100
AcDbCircle
 10
39.5165990791
 20
37.5826101079
 30
0.0
 40
0.2149999999999963
  0
CIRCLE
  5
10E
330
1F
100
AcDbEntity
  8
0
  6
CONTINUOUS
 62
     7
100
AcDbCircle
 10
40.5165990791
 20
37.5826101079
 30
0.0
 40
0.2149999999999963
  0
CIRCLE
  5
10F
330
1F
100
AcDbEntity
  8
0
  6
CONTINUOUS
 62
     7
100
AcDbCircle
 10
41.5165990791
 20
37.5826101079
 30
0.0
 40
0.2149999999999963
  0
CIRCLE
  5
110
330
1F
100
AcDbEntity
  8
0
  6
CONTINUOUS
 62
     7
100
AcDbCircle
 10
42.5165990791
 20
37.5826101079
 30
0.0
 40
0.2149999999999963
  0
CIRCLE
  5
111
330
1F
100
AcDbEntity
  8
0
  6
CONTINUOUS
 62
     7
100
AcDbCircle
 10
43.5165990791
 20
37.5826101079
 30
0.0
 40
0.2149999999999963
  0
CIRCLE
  5
112
330
1F
100
AcDbEntity
  8
0
  6
CONTINUOUS
 62
     7
100
AcDbCircle
 10
28.5165990791
 20
36.5826101079
 30
0.0
 40
0.2149999999999963
  0
CIRCLE
  5
113
330
1F
100
AcDbEntity
  8
0
  6
CONTINUOUS
 62
     7
100
AcDbCircle
 10
29.5165990791
 20
36.5826101079
 30
0.0
 40
0.2149999999999963
  0
CIRCLE
  5
114
330
1F
100
AcDbEntity
  8
0
  6
CONTINUOUS
 62
     7
100
AcDbCircle
 10
30.5165990791
 20
36.5826101079
 30
0.0
 40
0.2149999999999963
  0
CIRCLE
  5
115
330
1F
100
AcDbEntity
  8
0
  6
CONTINUOUS
 62
     7
100
AcDbCircle
 10
31.5165990791
 20
36.5826101079
 30
0.0
 40
0.2149999999999963
  0
CIRCLE
  5
116
330
1F
100
AcDbEntity
  8
0
  6
CONTINUOUS
 62
     7
100
AcDbCircle
 10
32.5165990791
 20
36.5826101079
 30
0.0
 40
0.2149999999999963
  0
CIRCLE
  5
117
330
1F
100
AcDbEntity
  8
0
  6
CONTINUOUS
 62
     7
100
AcDbCircle
 10
33.5165990791
 20
36.5826101079
 30
0.0
 40
0.2149999999999963
  0
CIRCLE
  5
118
330
1F
100
AcDbEntity
  8
0
  6
CONTINUOUS
 62
     7
100
AcDbCircle
 10
34.5165990791
 20
36.5826101079
 30
0.0
 40
0.2149999999999963
  0
CIRCLE
  5
119
330
1F
100
AcDbEntity
  8
0
  6
CONTINUOUS
 62
     7
100
AcDbCircle
 10
35.5165990791
 20
36.5826101079
 30
0.0
 40
0.2149999999999963
  0
CIRCLE
  5
11A
330
1F
100
AcDbEntity
  8
0
  6
CONTINUOUS
 62
     7
100
AcDbCircle
 10
36.5165990791
 20
36.5826101079
 30
0.0
 40
0.2149999999999963
  0
CIRCLE
  5
11B
330
1F
100
AcDbEntity
  8
0
  6
CONTINUOUS
 62
     7
100
AcDbCircle
 10
37.5165990791
 20
36.5826101079
 30
0.0
 40
0.2149999999999963
  0
CIRCLE
  5
11C
330
1F
100
AcDbEntity
  8
0
  6
CONTINUOUS
 62
     7
100
AcDbCircle
 10
38.5165990791
 20
36.5826101079
 30
0.0
 40
0.2149999999999963
  0
CIRCLE
  5
11D
330
1F
100
AcDbEntity
  8
0
  6
CONTINUOUS
 62
     7
100
AcDbCircle
 10
39.5165990791
 20
36.5826101079
 30
0.0
 40
0.2149999999999963
  0
CIRCLE
  5
11E
330
1F
100
AcDbEntity
  8
0
  6
CONTINUOUS
 62
     7
100
AcDbCircle
 10
40.5165990791
 20
36.5826101079
 30
0.0
 40
0.2149999999999963
  0
CIRCLE
  5
11F
330
1F
100
AcDbEntity
  8
0
  6
CONTINUOUS
 62
     7
100
AcDbCircle
 10
41.5165990791
 20
36.5826101079
 30
0.0
 40
0.2149999999999963
  0
CIRCLE
  5
120
330
1F
100
AcDbEntity
  8
0
  6
CONTINUOUS
 62
     7
100
AcDbCircle
 10
42.5165990791
 20
36.5826101079
 30
0.0
 40
0.2149999999999963
  0
CIRCLE
  5
121
330
1F
100
AcDbEntity
  8
0
  6
CONTINUOUS
 62
     7
100
AcDbCircle
 10
43.5165990791
 20
36.5826101079
 30
0.0
 40
0.2149999999999963
  0
CIRCLE
  5
122
330
1F
100
AcDbEntity
  8
0
  6
CONTINUOUS
 62
     7
100
AcDbCircle
 10
28.5165990791
 20
35.5826101079
 30
0.0
 40
0.2150000000000034
  0
CIRCLE
  5
123
330
1F
100
AcDbEntity
  8
0
  6
CONTINUOUS
 62
     7
100
AcDbCircle
 10
29.5165990791
 20
35.5826101079
 30
0.0
 40
0.2150000000000034
  0
CIRCLE
  5
124
330
1F
100
AcDbEntity
  8
0
  6
CONTINUOUS
 62
     7
100
AcDbCircle
 10
30.5165990791
 20
35.5826101079
 30
0.0
 40
0.2150000000000034
  0
CIRCLE
  5
125
330
1F
100
AcDbEntity
  8
0
  6
CONTINUOUS
 62
     7
100
AcDbCircle
 10
31.5165990791
 20
35.5826101079
 30
0.0
 40
0.2150000000000034
  0
CIRCLE
  5
126
330
1F
100
AcDbEntity
  8
0
  6
CONTINUOUS
 62
     7
100
AcDbCircle
 10
32.5165990791
 20
35.5826101079
 30
0.0
 40
0.2150000000000034
  0
CIRCLE
  5
127
330
1F
100
AcDbEntity
  8
0
  6
CONTINUOUS
 62
     7
100
AcDbCircle
 10
33.5165990791
 20
35.5826101079
 30
0.0
 40
0.2150000000000034
  0
CIRCLE
  5
128
330
1F
100
AcDbEntity
  8
0
  6
CONTINUOUS
 62
     7
100
AcDbCircle
 10
34.5165990791
 20
35.5826101079
 30
0.0
 40
0.2150000000000034
  0
CIRCLE
  5
129
330
1F
100
AcDbEntity
  8
0
  6
CONTINUOUS
 62
     7
100
AcDbCircle
 10
35.5165990791
 20
35.5826101079
 30
0.0
 40
0.2150000000000034
  0
CIRCLE
  5
12A
330
1F
100
AcDbEntity
  8
0
  6
CONTINUOUS
 62
     7
100
AcDbCircle
 10
36.5165990791
 20
35.5826101079
 30
0.0
 40
0.2150000000000034
  0
CIRCLE
  5
12B
330
1F
100
AcDbEntity
  8
0
  6
CONTINUOUS
 62
     7
100
AcDbCircle
 10
37.5165990791
 20
35.5826101079
 30
0.0
 40
0.2150000000000034
  0
CIRCLE
  5
12C
330
1F
100
AcDbEntity
  8
0
  6
CONTINUOUS
 62
     7
100
AcDbCircle
 10
38.5165990791
 20
35.5826101079
 30
0.0
 40
0.2150000000000034
  0
CIRCLE
  5
12D
330
1F
100
AcDbEntity
  8
0
  6
CONTINUOUS
 62
     7
100
AcDbCircle
 10
39.5165990791
 20
35.5826101079
 30
0.0
 40
0.2150000000000034
  0
CIRCLE
  5
12E
330
1F
100
AcDbEntity
  8
0
  6
CONTINUOUS
 62
     7
100
AcDbCircle
 10
40.5165990791
 20
35.5826101079
 30
0.0
 40
0.2150000000000034
  0
CIRCLE
  5
12F
330
1F
100
AcDbEntity
  8
0
  6
CONTINUOUS
 62
     7
100
AcDbCircle
 10
41.5165990791
 20
35.5826101079
 30
0.0
 40
0.2150000000000034
  0
CIRCLE
  5
130
330
1F
100
AcDbEntity
  8
0
  6
CONTINUOUS
 62
     7
100
AcDbCircle
 10
42.5165990791
 20
35.5826101079
 30
0.0
 40
0.2150000000000034
  0
CIRCLE
  5
131
330
1F
100
AcDbEntity
  8
0
  6
CONTINUOUS
 62
     7
100
AcDbCircle
 10
43.5165990791
 20
35.5826101079
 30
0.0
 40
0.2150000000000034
  0
CIRCLE
  5
132
330
1F
100
AcDbEntity
  8
0
  6
CONTINUOUS
 62
     7
100
AcDbCircle
 10
28.5165990791
 20
34.5826101079
 30
0.0
 40
0.2150000000000034
  0
CIRCLE
  5
133
330
1F
100
AcDbEntity
  8
0
  6
CONTINUOUS
 62
     7
100
AcDbCircle
 10
29.5165990791
 20
34.5826101079
 30
0.0
 40
0.2150000000000034
  0
CIRCLE
  5
134
330
1F
100
AcDbEntity
  8
0
  6
CONTINUOUS
 62
     7
100
AcDbCircle
 10
30.5165990791
 20
34.5826101079
 30
0.0
 40
0.2150000000000034
  0
CIRCLE
  5
135
330
1F
100
AcDbEntity
  8
0
  6
CONTINUOUS
 62
     7
100
AcDbCircle
 10
31.5165990791
 20
34.5826101079
 30
0.0
 40
0.2150000000000034
  0
CIRCLE
  5
136
330
1F
100
AcDbEntity
  8
0
  6
CONTINUOUS
 62
     7
100
AcDbCircle
 10
32.5165990791
 20
34.5826101079
 30
0.0
 40
0.2150000000000034
  0
CIRCLE
  5
137
330
1F
100
AcDbEntity
  8
0
  6
CONTINUOUS
 62
     7
100
AcDbCircle
 10
33.5165990791
 20
34.5826101079
 30
0.0
 40
0.2150000000000034
  0
CIRCLE
  5
138
330
1F
100
AcDbEntity
  8
0
  6
CONTINUOUS
 62
     7
100
AcDbCircle
 10
34.5165990791
 20
34.5826101079
 30
0.0
 40
0.2150000000000034
  0
CIRCLE
  5
139
330
1F
100
AcDbEntity
  8
0
  6
CONTINUOUS
 62
     7
100
AcDbCircle
 10
35.5165990791
 20
34.5826101079
 30
0.0
 40
0.2150000000000034
  0
CIRCLE
  5
13A
330
1F
100
AcDbEntity
  8
0
  6
CONTINUOUS
 62
     7
100
AcDbCircle
 10
36.5165990791
 20
34.5826101079
 30
0.0
 40
0.2150000000000034
  0
CIRCLE
  5
13B
330
1F
100
AcDbEntity
  8
0
  6
CONTINUOUS
 62
     7
100
AcDbCircle
 10
37.5165990791
 20
34.5826101079
 30
0.0
 40
0.2150000000000034
  0
CIRCLE
  5
13C
330
1F
100
AcDbEntity
  8
0
  6
CONTINUOUS
 62
     7
100
AcDbCircle
 10
38.5165990791
 20
34.5826101079
 30
0.0
 40
0.2150000000000034
  0
CIRCLE
  5
13D
330
1F
100
AcDbEntity
  8
0
  6
CONTINUOUS
 62
     7
100
AcDbCircle
 10
39.5165990791
 20
34.5826101079
 30
0.0
 40
0.2150000000000034
  0
CIRCLE
  5
13E
330
1F
100
AcDbEntity
  8
0
  6
CONTINUOUS
 62
     7
100
AcDbCircle
 10
40.5165990791
 20
34.5826101079
 30
0.0
 40
0.2150000000000034
  0
CIRCLE
  5
13F
330
1F
100
AcDbEntity
  8
0
  6
CONTINUOUS
 62
     7
100
AcDbCircle
 10
41.5165990791
 20
34.5826101079
 30
0.0
 40
0.2150000000000034
  0
CIRCLE
  5
140
330
1F
100
AcDbEntity
  8
0
  6
CONTINUOUS
 62
     7
100
AcDbCircle
 10
42.5165990791
 20
34.5826101079
 30
0.0
 40
0.2150000000000034
  0
CIRCLE
  5
141
330
1F
100
AcDbEntity
  8
0
  6
CONTINUOUS
 62
     7
100
AcDbCircle
 10
43.5165990791
 20
34.5826101079
 30
0.0
 40
0.2150000000000034
  0
CIRCLE
  5
142
330
1F
100
AcDbEntity
  8
0
  6
CONTINUOUS
 62
     7
100
AcDbCircle
 10
28.5165990791
 20
33.5826101079
 30
0.0
 40
0.2150000000000034
  0
CIRCLE
  5
143
330
1F
100
AcDbEntity
  8
0
  6
CONTINUOUS
 62
     7
100
AcDbCircle
 10
29.5165990791
 20
33.5826101079
 30
0.0
 40
0.2150000000000034
  0
CIRCLE
  5
144
330
1F
100
AcDbEntity
  8
0
  6
CONTINUOUS
 62
     7
100
AcDbCircle
 10
30.5165990791
 20
33.5826101079
 30
0.0
 40
0.2150000000000034
  0
CIRCLE
  5
145
330
1F
100
AcDbEntity
  8
0
  6
CONTINUOUS
 62
     7
100
AcDbCircle
 10
31.5165990791
 20
33.5826101079
 30
0.0
 40
0.2150000000000034
  0
CIRCLE
  5
146
330
1F
100
AcDbEntity
  8
0
  6
CONTINUOUS
 62
     7
100
AcDbCircle
 10
38.5165990791
 20
29.5826101079
 30
0.0
 40
0.2149999999999999
  0
CIRCLE
  5
147
330
1F
100
AcDbEntity
  8
0
  6
CONTINUOUS
 62
     7
100
AcDbCircle
 10
39.5165990791
 20
29.5826101079
 30
0.0
 40
0.2149999999999999
  0
CIRCLE
  5
148
330
1F
100
AcDbEntity
  8
0
  6
CONTINUOUS
 62
     7
100
AcDbCircle
 10
40.5165990791
 20
29.5826101079
 30
0.0
 40
0.2149999999999999
  0
CIRCLE
  5
149
330
1F
100
AcDbEntity
  8
0
  6
CONTINUOUS
 62
     7
100
AcDbCircle
 10
41.5165990791
 20
29.5826101079
 30
0.0
 40
0.2149999999999999
  0
CIRCLE
  5
14A
330
1F
100
AcDbEntity
  8
0
  6
CONTINUOUS
 62
     7
100
AcDbCircle
 10
42.5165990791
 20
29.5826101079
 30
0.0
 40
0.2149999999999999
  0
CIRCLE
  5
14B
330
1F
100
AcDbEntity
  8
0
  6
CONTINUOUS
 62
     7
100
AcDbCircle
 10
43.5165990791
 20
29.5826101079
 30
0.0
 40
0.2149999999999999
  0
CIRCLE
  5
14C
330
1F
100
AcDbEntity
  8
0
  6
CONTINUOUS
 62
     7
100
AcDbCircle
 10
28.5165990791
 20
28.5826101079
 30
0.0
 40
0.2149999999999999
  0
CIRCLE
  5
14D
330
1F
100
AcDbEntity
  8
0
  6
CONTINUOUS
 62
     7
100
AcDbCircle
 10
29.5165990791
 20
28.5826101079
 30
0.0
 40
0.2149999999999999
  0
CIRCLE
  5
14E
330
1F
100
AcDbEntity
  8
0
  6
CONTINUOUS
 62
     7
100
AcDbCircle
 10
30.5165990791
 20
28.5826101079
 30
0.0
 40
0.2149999999999999
  0
CIRCLE
  5
14F
330
1F
100
AcDbEntity
  8
0
  6
CONTINUOUS
 62
     7
100
AcDbCircle
 10
31.5165990791
 20
28.5826101079
 30
0.0
 40
0.2149999999999999
  0
CIRCLE
  5
150
330
1F
100
AcDbEntity
  8
0
  6
CONTINUOUS
 62
     7
100
AcDbCircle
 10
32.5165990791
 20
28.5826101079
 30
0.0
 40
0.2149999999999999
  0
CIRCLE
  5
151
330
1F
100
AcDbEntity
  8
0
  6
CONTINUOUS
 62
     7
100
AcDbCircle
 10
33.5165990791
 20
28.5826101079
 30
0.0
 40
0.2149999999999999
  0
CIRCLE
  5
152
330
1F
100
AcDbEntity
  8
0
  6
CONTINUOUS
 62
     7
100
AcDbCircle
 10
34.5165990791
 20
28.5826101079
 30
0.0
 40
0.2149999999999999
  0
CIRCLE
  5
153
330
1F
100
AcDbEntity
  8
0
  6
CONTINUOUS
 62
     7
100
AcDbCircle
 10
35.5165990791
 20
28.5826101079
 30
0.0
 40
0.2149999999999999
  0
CIRCLE
  5
154
330
1F
100
AcDbEntity
  8
0
  6
CONTINUOUS
 62
     7
100
AcDbCircle
 10
36.5165990791
 20
28.5826101079
 30
0.0
 40
0.2149999999999999
  0
CIRCLE
  5
155
330
1F
100
AcDbEntity
  8
0
  6
CONTINUOUS
 62
     7
100
AcDbCircle
 10
37.5165990791
 20
28.5826101079
 30
0.0
 40
0.2149999999999999
  0
CIRCLE
  5
156
330
1F
100
AcDbEntity
  8
0
  6
CONTINUOUS
 62
     7
100
AcDbCircle
 10
38.5165990791
 20
28.5826101079
 30
0.0
 40
0.2149999999999999
  0
CIRCLE
  5
157
330
1F
100
AcDbEntity
  8
0
  6
CONTINUOUS
 62
     7
100
AcDbCircle
 10
39.5165990791
 20
28.5826101079
 30
0.0
 40
0.2149999999999999
  0
CIRCLE
  5
158
330
1F
100
AcDbEntity
  8
0
  6
CONTINUOUS
 62
     7
100
AcDbCircle
 10
40.5165990791
 20
28.5826101079
 30
0.0
 40
0.2149999999999999
  0
CIRCLE
  5
159
330
1F
100
AcDbEntity
  8
0
  6
CONTINUOUS
 62
     7
100
AcDbCircle
 10
41.5165990791
 20
28.5826101079
 30
0.0
 40
0.2149999999999999
  0
CIRCLE
  5
15A
330
1F
100
AcDbEntity
  8
0
  6
CONTINUOUS
 62
     7
100
AcDbCircle
 10
42.5165990791
 20
28.5826101079
 30
0.0
 40
0.2149999999999999
  0
CIRCLE
  5
15B
330
1F
100
AcDbEntity
  8
0
  6
CONTINUOUS
 62
     7
100
AcDbCircle
 10
43.5165990791
 20
28.5826101079
 30
0.0
 40
0.2149999999999999
  0
CIRCLE
  5
15C
330
1F
100
AcDbEntity
  8
0
  6
CONTINUOUS
 62
     7
100
AcDbCircle
 10
28.5165990791
 20
27.5826101079
 30
0.0
 40
0.2149999999999999
  0
CIRCLE
  5
15D
330
1F
100
AcDbEntity
  8
0
  6
CONTINUOUS
 62
     7
100
AcDbCircle
 10
29.5165990791
 20
27.5826101079
 30
0.0
 40
0.2149999999999999
  0
CIRCLE
  5
15E
330
1F
100
AcDbEntity
  8
0
  6
CONTINUOUS
 62
     7
100
AcDbCircle
 10
40.5165990791
 20
32.5826101079
 30
0.0
 40
0.2150000000000034
  0
CIRCLE
  5
15F
330
1F
100
AcDbEntity
  8
0
  6
CONTINUOUS
 62
     7
100
AcDbCircle
 10
41.5165990791
 20
32.5826101079
 30
0.0
 40
0.2150000000000034
  0
CIRCLE
  5
160
330
1F
100
AcDbEntity
  8
0
  6
CONTINUOUS
 62
     7
100
AcDbCircle
 10
42.5165990791
 20
32.5826101079
 30
0.0
 40
0.2150000000000034
  0
CIRCLE
  5
161
330
1F
100
AcDbEntity
  8
0
  6
CONTINUOUS
 62
     7
100
AcDbCircle
 10
43.5165990791
 20
32.5826101079
 30
0.0
 40
0.2150000000000034
  0
CIRCLE
  5
162
330
1F
100
AcDbEntity
  8
0
  6
CONTINUOUS
 62
     7
100
AcDbCircle
 10
28.5165990791
 20
31.5826101079
 30
0.0
 40
0.2149999999999999
  0
CIRCLE
  5
163
330
1F
100
AcDbEntity
  8
0
  6
CONTINUOUS
 62
     7
100
AcDbCircle
 10
29.5165990791
 20
31.5826101079
 30
0.0
 40
0.2149999999999999
  0
CIRCLE
  5
164
330
1F
100
AcDbEntity
  8
0
  6
CONTINUOUS
 62
     7
100
AcDbCircle
 10
30.5165990791
 20
31.5826101079
 30
0.0
 40
0.2149999999999999
  0
CIRCLE
  5
165
330
1F
100
AcDbEntity
  8
0
  6
CONTINUOUS
 62
     7
100
AcDbCircle
 10
31.5165990791
 20
31.5826101079
 30
0.0
 40
0.2149999999999999
  0
CIRCLE
  5
166
330
1F
100
AcDbEntity
  8
0
  6
CONTINUOUS
 62
     7
100
AcDbCircle
 10
32.5165990791
 20
31.5826101079
 30
0.0
 40
0.2149999999999999
  0
CIRCLE
  5
167
330
1F
100
AcDbEntity
  8
0
  6
CONTINUOUS
 62
     7
100
AcDbCircle
 10
33.5165990791
 20
31.5826101079
 30
0.0
 40
0.2149999999999999
  0
CIRCLE
  5
168
330
1F
100
AcDbEntity
  8
0
  6
CONTINUOUS
 62
     7
100
AcDbCircle
 10
34.5165990791
 20
31.5826101079
 30
0.0
 40
0.2149999999999999
  0
CIRCLE
  5
169
330
1F
100
AcDbEntity
  8
0
  6
CONTINUOUS
 62
     7
100
AcDbCircle
 10
35.5165990791
 20
31.5826101079
 30
0.0
 40
0.2149999999999999
  0
CIRCLE
  5
16A
330
1F
100
AcDbEntity
  8
0
  6
CONTINUOUS
 62
     7
100
AcDbCircle
 10
36.5165990791
 20
31.5826101079
 30
0.0
 40
0.2149999999999999
  0
CIRCLE
  5
16B
330
1F
100
AcDbEntity
  8
0
  6
CONTINUOUS
 62
     7
100
AcDbCircle
 10
37.5165990791
 20
31.5826101079
 30
0.0
 40
0.2149999999999999
  0
CIRCLE
  5
16C
330
1F
100
AcDbEntity
  8
0
  6
CONTINUOUS
 62
     7
100
AcDbCircle
 10
38.5165990791
 20
31.5826101079
 30
0.0
 40
0.2149999999999999
  0
CIRCLE
  5
16D
330
1F
100
AcDbEntity
  8
0
  6
CONTINUOUS
 62
     7
100
AcDbCircle
 10
39.5165990791
 20
31.5826101079
 30
0.0
 40
0.2149999999999999
  0
CIRCLE
  5
16E
330
1F
100
AcDbEntity
  8
0
  6
CONTINUOUS
 62
     7
100
AcDbCircle
 10
40.5165990791
 20
31.5826101079
 30
0.0
 40
0.2149999999999999
  0
CIRCLE
  5
16F
330
1F
100
AcDbEntity
  8
0
  6
CONTINUOUS
 62
     7
100
AcDbCircle
 10
41.5165990791
 20
31.5826101079
 30
0.0
 40
0.2149999999999999
  0
CIRCLE
  5
170
330
1F
100
AcDbEntity
  8
0
  6
CONTINUOUS
 62
     7
100
AcDbCircle
 10
42.5165990791
 20
31.5826101079
 30
0.0
 40
0.2149999999999999
  0
CIRCLE
  5
171
330
1F
100
AcDbEntity
  8
0
  6
CONTINUOUS
 62
     7
100
AcDbCircle
 10
43.5165990791
 20
31.5826101079
 30
0.0
 40
0.2149999999999999
  0
CIRCLE
  5
172
330
1F
100
AcDbEntity
  8
0
  6
CONTINUOUS
 62
     7
100
AcDbCircle
 10
28.5165990791
 20
30.5826101079
 30
0.0
 40
0.2149999999999999
  0
CIRCLE
  5
173
330
1F
100
AcDbEntity
  8
0
  6
CONTINUOUS
 62
     7
100
AcDbCircle
 10
29.5165990791
 20
30.5826101079
 30
0.0
 40
0.2149999999999999
  0
CIRCLE
  5
174
330
1F
100
AcDbEntity
  8
0
  6
CONTINUOUS
 62
     7
100
AcDbCircle
 10
30.5165990791
 20
30.5826101079
 30
0.0
 40
0.2149999999999999
  0
CIRCLE
  5
175
330
1F
100
AcDbEntity
  8
0
  6
CONTINUOUS
 62
     7
100
AcDbCircle
 10
31.5165990791
 20
30.5826101079
 30
0.0
 40
0.2149999999999999
  0
CIRCLE
  5
176
330
1F
100
AcDbEntity
  8
0
  6
CONTINUOUS
 62
     7
100
AcDbCircle
 10
32.5165990791
 20
30.5826101079
 30
0.0
 40
0.2149999999999999
  0
CIRCLE
  5
177
330
1F
100
AcDbEntity
  8
0
  6
CONTINUOUS
 62
     7
100
AcDbCircle
 10
33.5165990791
 20
30.5826101079
 30
0.0
 40
0.2149999999999999
  0
CIRCLE
  5
178
330
1F
100
AcDbEntity
  8
0
  6
CONTINUOUS
 62
     7
100
AcDbCircle
 10
34.5165990791
 20
30.5826101079
 30
0.0
 40
0.2149999999999999
  0
CIRCLE
  5
179
330
1F
100
AcDbEntity
  8
0
  6
CONTINUOUS
 62
     7
100
AcDbCircle
 10
35.5165990791
 20
30.5826101079
 30
0.0
 40
0.2149999999999999
  0
CIRCLE
  5
17A
330
1F
100
AcDbEntity
  8
0
  6
CONTINUOUS
 62
     7
100
AcDbCircle
 10
36.5165990791
 20
30.5826101079
 30
0.0
 40
0.2149999999999999
  0
CIRCLE
  5
17B
330
1F
100
AcDbEntity
  8
0
  6
CONTINUOUS
 62
     7
100
AcDbCircle
 10
37.5165990791
 20
30.5826101079
 30
0.0
 40
0.2149999999999999
  0
CIRCLE
  5
17C
330
1F
100
AcDbEntity
  8
0
  6
CONTINUOUS
 62
     7
100
AcDbCircle
 10
38.5165990791
 20
30.5826101079
 30
0.0
 40
0.2149999999999999
  0
CIRCLE
  5
17D
330
1F
100
AcDbEntity
  8
0
  6
CONTINUOUS
 62
     7
100
AcDbCircle
 10
39.5165990791
 20
30.5826101079
 30
0.0
 40
0.2149999999999999
  0
CIRCLE
  5
17E
330
1F
100
AcDbEntity
  8
0
  6
CONTINUOUS
 62
     7
100
AcDbCircle
 10
40.5165990791
 20
30.5826101079
 30
0.0
 40
0.2149999999999999
  0
CIRCLE
  5
17F
330
1F
100
AcDbEntity
  8
0
  6
CONTINUOUS
 62
     7
100
AcDbCircle
 10
41.5165990791
 20
30.5826101079
 30
0.0
 40
0.2149999999999999
  0
CIRCLE
  5
180
330
1F
100
AcDbEntity
  8
0
  6
CONTINUOUS
 62
     7
100
AcDbCircle
 10
42.5165990791
 20
30.5826101079
 30
0.0
 40
0.2149999999999999
  0
CIRCLE
  5
181
330
1F
100
AcDbEntity
  8
0
  6
CONTINUOUS
 62
     7
100
AcDbCircle
 10
43.5165990791
 20
30.5826101079
 30
0.0
 40
0.2149999999999999
  0
CIRCLE
  5
182
330
1F
100
AcDbEntity
  8
0
  6
CONTINUOUS
 62
     7
100
AcDbCircle
 10
28.5165990791
 20
29.5826101079
 30
0.0
 40
0.2149999999999999
  0
CIRCLE
  5
183
330
1F
100
AcDbEntity
  8
0
  6
CONTINUOUS
 62
     7
100
AcDbCircle
 10
29.5165990791
 20
29.5826101079
 30
0.0
 40
0.2149999999999999
  0
CIRCLE
  5
184
330
1F
100
AcDbEntity
  8
0
  6
CONTINUOUS
 62
     7
100
AcDbCircle
 10
30.5165990791
 20
29.5826101079
 30
0.0
 40
0.2149999999999999
  0
CIRCLE
  5
185
330
1F
100
AcDbEntity
  8
0
  6
CONTINUOUS
 62
     7
100
AcDbCircle
 10
31.5165990791
 20
29.5826101079
 30
0.0
 40
0.2149999999999999
  0
CIRCLE
  5
186
330
1F
100
AcDbEntity
  8
0
  6
CONTINUOUS
 62
     7
100
AcDbCircle
 10
32.5165990791
 20
29.5826101079
 30
0.0
 40
0.2149999999999999
  0
CIRCLE
  5
187
330
1F
100
AcDbEntity
  8
0
  6
CONTINUOUS
 62
     7
100
AcDbCircle
 10
33.5165990791
 20
29.5826101079
 30
0.0
 40
0.2149999999999999
  0
CIRCLE
  5
188
330
1F
100
AcDbEntity
  8
0
  6
CONTINUOUS
 62
     7
100
AcDbCircle
 10
34.5165990791
 20
29.5826101079
 30
0.0
 40
0.2149999999999999
  0
CIRCLE
  5
189
330
1F
100
AcDbEntity
  8
0
  6
CONTINUOUS
 62
     7
100
AcDbCircle
 10
35.5165990791
 20
29.5826101079
 30
0.0
 40
0.2149999999999999
  0
CIRCLE
  5
18A
330
1F
100
AcDbEntity
  8
0
  6
CONTINUOUS
 62
     7
100
AcDbCircle
 10
36.5165990791
 20
29.5826101079
 30
0.0
 40
0.2149999999999999
  0
CIRCLE
  5
18B
330
1F
100
AcDbEntity
  8
0
  6
CONTINUOUS
 62
     7
100
AcDbCircle
 10
37.5165990791
 20
29.5826101079
 30
0.0
 40
0.2149999999999999
  0
CIRCLE
  5
18C
330
1F
100
AcDbEntity
  8
0
  6
CONTINUOUS
 62
     7
100
AcDbCircle
 10
41.5165990791
 20
27.5826101079
 30
0.0
 40
0.2149999999999999
  0
CIRCLE
  5
18D
330
1F
100
AcDbEntity
  8
0
  6
CONTINUOUS
 62
     7
100
AcDbCircle
 10
42.5165990791
 20
27.5826101079
 30
0.0
 40
0.2149999999999999
  0
CIRCLE
  5
18E
330
1F
100
AcDbEntity
  8
0
  6
CONTINUOUS
 62
     7
100
AcDbCircle
 10
43.5165990791
 20
27.5826101079
 30
0.0
 40
0.2149999999999999
  0
CIRCLE
  5
18F
330
1F
100
AcDbEntity
  8
0
  6
CONTINUOUS
 62
     7
100
AcDbCircle
 10
28.5165990791
 20
26.5826101079
 30
0.0
 40
0.2149999999999999
  0
CIRCLE
  5
190
330
1F
100
AcDbEntity
  8
0
  6
CONTINUOUS
 62
     7
100
AcDbCircle
 10
29.5165990791
 20
26.5826101079
 30
0.0
 40
0.2149999999999999
  0
CIRCLE
  5
191
330
1F
100
AcDbEntity
  8
0
  6
CONTINUOUS
 62
     7
100
AcDbCircle
 10
30.5165990791
 20
26.5826101079
 30
0.0
 40
0.2149999999999999
  0
CIRCLE
  5
192
330
1F
100
AcDbEntity
  8
0
  6
CONTINUOUS
 62
     7
100
AcDbCircle
 10
31.5165990791
 20
26.5826101079
 30
0.0
 40
0.2149999999999999
  0
CIRCLE
  5
193
330
1F
100
AcDbEntity
  8
0
  6
CONTINUOUS
 62
     7
100
AcDbCircle
 10
32.5165990791
 20
26.5826101079
 30
0.0
 40
0.2149999999999999
  0
CIRCLE
  5
194
330
1F
100
AcDbEntity
  8
0
  6
CONTINUOUS
 62
     7
100
AcDbCircle
 10
33.5165990791
 20
26.5826101079
 30
0.0
 40
0.2149999999999999
  0
CIRCLE
  5
195
330
1F
100
AcDbEntity
  8
0
  6
CONTINUOUS
 62
     7
100
AcDbCircle
 10
34.5165990791
 20
26.5826101079
 30
0.0
 40
0.2149999999999999
  0
CIRCLE
  5
196
330
1F
100
AcDbEntity
  8
0
  6
CONTINUOUS
 62
     7
100
AcDbCircle
 10
35.5165990791
 20
26.5826101079
 30
0.0
 40
0.2149999999999999
  0
CIRCLE
  5
197
330
1F
100
AcDbEntity
  8
0
  6
CONTINUOUS
 62
     7
100
AcDbCircle
 10
36.5165990791
 20
26.5826101079
 30
0.0
 40
0.2149999999999999
  0
CIRCLE
  5
198
330
1F
100
AcDbEntity
  8
0
  6
CONTINUOUS
 62
     7
100
AcDbCircle
 10
37.5165990791
 20
26.5826101079
 30
0.0
 40
0.2149999999999999
  0
CIRCLE
  5
199
330
1F
100
AcDbEntity
  8
0
  6
CONTINUOUS
 62
     7
100
AcDbCircle
 10
38.5165990791
 20
26.5826101079
 30
0.0
 40
0.2149999999999999
  0
CIRCLE
  5
19A
330
1F
100
AcDbEntity
  8
0
  6
CONTINUOUS
 62
     7
100
AcDbCircle
 10
39.5165990791
 20
26.5826101079
 30
0.0
 40
0.2149999999999999
  0
CIRCLE
  5
19B
330
1F
100
AcDbEntity
  8
0
  6
CONTINUOUS
 62
     7
100
AcDbCircle
 10
40.5165990791
 20
26.5826101079
 30
0.0
 40
0.2149999999999999
  0
CIRCLE
  5
19C
330
1F
100
AcDbEntity
  8
0
  6
CONTINUOUS
 62
     7
100
AcDbCircle
 10
41.5165990791
 20
26.5826101079
 30
0.0
 40
0.2149999999999999
  0
CIRCLE
  5
19D
330
1F
100
AcDbEntity
  8
0
  6
CONTINUOUS
 62
     7
100
AcDbCircle
 10
42.5165990791
 20
26.5826101079
 30
0.0
 40
0.2149999999999999
  0
CIRCLE
  5
19E
330
1F
100
AcDbEntity
  8
0
  6
CONTINUOUS
 62
     7
100
AcDbCircle
 10
43.5165990791
 20
26.5826101079
 30
0.0
 40
0.2149999999999999
  0
CIRCLE
  5
19F
330
1F
100
AcDbEntity
  8
0
  6
CONTINUOUS
 62
     7
100
AcDbCircle
 10
28.5165990791
 20
25.5826101079
 30
0.0
 40
0.2149999999999999
  0
CIRCLE
  5
1A0
330
1F
100
AcDbEntity
  8
0
  6
CONTINUOUS
 62
     7
100
AcDbCircle
 10
29.5165990791
 20
25.5826101079
 30
0.0
 40
0.2149999999999999
  0
CIRCLE
  5
1A1
330
1F
100
AcDbEntity
  8
0
  6
CONTINUOUS
 62
     7
100
AcDbCircle
 10
30.5165990791
 20
25.5826101079
 30
0.0
 40
0.2149999999999999
  0
CIRCLE
  5
1A2
330
1F
100
AcDbEntity
  8
0
  6
CONTINUOUS
 62
     7
100
AcDbCircle
 10
31.5165990791
 20
25.5826101079
 30
0.0
 40
0.2149999999999999
  0
CIRCLE
  5
1A3
330
1F
100
AcDbEntity
  8
0
  6
CONTINUOUS
 62
     7
100
AcDbCircle
 10
32.5165990791
 20
25.5826101079
 30
0.0
 40
0.2149999999999999
  0
CIRCLE
  5
1A4
330
1F
100
AcDbEntity
  8
0
  6
CONTINUOUS
 62
     7
100
AcDbCircle
 10
30.5165990791
 20
27.5826101079
 30
0.0
 40
0.2149999999999999
  0
CIRCLE
  5
1A5
330
1F
100
AcDbEntity
  8
0
  6
CONTINUOUS
 62
     7
100
AcDbCircle
 10
31.5165990791
 20
27.5826101079
 30
0.0
 40
0.2149999999999999
  0
CIRCLE
  5
1A6
330
1F
100
AcDbEntity
  8
0
  6
CONTINUOUS
 62
     7
100
AcDbCircle
 10
32.5165990791
 20
27.5826101079
 30
0.0
 40
0.2149999999999999
  0
CIRCLE
  5
1A7
330
1F
100
AcDbEntity
  8
0
  6
CONTINUOUS
 62
     7
100
AcDbCircle
 10
33.5165990791
 20
27.5826101079
 30
0.0
 40
0.2149999999999999
  0
CIRCLE
  5
1A8
330
1F
100
AcDbEntity
  8
0
  6
CONTINUOUS
 62
     7
100
AcDbCircle
 10
34.5165990791
 20
27.5826101079
 30
0.0
 40
0.2149999999999999
  0
CIRCLE
  5
1A9
330
1F
100
AcDbEntity
  8
0
  6
CONTINUOUS
 62
     7
100
AcDbCircle
 10
35.5165990791
 20
27.5826101079
 30
0.0
 40
0.2149999999999999
  0
CIRCLE
  5
1AA
330
1F
100
AcDbEntity
  8
0
  6
CONTINUOUS
 62
     7
100
AcDbCircle
 10
36.5165990791
 20
27.5826101079
 30
0.0
 40
0.2149999999999999
  0
CIRCLE
  5
1AB
330
1F
100
AcDbEntity
  8
0
  6
CONTINUOUS
 62
     7
100
AcDbCircle
 10
37.5165990791
 20
27.5826101079
 30
0.0
 40
0.2149999999999999
  0
CIRCLE
  5
1AC
330
1F
100
AcDbEntity
  8
0
  6
CONTINUOUS
 62
     7
100
AcDbCircle
 10
38.5165990791
 20
27.5826101079
 30
0.0
 40
0.2149999999999999
  0
CIRCLE
  5
1AD
330
1F
100
AcDbEntity
  8
0
  6
CONTINUOUS
 62
     7
100
AcDbCircle
 10
39.5165990791
 20
27.5826101079
 30
0.0
 40
0.2149999999999999
  0
CIRCLE
  5
1AE
330
1F
100
AcDbEntity
  8
0
  6
CONTINUOUS
 62
     7
100
AcDbCircle
 10
40.5165990791
 20
27.5826101079
 30
0.0
 40
0.2149999999999999
  0
CIRCLE
  5
1AF
330
1F
100
AcDbEntity
  8
0
  6
CONTINUOUS
 62
     7
100
AcDbCircle
 10
35.5165990791
 20
25.5826101079
 30
0.0
 40
0.2149999999999999
  0
CIRCLE
  5
1B0
330
1F
100
AcDbEntity
  8
0
  6
CONTINUOUS
 62
     7
100
AcDbCircle
 10
36.5165990791
 20
25.5826101079
 30
0.0
 40
0.2149999999999999
  0
CIRCLE
  5
1B1
330
1F
100
AcDbEntity
  8
0
  6
CONTINUOUS
 62
     7
100
AcDbCircle
 10
37.5165990791
 20
25.5826101079
 30
0.0
 40
0.2149999999999999
  0
CIRCLE
  5
1B2
330
1F
100
AcDbEntity
  8
0
  6
CONTINUOUS
 62
     7
100
AcDbCircle
 10
38.5165990791
 20
25.5826101079
 30
0.0
 40
0.2149999999999999
  0
CIRCLE
  5
1B3
330
1F
100
AcDbEntity
  8
0
  6
CONTINUOUS
 62
     7
100
AcDbCircle
 10
39.5165990791
 20
25.5826101079
 30
0.0
 40
0.2149999999999999
  0
CIRCLE
  5
1B4
330
1F
100
AcDbEntity
  8
0
  6
CONTINUOUS
 62
     7
100
AcDbCircle
 10
40.5165990791
 20
25.5826101079
 30
0.0
 40
0.2149999999999999
  0
CIRCLE
  5
1B5
330
1F
100
AcDbEntity
  8
0
  6
CONTINUOUS
 62
     7
100
AcDbCircle
 10
41.5165990791
 20
25.5826101079
 30
0.0
 40
0.2149999999999999
  0
CIRCLE
  5
1B6
330
1F
100
AcDbEntity
  8
0
  6
CONTINUOUS
 62
     7
100
AcDbCircle
 10
33.5165990791
 20
25.5826101079
 30
0.0
 40
0.2149999999999999
  0
CIRCLE
  5
1B7
330
1F
100
AcDbEntity
  8
0
  6
CONTINUOUS
 62
     7
100
AcDbCircle
 10
34.5165990791
 20
25.5826101079
 30
0.0
 40
0.2149999999999999
  0
CIRCLE
  5
1B8
330
1F
100
AcDbEntity
  8
0
  6
CONTINUOUS
 62
     7
100
AcDbCircle
 10
42.5165990791
 20
25.5826101079
 30
0.0
 40
0.2149999999999999
  0
CIRCLE
  5
1B9
330
1F
100
AcDbEntity
  8
0
  6
CONTINUOUS
 62
     7
100
AcDbCircle
 10
43.5165990791
 20
25.5826101079
 30
0.0
 40
0.2149999999999999
  0
LINE
  5
1BA
330
1F
100
AcDbEntity
  8
0
  6
CONTINUOUS
 62
     7
100
AcDbLine
 10
24.529099097
 20
21.9701101258
 30
0.0
 11
46.7540990612
 21
21.9701101258
 31
0.0
  0
LINE
  5
1BB
330
1F
100
AcDbEntity
  8
0
  6
CONTINUOUS
 62
     7
100
AcDbLine
 10
24.529099097
 20
44.1951100901
 30
0.0
 11
24.529099097
 21
21.9701101258
 31
0.0
  0
LINE
  5
1BC
330
1F
100
AcDbEntity
  8
0
  6
CONTINUOUS
 62
     7
100
AcDbLine
 10
46.7540990612
 20
44.1951100901
 30
0.0
 11
24.529099097
 21
44.1951100901
 31
0.0
  0
LINE
  5
1BD
330
1F
100
AcDbEntity
  8
0
  6
CONTINUOUS
 62
     7
100
AcDbLine
 10
46.7540990612
 20
21.9701101258
 30
0.0
 11
46.7540990612
 21
44.1951100901
 31
0.0
  0
CIRCLE
  5
1BE
330
1F
100
AcDbEntity
  8
0
  6
CONTINUOUS
 62
     7
100
AcDbCircle
 10
25.7790990791
 20
23.2201101079
 30
0.0
 40
0.8499999999999872
  0
CIRCLE
  5
1BF
330
1F
100
AcDbEntity
  8
0
  6
CONTINUOUS
 62
     7
100
AcDbCircle
 10
45.5040990791
 20
23.2201101079
 30
0.0
 40
0.8499999999999872
  0
CIRCLE
  5
1C0
330
1F
100
AcDbEntity
  8
0
  6
CONTINUOUS
 62
     7
100
AcDbCircle
 10
45.5040990791
 20
42.9451101079
 30
0.0
 40
0.8499999999999943
  0
CIRCLE
  5
1C1
330
1F
100
AcDbEntity
  8
0
  6
CONTINUOUS
 62
     7
100
AcDbCircle
 10
25.7790990791
 20
42.9451101079
 30
0.0
 40
0.8499999999999943
  0
CIRCLE
  5
1C2
330
1F
100
AcDbEntity
  8
0
  6
CONTINUOUS
 62
     7
100
AcDbCircle
 10
25.7790990791
 20
28.3001101079
 30
0.0
 40
0.4249999999999865
  0
CIRCLE
  5
1C3
330
1F
100
AcDbEntity
  8
0
  6
CONTINUOUS
 62
     7
100
AcDbCircle
 10
45.5040990791
 20
40.4051101079
 30
0.0
 40
0.4249999999999829
  0
ARC
  5
1C4
330
1F
100
AcDbEntity
  8
0
  6
HIDDEN
 62
     7
100
AcDbCircle
 10
34.8915990791
 20
38.8326101079
 30
0.0
 40
0.5
100
AcDbArc
 50
180.0
 51
270.0
  0
LINE
  5
1C5
330
1F
100
AcDbEntity
  8
0
  6
HIDDEN
 62
     7
100
AcDbLine
 10
34.391599107
 20
38.8326101191
 30
0.0
 11
34.391599107
 21
39.832610283
 31
0.0
  0
ARC
  5
1C6
330
1F
100
AcDbEntity
  8
0
  6
HIDDEN
 62
     7
100
AcDbCircle
 10
33.8915990791
 20
39.8326101079
 30
0.0
 40
0.5
100
AcDbArc
 50
0.0
 51
90.0
  0
LINE
  5
1C7
330
1F
100
AcDbEntity
  8
0
  6
HIDDEN
 62
     7
100
AcDbLine
 10
33.8915990251
 20
40.3326098993
 30
0.0
 11
32.391599012
 21
40.3326098993
 31
0.0
  0
ARC
  5
1C8
330
1F
100
AcDbEntity
  8
0
  6
HIDDEN
 62
     7
100
AcDbCircle
 10
32.3915990791
 20
39.8326101079
 30
0.0
 40
0.5
100
AcDbArc
 50
90.0
 51
180.0
  0
LINE
  5
1C9
330
1F
100
AcDbEntity
  8
0
  6
HIDDEN
 62
     7
100
AcDbLine
 10
31.8915991629
 20
39.832610283
 30
0.0
 11
31.8915991629
 21
27.1326099709
 31
0.0
  0
ARC
  5
1CA
330
1F
100
AcDbEntity
  8
0
  6
HIDDEN
 62
     7
100
AcDbCircle
 10
32.3915990791
 20
27.1326101079
 30
0.0
 40
0.5
100
AcDbArc
 50
180.0
 51
270.0
  0
LINE
  5
1CB
330
1F
100
AcDbEntity
  8
0
  6
HIDDEN
 62
     7
100
AcDbLine
 10
32.391599012
 20
26.6326098889
 30
0.0
 11
33.8915990251
 21
26.6326098889
 31
0.0
  0
ARC
  5
1CC
330
1F
100
AcDbEntity
  8
0
  6
HIDDEN
 62
     7
100
AcDbCircle
 10
33.8915990791
 20
27.1326101079
 30
0.0
 40
0.5
100
AcDbArc
 50
270.0
 51
0.0
  0
LINE
  5
1CD
330
1F
100
AcDbEntity
  8
0
  6
HIDDEN
 62
     7
100
AcDbLine
 10
34.391599107
 20
27.1326099709
 30
0.0
 11
34.391599107
 21
28.3326102607
 31
0.0
  0
ARC
  5
1CE
330
1F
100
AcDbEntity
  8
0
  6
HIDDEN
 62
     7
100
AcDbCircle
 10
34.8915990791
 20
28.3326101079
 30
0.0
 40
0.5
100
AcDbArc
 50
90.0
 51
180.0
  0
LINE
  5
1CF
330
1F
100
AcDbEntity
  8
0
  6
HIDDEN
 62
     7
100
AcDbLine
 10
34.8915990726
 20
28.832609877
 30
0.0
 11
37.1415990921
 21
28.832609877
 31
0.0
  0
ARC
  5
1D0
330
1F
100
AcDbEntity
  8
0
  6
HIDDEN
 62
     7
100
AcDbCircle
 10
37.1415990791
 20
28.3326101079
 30
0.0
 40
0.5
100
AcDbArc
 50
0.0
 51
90.0
  0
LINE
  5
1D1
330
1F
100
AcDbEntity
  8
0
  6
HIDDEN
 62
     7
100
AcDbLine
 10
37.6415991741
 20
28.3326102607
 30
0.0
 11
37.6415991741
 21
27.1326099709
 31
0.0
  0
ARC
  5
1D2
330
1F
100
AcDbEntity
  8
0
  6
HIDDEN
 62
     7
100
AcDbCircle
 10
38.1415990791
 20
27.1326101079
 30
0.0
 40
0.5
100
AcDbArc
 50
180.0
 51
270.0
  0
LINE
  5
1D3
330
1F
100
AcDbEntity
  8
0
  6
HIDDEN
 62
     7
100
AcDbLine
 10
38.1415990232
 20
26.6326098889
 30
0.0
 11
39.6415992691
 21
26.6326098889
 31
0.0
  0
ARC
  5
1D4
330
1F
100
AcDbEntity
  8
0
  6
HIDDEN
 62
     7
100
AcDbCircle
 10
39.6415990791
 20
27.1326101079
 30
0.0
 40
0.5
100
AcDbArc
 50
270.0
 51
0.0
  0
LINE
  5
1D5
330
1F
100
AcDbEntity
  8
0
  6
HIDDEN
 62
     7
100
AcDbLine
 10
40.1415988854
 20
27.1326099709
 30
0.0
 11
40.1415988854
 21
39.832610283
 31
0.0
  0
ARC
  5
1D6
330
1F
100
AcDbEntity
  8
0
  6
HIDDEN
 62
     7
100
AcDbCircle
 10
39.6415990791
 20
39.8326101079
 30
0.0
 40
0.5
100
AcDbArc
 50
0.0
 51
90.0
  0
LINE
  5
1D7
330
1F
100
AcDbEntity
  8
0
  6
HIDDEN
 62
     7
100
AcDbLine
 10
39.6415992691
 20
40.3326098993
 30
0.0
 11
38.1415990232
 21
40.3326098993
 31
0.0
  0
ARC
  5
1D8
330
1F
100
AcDbEntity
  8
0
  6
HIDDEN
 62
     7
100
AcDbCircle
 10
38.1415990791
 20
39.8326101079
 30
0.0
 40
0.5
100
AcDbArc
 50
90.0
 51
180.0
  0
LINE
  5
1D9
330
1F
100
AcDbEntity
  8
0
  6
HIDDEN
 62
     7
100
AcDbLine
 10
37.6415991741
 20
39.832610283
 30
0.0
 11
37.6415991741
 21
38.8326101191
 31
0.0
  0
ARC
  5
1DA
330
1F
100
AcDbEntity
  8
0
  6
HIDDEN
 62
     7
100
AcDbCircle
 10
37.1415990791
 20
38.8326101079
 30
0.0
 40
0.4999999999999929
100
AcDbArc
 50
270.0
 51
0.0
  0
LINE
  5
1DB
330
1F
100
AcDbEntity
  8
0
  6
HIDDEN
 62
     7
100
AcDbLine
 10
37.1415990921
 20
38.3326100372
 30
0.0
 11
34.8915990726
 21
38.3326100372
 31
0.0
  0
LINE
  5
1DC
330
1F
100
AcDbEntity
  8
LAYOUT
 62
     7
100
AcDbLine
 10
24.5290990791
 20
44.1951101079
 30
0.0
 11
24.5290990791
 21
21.9701101079
 31
0.0
  0
HATCH
  5
1DD
330
1F
100
AcDbEntity
  8
LAYOUT
 62
     7
100
AcDbHatch
 10
0.0
 20
0.0
 30
0.0
210
0.0
220
0.0
230
1.0
  2
SOLID
 70
     1
 71
     0
 91
        1
 92
        0
 93
        9
 72
     1
 10
30.11309907907869
 20
44.19511010794825
 11
28.26494564841932
 21
44.19511010794825
 72
     2
 10
28.26494564841932
 20
43.39511010794825
 40
0.7999999999999994
 50
90.0
 51
114.1278379784611
 73
     1
 72
     1
 10
27.93792650779489
 20
44.12521864896475
 11
30.00903173128107
 21
42.05411342547858
 72
     1
 10
30.00903173128107
 20
42.05411342547858
 11
32.54916642687633
 21
42.05411342547858
 72
     1
 10
32.54916642687633
 20
42.05411342547858
 11
34.31005038259637
 21
43.81499738119862
 72
     2
 10
33.62909907907874
 20
43.39511010794825
 40
0.8000000000000043
 50
31.65875785177086
 51
90.0
 73
     1
 72
     1
 10
33.62909907907874
 20
44.19511010794826
 11
32.44509907907872
 21
44.19511010794826
 72
     1
 10
32.44509907907872
 20
44.19511010794826
 11
31.2790990790787
 21
43.02911010794825
 72
     1
 10
31.2790990790787
 20
43.02911010794825
 11
30.11309907907869
 21
44.19511010794825
 97
        0
 75
     0
 76
     1
 98
        1
 10
0.0
 20
0.0
  0
INSERT
  5
1E3
102
{ACAD_REACTORS
330
1E5
102
}
330
1F
100
AcDbEntity
  8
LAYOUT
 62
     7
100
AcDbBlockReference
  2
SW_NOTE_5
 10
14.2793158862
 20
47.429425245
 30
0.0
  0
LEADER
  5
1E5
330
1F
100
AcDbEntity
  8
LAYOUT
 62
     7
100
AcDbLeader
  3
SLDDIMSTYLE0
 73
     2
 76
     3
 10
27.9379265078
 20
44.125218649
 30
0.0
 10
15.8668158862
 20
47.429425245
 30
0.0
 10
14.2793158862
 20
47.429425245
 30
0.0
340
1E3
1001
ACAD
1000
DSTYLE
1002
{
1070
     6
1000

1002
}
  0
INSERT
  5
20D
330
1F
100
AcDbEntity
  8
LAYOUT
 62
     7
100
AcDbBlockReference
  2
SW_CENTERMARKSYMBOL_0
 10
25.7790990791
 20
28.3001101079
 30
0.0
  0
LINE
  5
20E
330
1F
100
AcDbEntity
  8
LAYOUT
  6
CENTERX2
 62
     7
100
AcDbLine
 10
35.6415990791
 20
20.0951101079
 30
0.0
 11
35.6415990791
 21
46.0701101079
 31
0.0
  0
LINE
  5
20F
330
1F
100
AcDbEntity
  8
LAYOUT
  6
CENTERX2
 62
     7
100
AcDbLine
 10
22.6540990791
 20
33.0826101079
 30
0.0
 11
48.6290990791
 21
33.0826101079
 31
0.0
  0
ENDSEC
  0
SECTION
  2
OBJECTS
  0
DICTIONARY
  5
C
330
0
100
AcDbDictionary
  3
ACAD_GROUP
350
D
  3
ACAD_IMAGE_VARS
350
231
  3
ACAD_MLINESTYLE
350
17
  3
ACAD_SCALELIST
350
47
  3
APPDATA
350
22F
  3
DWGPROPS
350
232
  0
DICTIONARY
  5
D
102
{ACAD_REACTORS
330
C
102
}
330
C
100
AcDbDictionary
  0
RASTERVARIABLES
  5
231
102
{ACAD_REACTORS
330
C
102
}
330
C
100
AcDbRasterVariables
 90
        0
 70
     1
 71
     1
 72
     1
  0
DICTIONARY
  5
17
102
{ACAD_REACTORS
330
C
102
}
330
C
100
AcDbDictionary
  3
STANDARD
350
18
  0
DICTIONARY
  5
47
102
{ACAD_REACTORS
330
C
102
}
330
C
100
AcDbDictionary
  0
DICTIONARY
  5
22F
102
{ACAD_REACTORS
330
C
102
}
330
C
100
AcDbDictionary
  0
XRECORD
  5
232
102
{ACAD_REACTORS
330
C
102
}
330
C
100
AcDbXrecord
  1
DWGPROPS COOKIE
  2

  3

  4

  6

  7

  8
sueh
  9

300
=
301
=
302
=
303
=
304
=
305
=
306
=
307
=
308
=
309
=
 40
0.0
 41
2457183.816469954
 42
2457183.817026563
  1

 90
        0
  0
MLINESTYLE
  5
18
102
{ACAD_REACTORS
330
17
102
}
330
17
100
AcDbMlineStyle
  2
Standard
 70
     0
  3

 62
   256
 51
90.0
 52
90.0
 71
     2
 49
0.5
 62
   256
  6
BYLAYER
 49
-0.5
 62
   256
  6
BYLAYER
  0
ENDSEC
  0
EOF
