  0
SECTION
  2
HEADER
  9
$ACADVER
  1
AC1015
  9
$ACADMAINTVER
 70
     6
  9
$DWGCODEPAGE
  3
ANSI_1252
  9
$INSBASE
 10
0.0
 20
0.0
 30
0.0
  9
$EXTMIN
 10
0.0
 20
0.0
 30
0.0
  9
$EXTMAX
 10
74.5066666667
 20
57.5733333333
 30
0.0
  9
$LIMMIN
 10
0.0
 20
0.0
  9
$LIMMAX
 10
74.5066666667
 20
57.5733333333
  9
$ORTHOMODE
 70
     0
  9
$REGENMODE
 70
     1
  9
$FILLMODE
 70
     1
  9
$QTEXTMODE
 70
     0
  9
$MIRRTEXT
 70
     1
  9
$LTSCALE
 40
0.2666666667
  9
$ATTMODE
 70
     1
  9
$TEXTSIZE
 40
0.8466666667
  9
$TRACEWID
 40
1.0
  9
$TEXTSTYLE
  7
Standard
  9
$CLAYER
  8
0
  9
$CELTYPE
  6
ByLayer
  9
$CECOLOR
 62
   256
  9
$CELTSCALE
 40
1.0
  9
$DISPSILH
 70
     0
  9
$DIMSCALE
 40
1.0
  9
$DIMASZ
 40
0.8805333333
  9
$DIMEXO
 40
0.3386666667
  9
$DIMDLI
 40
3.75
  9
$DIMRND
 40
0.0
  9
$DIMDLE
 40
0.0
  9
$DIMEXE
 40
0.8466666667
  9
$DIMTP
 40
0.0
  9
$DIMTM
 40
0.0
  9
$DIMTXT
 40
0.8466666667
  9
$DIMCEN
 40
2.5
  9
$DIMTSZ
 40
0.0
  9
$DIMTOL
 70
     0
  9
$DIMLIM
 70
     0
  9
$DIMTIH
 70
     1
  9
$DIMTOH
 70
     1
  9
$DIMSE1
 70
     0
  9
$DIMSE2
 70
     0
  9
$DIMTAD
 70
     0
  9
$DIMZIN
 70
     1
  9
$DIMBLK
  1

  9
$DIMASO
 70
     1
  9
$DIMSHO
 70
     1
  9
$DIMPOST
  1

  9
$DIMAPOST
  1

  9
$DIMALT
 70
     0
  9
$DIMALTD
 70
     3
  9
$DIMALTF
 40
0.0393700787
  9
$DIMLFAC
 40
1.0
  9
$DIMTOFL
 70
     1
  9
$DIMTVP
 40
0.0
  9
$DIMTIX
 70
     0
  9
$DIMSOXD
 70
     0
  9
$DIMSAH
 70
     0
  9
$DIMBLK1
  1

  9
$DIMBLK2
  1

  9
$DIMSTYLE
  2
ISO-25
  9
$DIMCLRD
 70
     0
  9
$DIMCLRE
 70
     0
  9
$DIMCLRT
 70
     0
  9
$DIMTFAC
 40
1.0
  9
$DIMGAP
 40
0.4064
  9
$DIMJUST
 70
     0
  9
$DIMSD1
 70
     0
  9
$DIMSD2
 70
     0
  9
$DIMTOLJ
 70
     0
  9
$DIMTZIN
 70
     1
  9
$DIMALTZ
 70
     0
  9
$DIMALTTZ
 70
     0
  9
$DIMUPT
 70
     0
  9
$DIMDEC
 70
     2
  9
$DIMTDEC
 70
     2
  9
$DIMALTU
 70
     2
  9
$DIMALTTD
 70
     3
  9
$DIMTXSTY
  7
Standard
  9
$DIMAUNIT
 70
     0
  9
$DIMADEC
 70
     2
  9
$DIMALTRND
 40
0.0
  9
$DIMAZIN
 70
     0
  9
$DIMDSEP
 70
    44
  9
$DIMATFIT
 70
     3
  9
$DIMFRAC
 70
     0
  9
$DIMLDRBLK
  1

  9
$DIMLUNIT
 70
     2
  9
$DIMLWD
 70
    -2
  9
$DIMLWE
 70
    -2
  9
$DIMTMOVE
 70
     0
  9
$LUNITS
 70
     2
  9
$LUPREC
 70
     2
  9
$SKETCHINC
 40
1.0
  9
$FILLETRAD
 40
10.0
  9
$AUNITS
 70
     0
  9
$AUPREC
 70
     2
  9
$MENU
  1
.
  9
$ELEVATION
 40
0.0
  9
$PELEVATION
 40
0.0
  9
$THICKNESS
 40
0.0
  9
$LIMCHECK
 70
     0
  9
$CHAMFERA
 40
0.0
  9
$CHAMFERB
 40
0.0
  9
$CHAMFERC
 40
0.0
  9
$CHAMFERD
 40
0.0
  9
$SKPOLY
 70
     0
  9
$TDCREATE
 40
2457189.545983854
  9
$TDUCREATE
 40
2457189.754317188
  9
$TDUPDATE
 40
2457189.54598441
  9
$TDUUPDATE
 40
2457189.754317743
  9
$TDINDWG
 40
0.0000000116
  9
$TDUSRTIMER
 40
0.0000000116
  9
$USRTIMER
 70
     1
  9
$ANGBASE
 50
0.0
  9
$ANGDIR
 70
     0
  9
$PDMODE
 70
     0
  9
$PDSIZE
 40
-1.0
  9
$PLINEWID
 40
0.0
  9
$SPLFRAME
 70
     0
  9
$SPLINETYPE
 70
     6
  9
$SPLINESEGS
 70
     8
  9
$HANDSEED
  5
125
  9
$SURFTAB1
 70
     6
  9
$SURFTAB2
 70
     6
  9
$SURFTYPE
 70
     6
  9
$SURFU
 70
     6
  9
$SURFV
 70
     6
  9
$UCSBASE
  2

  9
$UCSNAME
  2

  9
$UCSORG
 10
0.0
 20
0.0
 30
0.0
  9
$UCSXDIR
 10
1.0
 20
0.0
 30
0.0
  9
$UCSYDIR
 10
0.0
 20
1.0
 30
0.0
  9
$UCSORTHOREF
  2

  9
$UCSORTHOVIEW
 70
     0
  9
$UCSORGTOP
 10
0.0
 20
0.0
 30
0.0
  9
$UCSORGBOTTOM
 10
0.0
 20
0.0
 30
0.0
  9
$UCSORGLEFT
 10
0.0
 20
0.0
 30
0.0
  9
$UCSORGRIGHT
 10
0.0
 20
0.0
 30
0.0
  9
$UCSORGFRONT
 10
0.0
 20
0.0
 30
0.0
  9
$UCSORGBACK
 10
0.0
 20
0.0
 30
0.0
  9
$PUCSBASE
  2

  9
$PUCSNAME
  2

  9
$PUCSORG
 10
0.0
 20
0.0
 30
0.0
  9
$PUCSXDIR
 10
1.0
 20
0.0
 30
0.0
  9
$PUCSYDIR
 10
0.0
 20
1.0
 30
0.0
  9
$PUCSORTHOREF
  2

  9
$PUCSORTHOVIEW
 70
     0
  9
$PUCSORGTOP
 10
0.0
 20
0.0
 30
0.0
  9
$PUCSORGBOTTOM
 10
0.0
 20
0.0
 30
0.0
  9
$PUCSORGLEFT
 10
0.0
 20
0.0
 30
0.0
  9
$PUCSORGRIGHT
 10
0.0
 20
0.0
 30
0.0
  9
$PUCSORGFRONT
 10
0.0
 20
0.0
 30
0.0
  9
$PUCSORGBACK
 10
0.0
 20
0.0
 30
0.0
  9
$USERI1
 70
     0
  9
$USERI2
 70
     0
  9
$USERI3
 70
     0
  9
$USERI4
 70
     0
  9
$USERI5
 70
     0
  9
$USERR1
 40
0.0
  9
$USERR2
 40
0.0
  9
$USERR3
 40
0.0
  9
$USERR4
 40
0.0
  9
$USERR5
 40
0.0
  9
$WORLDVIEW
 70
     1
  9
$SHADEDGE
 70
     3
  9
$SHADEDIF
 70
    70
  9
$TILEMODE
 70
     1
  9
$MAXACTVP
 70
    64
  9
$PINSBASE
 10
0.0
 20
0.0
 30
0.0
  9
$PLIMCHECK
 70
     0
  9
$PEXTMIN
 10
1.0000000000E+20
 20
1.0000000000E+20
 30
1.0000000000E+20
  9
$PEXTMAX
 10
-1.0000000000E+20
 20
-1.0000000000E+20
 30
-1.0000000000E+20
  9
$PLIMMIN
 10
0.0
 20
0.0
  9
$PLIMMAX
 10
420.0
 20
297.0
  9
$UNITMODE
 70
     0
  9
$VISRETAIN
 70
     1
  9
$PLINEGEN
 70
     0
  9
$PSLTSCALE
 70
     1
  9
$TREEDEPTH
 70
  3020
  9
$CMLSTYLE
  2
Standard
  9
$CMLJUST
 70
     0
  9
$CMLSCALE
 40
20.0
  9
$PROXYGRAPHICS
 70
     1
  9
$MEASUREMENT
 70
     1
  9
$CELWEIGHT
370
    -1
  9
$ENDCAPS
280
     0
  9
$JOINSTYLE
280
     0
  9
$LWDISPLAY
290
     1
  9
$INSUNITS
 70
     4
  9
$HYPERLINKBASE
  1

  9
$STYLESHEET
  1

  9
$XEDIT
290
     1
  9
$CEPSNTYPE
380
     0
  9
$PSTYLEMODE
290
     1
  9
$FINGERPRINTGUID
  2
{3631D5B2-B873-4ACF-9408-ED52D7750051}
  9
$VERSIONGUID
  2
{FAEB1C32-E019-11D5-929B-00C0DF256EC4}
  9
$EXTNAMES
290
     1
  9
$PSVPSCALE
 40
0.0
  9
$OLESTARTUP
290
     0
  0
ENDSEC
  0
SECTION
  2
CLASSES
  0
CLASS
  1
ACDBDICTIONARYWDFLT
  2
AcDbDictionaryWithDefault
  3
ObjectDBX Classes
 90
        0
280
     0
281
     0
  0
CLASS
  1
VISUALSTYLE
  2
AcDbVisualStyle
  3
ObjectDBX Classes
 90
     4095
280
     0
281
     0
  0
CLASS
  1
MATERIAL
  2
AcDbMaterial
  3
ObjectDBX Classes
 90
     1153
280
     0
281
     0
  0
CLASS
  1
SCALE
  2
AcDbScale
  3
ObjectDBX Classes
 90
     1153
280
     0
281
     0
  0
CLASS
  1
SUN
  2
AcDbSun
  3
SCENEOE
 90
     1153
280
     0
281
     0
  0
CLASS
  1
ACDBPLACEHOLDER
  2
AcDbPlaceHolder
  3
ObjectDBX Classes
 90
        0
280
     0
281
     0
  0
CLASS
  1
LAYOUT
  2
AcDbLayout
  3
ObjectDBX Classes
 90
        0
280
     0
281
     0
  0
ENDSEC
  0
SECTION
  2
TABLES
  0
TABLE
  2
VPORT
  5
8
330
0
100
AcDbSymbolTable
 70
     1
  0
VPORT
  5
29
330
8
100
AcDbSymbolTableRecord
100
AcDbViewportTableRecord
  2
*Active
 70
     0
 10
0.0
 20
0.0
 11
1.0
 21
1.0
 12
37.2533333333
 22
28.7866666667
 13
0.0
 23
0.0
 14
10.0
 24
10.0
 15
10.0
 25
10.0
 16
0.0
 26
0.0
 36
1.0
 17
0.0
 27
0.0
 37
0.0
 40
57.5733333333
 41
1.2941176471
 42
50.0
 43
0.0
 44
0.0
 50
0.0
 51
0.0
 71
     0
 72
  2000
 73
     1
 74
     3
 75
     0
 76
     0
 77
     0
 78
     0
281
     0
 65
     1
110
0.0
120
0.0
130
0.0
111
1.0
121
0.0
131
0.0
112
0.0
122
1.0
132
0.0
 79
     0
146
0.0
  0
ENDTAB
  0
TABLE
  2
LTYPE
  5
5
330
0
100
AcDbSymbolTable
 70
     6
  0
LTYPE
  5
14
330
5
100
AcDbSymbolTableRecord
100
AcDbLinetypeTableRecord
  2
ByBlock
 70
     0
  3

 72
    65
 73
     0
 40
0.0
  0
LTYPE
  5
15
330
5
100
AcDbSymbolTableRecord
100
AcDbLinetypeTableRecord
  2
ByLayer
 70
     0
  3

 72
    65
 73
     0
 40
0.0
  0
LTYPE
  5
16
330
5
100
AcDbSymbolTableRecord
100
AcDbLinetypeTableRecord
  2
Continuous
 70
     0
  3
Solid line
 72
    65
 73
     0
 40
0.0
  0
LTYPE
  5
6A
330
5
100
AcDbSymbolTableRecord
100
AcDbLinetypeTableRecord
  2
HIDDEN
 70
     0
  3
Hidden __ __ __ __ __ __ __ __ __ __ __ __ __ __
 72
    65
 73
     2
 40
1.905
 49
1.27
 74
     0
 49
-0.635
 74
     0
  0
LTYPE
  5
6B
330
5
100
AcDbSymbolTableRecord
100
AcDbLinetypeTableRecord
  2
PHANTOM
 70
     0
  3
Phantom ______  __  __  ______  __  __  ______
 72
    65
 73
     6
 40
12.7
 49
6.35
 74
     0
 49
-1.27
 74
     0
 49
1.27
 74
     0
 49
-1.27
 74
     0
 49
1.27
 74
     0
 49
-1.27
 74
     0
  0
LTYPE
  5
6C
330
5
100
AcDbSymbolTableRecord
100
AcDbLinetypeTableRecord
  2
CENTER
 70
     0
  3
Center ____ _ ____ _ ____ _ ____ _ ____ _ ____
 72
    65
 73
     4
 40
10.16
 49
6.35
 74
     0
 49
-1.27
 74
     0
 49
1.27
 74
     0
 49
-1.27
 74
     0
  0
LTYPE
  5
6D
330
5
100
AcDbSymbolTableRecord
100
AcDbLinetypeTableRecord
  2
CENTERX2
 70
     0
  3
Center (2x) ________  __  ________  __  _____
 72
    65
 73
     4
 40
20.32
 49
12.7
 74
     0
 49
-2.54
 74
     0
 49
2.54
 74
     0
 49
-2.54
 74
     0
  0
LTYPE
  5
6E
330
5
100
AcDbSymbolTableRecord
100
AcDbLinetypeTableRecord
  2
DOT2
 70
     0
  3
Dot (.5x) ........................................
 72
    65
 73
     2
 40
0.635
 49
0.0
 74
     0
 49
-0.635
 74
     0
  0
ENDTAB
  0
TABLE
  2
LAYER
  5
2
330
0
100
AcDbSymbolTable
 70
     9
  0
LAYER
  5
10
330
2
100
AcDbSymbolTableRecord
100
AcDbLayerTableRecord
  2
0
 70
     0
 62
     7
  6
Continuous
370
    -3
390
F
  0
LAYER
  5
6F
330
2
100
AcDbSymbolTableRecord
100
AcDbLayerTableRecord
  2
FORMAT
 70
     0
 62
     7
  6
Continuous
370
    -3
390
F
  0
LAYER
  5
70
330
2
100
AcDbSymbolTableRecord
100
AcDbLayerTableRecord
  2
SLD-0
 70
     0
 62
  -179
  6
Continuous
370
    -3
390
F
  0
LAYER
  5
71
330
2
100
AcDbSymbolTableRecord
100
AcDbLayerTableRecord
  2
SLD-DEFPOINTS
 70
     0
 62
  -179
  6
Continuous
370
    -3
390
F
  0
LAYER
  5
72
330
2
100
AcDbSymbolTableRecord
100
AcDbLayerTableRecord
  2
NONE
 70
     0
 62
   179
  6
Continuous
370
    -3
390
F
  0
LAYER
  5
73
330
2
100
AcDbSymbolTableRecord
100
AcDbLayerTableRecord
  2
DIMENSION
 70
     0
 62
   179
  6
Continuous
370
    -3
390
F
  0
LAYER
  5
74
330
2
100
AcDbSymbolTableRecord
100
AcDbLayerTableRecord
  2
SOLID_LINES
 70
     0
 62
  -179
  6
Continuous
370
    15
390
F
  0
LAYER
  5
75
330
2
100
AcDbSymbolTableRecord
100
AcDbLayerTableRecord
  2
PAGE_FRAME
 70
     0
 62
   179
  6
Continuous
370
    -3
390
F
  0
LAYER
  5
76
330
2
100
AcDbSymbolTableRecord
100
AcDbLayerTableRecord
  2
LAYOUT
 70
     0
 62
   179
  6
Continuous
370
    -3
390
F
  0
ENDTAB
  0
TABLE
  2
STYLE
  5
3
330
0
100
AcDbSymbolTable
 70
     1
  0
STYLE
  5
11
330
3
100
AcDbSymbolTableRecord
100
AcDbTextStyleTableRecord
  2
Standard
 70
     0
 40
0.0
 41
1.0
 50
0.0
 71
     0
 42
0.8466666667
  3
txt
  4

  0
ENDTAB
  0
TABLE
  2
VIEW
  5
6
330
0
100
AcDbSymbolTable
 70
     0
  0
ENDTAB
  0
TABLE
  2
UCS
  5
7
330
0
100
AcDbSymbolTable
 70
     0
  0
ENDTAB
  0
TABLE
  2
APPID
  5
9
330
0
100
AcDbSymbolTable
 70
     1
  0
APPID
  5
12
330
9
100
AcDbSymbolTableRecord
100
AcDbRegAppTableRecord
  2
ACAD
 70
     0
  0
ENDTAB
  0
TABLE
  2
DIMSTYLE
  5
A
330
0
100
AcDbSymbolTable
 70
     1
100
AcDbDimStyleTable
  0
DIMSTYLE
105
27
330
A
100
AcDbSymbolTableRecord
100
AcDbDimStyleTableRecord
  2
ISO-25
 70
     0
 41
2.5
 42
0.625
 43
3.75
 44
1.25
 73
     0
 74
     0
 77
     1
 78
     8
140
2.5
141
2.5
143
0.0393700787
147
0.625
171
     3
172
     1
178
     0
271
     2
272
     2
274
     3
278
    44
283
     0
284
     8
340
11
  0
ENDTAB
  0
TABLE
  2
BLOCK_RECORD
  5
1
330
0
100
AcDbSymbolTable
 70
     1
  0
BLOCK_RECORD
  5
1F
330
1
100
AcDbSymbolTableRecord
100
AcDbBlockTableRecord
  2
*Model_Space
340
22
  0
BLOCK_RECORD
  5
1B
330
1
100
AcDbSymbolTableRecord
100
AcDbBlockTableRecord
  2
*Paper_Space
340
1E
  0
BLOCK_RECORD
  5
23
330
1
100
AcDbSymbolTableRecord
100
AcDbBlockTableRecord
  2
*Paper_Space0
340
26
  0
ENDTAB
  0
ENDSEC
  0
SECTION
  2
BLOCKS
  0
BLOCK
  5
20
330
1F
100
AcDbEntity
  8
0
100
AcDbBlockBegin
  2
*Model_Space
 70
     0
 10
0.0
 20
0.0
 30
0.0
  3
*Model_Space
  1
*Model_Space
  0
ENDBLK
  5
21
330
1F
100
AcDbEntity
  8
0
100
AcDbBlockEnd
  0
BLOCK
  5
1C
330
1B
100
AcDbEntity
 67
     1
  8
0
100
AcDbBlockBegin
  2
*Paper_Space
 70
     0
 10
0.0
 20
0.0
 30
0.0
  3
*Paper_Space
  1
*Paper_Space
  0
ENDBLK
  5
1D
330
1B
100
AcDbEntity
 67
     1
  8
0
100
AcDbBlockEnd
  0
BLOCK
  5
24
330
23
100
AcDbEntity
  8
0
100
AcDbBlockBegin
  2
*Paper_Space0
 70
     0
 10
0.0
 20
0.0
 30
0.0
  3
*Paper_Space0
  1
*Paper_Space0
  0
ENDBLK
  5
25
330
23
100
AcDbEntity
  8
0
100
AcDbBlockEnd
  0
ENDSEC
  0
SECTION
  2
ENTITIES
  0
CIRCLE
  5
77
330
1F
100
AcDbEntity
  8
0
  6
Continuous
 62
     7
370
     0
100
AcDbCircle
 10
35.136136442
 20
36.0634964417
 30
0.0
 40
0.1250000000000071
  0
CIRCLE
  5
78
330
1F
100
AcDbEntity
  8
0
  6
Continuous
 62
     7
370
     0
100
AcDbCircle
 10
35.136136442
 20
37.2634964417
 30
0.0
 40
0.125
  0
CIRCLE
  5
79
330
1F
100
AcDbEntity
  8
0
  6
Continuous
 62
     7
370
     0
100
AcDbCircle
 10
33.136136442
 20
35.6634964417
 30
0.0
 40
0.1250000000000071
  0
CIRCLE
  5
7A
330
1F
100
AcDbEntity
  8
0
  6
Continuous
 62
     7
370
     0
100
AcDbCircle
 10
33.536136442
 20
35.6634964417
 30
0.0
 40
0.1250000000000071
  0
CIRCLE
  5
7B
330
1F
100
AcDbEntity
  8
0
  6
Continuous
 62
     7
370
     0
100
AcDbCircle
 10
33.936136442
 20
35.6634964417
 30
0.0
 40
0.1250000000000071
  0
CIRCLE
  5
7C
330
1F
100
AcDbEntity
  8
0
  6
Continuous
 62
     7
370
     0
100
AcDbCircle
 10
34.336136442
 20
35.6634964417
 30
0.0
 40
0.1250000000000071
  0
CIRCLE
  5
7D
330
1F
100
AcDbEntity
  8
0
  6
Continuous
 62
     7
370
     0
100
AcDbCircle
 10
34.736136442
 20
35.6634964417
 30
0.0
 40
0.1250000000000071
  0
CIRCLE
  5
7E
330
1F
100
AcDbEntity
  8
0
  6
Continuous
 62
     7
370
     0
100
AcDbCircle
 10
33.136136442
 20
37.6634964417
 30
0.0
 40
0.125
  0
CIRCLE
  5
7F
330
1F
100
AcDbEntity
  8
0
  6
Continuous
 62
     7
370
     0
100
AcDbCircle
 10
33.536136442
 20
37.6634964417
 30
0.0
 40
0.125
  0
CIRCLE
  5
80
330
1F
100
AcDbEntity
  8
0
  6
Continuous
 62
     7
370
     0
100
AcDbCircle
 10
33.936136442
 20
37.6634964417
 30
0.0
 40
0.125
  0
CIRCLE
  5
81
330
1F
100
AcDbEntity
  8
0
  6
Continuous
 62
     7
370
     0
100
AcDbCircle
 10
34.336136442
 20
37.6634964417
 30
0.0
 40
0.125
  0
CIRCLE
  5
82
330
1F
100
AcDbEntity
  8
0
  6
Continuous
 62
     7
370
     0
100
AcDbCircle
 10
34.736136442
 20
37.6634964417
 30
0.0
 40
0.125
  0
CIRCLE
  5
83
330
1F
100
AcDbEntity
  8
0
  6
Continuous
 62
     7
370
     0
100
AcDbCircle
 10
35.136136442
 20
37.6634964417
 30
0.0
 40
0.125
  0
CIRCLE
  5
84
330
1F
100
AcDbEntity
  8
0
  6
Continuous
 62
     7
370
     0
100
AcDbCircle
 10
33.136136442
 20
37.2634964417
 30
0.0
 40
0.125
  0
CIRCLE
  5
85
330
1F
100
AcDbEntity
  8
0
  6
Continuous
 62
     7
370
     0
100
AcDbCircle
 10
33.536136442
 20
37.2634964417
 30
0.0
 40
0.125
  0
CIRCLE
  5
86
330
1F
100
AcDbEntity
  8
0
  6
Continuous
 62
     7
370
     0
100
AcDbCircle
 10
33.936136442
 20
37.2634964417
 30
0.0
 40
0.125
  0
CIRCLE
  5
87
330
1F
100
AcDbEntity
  8
0
  6
Continuous
 62
     7
370
     0
100
AcDbCircle
 10
34.336136442
 20
37.2634964417
 30
0.0
 40
0.125
  0
CIRCLE
  5
88
330
1F
100
AcDbEntity
  8
0
  6
Continuous
 62
     7
370
     0
100
AcDbCircle
 10
34.736136442
 20
37.2634964417
 30
0.0
 40
0.125
  0
CIRCLE
  5
89
330
1F
100
AcDbEntity
  8
0
  6
Continuous
 62
     7
370
     0
100
AcDbCircle
 10
34.736136442
 20
34.8634964417
 30
0.0
 40
0.1250000000000071
  0
CIRCLE
  5
8A
330
1F
100
AcDbEntity
  8
0
  6
Continuous
 62
     7
370
     0
100
AcDbCircle
 10
33.136136442
 20
36.8634964417
 30
0.0
 40
0.1249999999999929
  0
CIRCLE
  5
8B
330
1F
100
AcDbEntity
  8
0
  6
Continuous
 62
     7
370
     0
100
AcDbCircle
 10
33.536136442
 20
36.8634964417
 30
0.0
 40
0.1249999999999929
  0
CIRCLE
  5
8C
330
1F
100
AcDbEntity
  8
0
  6
Continuous
 62
     7
370
     0
100
AcDbCircle
 10
33.936136442
 20
36.8634964417
 30
0.0
 40
0.1249999999999929
  0
CIRCLE
  5
8D
330
1F
100
AcDbEntity
  8
0
  6
Continuous
 62
     7
370
     0
100
AcDbCircle
 10
34.336136442
 20
36.8634964417
 30
0.0
 40
0.1249999999999929
  0
CIRCLE
  5
8E
330
1F
100
AcDbEntity
  8
0
  6
Continuous
 62
     7
370
     0
100
AcDbCircle
 10
34.736136442
 20
36.8634964417
 30
0.0
 40
0.1249999999999929
  0
CIRCLE
  5
8F
330
1F
100
AcDbEntity
  8
0
  6
Continuous
 62
     7
370
     0
100
AcDbCircle
 10
35.136136442
 20
36.8634964417
 30
0.0
 40
0.1249999999999929
  0
CIRCLE
  5
90
330
1F
100
AcDbEntity
  8
0
  6
Continuous
 62
     7
370
     0
100
AcDbCircle
 10
33.136136442
 20
36.4634964417
 30
0.0
 40
0.125
  0
CIRCLE
  5
91
330
1F
100
AcDbEntity
  8
0
  6
Continuous
 62
     7
370
     0
100
AcDbCircle
 10
33.536136442
 20
36.4634964417
 30
0.0
 40
0.125
  0
CIRCLE
  5
92
330
1F
100
AcDbEntity
  8
0
  6
Continuous
 62
     7
370
     0
100
AcDbCircle
 10
33.936136442
 20
36.4634964417
 30
0.0
 40
0.125
  0
CIRCLE
  5
93
330
1F
100
AcDbEntity
  8
0
  6
Continuous
 62
     7
370
     0
100
AcDbCircle
 10
34.336136442
 20
36.4634964417
 30
0.0
 40
0.125
  0
CIRCLE
  5
94
330
1F
100
AcDbEntity
  8
0
  6
Continuous
 62
     7
370
     0
100
AcDbCircle
 10
34.736136442
 20
36.4634964417
 30
0.0
 40
0.125
  0
CIRCLE
  5
95
330
1F
100
AcDbEntity
  8
0
  6
Continuous
 62
     7
370
     0
100
AcDbCircle
 10
35.136136442
 20
36.4634964417
 30
0.0
 40
0.125
  0
CIRCLE
  5
96
330
1F
100
AcDbEntity
  8
0
  6
Continuous
 62
     7
370
     0
100
AcDbCircle
 10
33.136136442
 20
36.0634964417
 30
0.0
 40
0.1250000000000071
  0
CIRCLE
  5
97
330
1F
100
AcDbEntity
  8
0
  6
Continuous
 62
     7
370
     0
100
AcDbCircle
 10
33.536136442
 20
36.0634964417
 30
0.0
 40
0.1250000000000071
  0
CIRCLE
  5
98
330
1F
100
AcDbEntity
  8
0
  6
Continuous
 62
     7
370
     0
100
AcDbCircle
 10
34.736136442
 20
36.0634964417
 30
0.0
 40
0.1250000000000071
  0
CIRCLE
  5
99
330
1F
100
AcDbEntity
  8
0
  6
Continuous
 62
     7
370
     0
100
AcDbCircle
 10
33.536136442
 20
35.2634964417
 30
0.0
 40
0.125
  0
CIRCLE
  5
9A
330
1F
100
AcDbEntity
  8
0
  6
Continuous
 62
     7
370
     0
100
AcDbCircle
 10
35.136136442
 20
34.8634964417
 30
0.0
 40
0.1250000000000071
  0
CIRCLE
  5
9B
330
1F
100
AcDbEntity
  8
0
  6
Continuous
 62
     7
370
     0
100
AcDbCircle
 10
33.136136442
 20
34.4634964417
 30
0.0
 40
0.1250000000000071
  0
CIRCLE
  5
9C
330
1F
100
AcDbEntity
  8
0
  6
Continuous
 62
     7
370
     0
100
AcDbCircle
 10
33.536136442
 20
34.4634964417
 30
0.0
 40
0.1250000000000071
  0
CIRCLE
  5
9D
330
1F
100
AcDbEntity
  8
0
  6
Continuous
 62
     7
370
     0
100
AcDbCircle
 10
33.936136442
 20
34.4634964417
 30
0.0
 40
0.1250000000000071
  0
CIRCLE
  5
9E
330
1F
100
AcDbEntity
  8
0
  6
Continuous
 62
     7
370
     0
100
AcDbCircle
 10
34.336136442
 20
34.4634964417
 30
0.0
 40
0.1250000000000071
  0
CIRCLE
  5
9F
330
1F
100
AcDbEntity
  8
0
  6
Continuous
 62
     7
370
     0
100
AcDbCircle
 10
35.136136442
 20
35.6634964417
 30
0.0
 40
0.1250000000000071
  0
CIRCLE
  5
A0
330
1F
100
AcDbEntity
  8
0
  6
Continuous
 62
     7
370
     0
100
AcDbCircle
 10
33.136136442
 20
35.2634964417
 30
0.0
 40
0.125
  0
CIRCLE
  5
A1
330
1F
100
AcDbEntity
  8
0
  6
Continuous
 62
     7
370
     0
100
AcDbCircle
 10
34.336136442
 20
34.8634964417
 30
0.0
 40
0.1250000000000071
  0
CIRCLE
  5
A2
330
1F
100
AcDbEntity
  8
0
  6
Continuous
 62
     7
370
     0
100
AcDbCircle
 10
33.936136442
 20
35.2634964417
 30
0.0
 40
0.125
  0
CIRCLE
  5
A3
330
1F
100
AcDbEntity
  8
0
  6
Continuous
 62
     7
370
     0
100
AcDbCircle
 10
34.336136442
 20
35.2634964417
 30
0.0
 40
0.125
  0
CIRCLE
  5
A4
330
1F
100
AcDbEntity
  8
0
  6
Continuous
 62
     7
370
     0
100
AcDbCircle
 10
34.736136442
 20
35.2634964417
 30
0.0
 40
0.125
  0
CIRCLE
  5
A5
330
1F
100
AcDbEntity
  8
0
  6
Continuous
 62
     7
370
     0
100
AcDbCircle
 10
35.136136442
 20
35.2634964417
 30
0.0
 40
0.125
  0
CIRCLE
  5
A6
330
1F
100
AcDbEntity
  8
0
  6
Continuous
 62
     7
370
     0
100
AcDbCircle
 10
33.136136442
 20
34.8634964417
 30
0.0
 40
0.1250000000000071
  0
CIRCLE
  5
A7
330
1F
100
AcDbEntity
  8
0
  6
Continuous
 62
     7
370
     0
100
AcDbCircle
 10
33.536136442
 20
34.8634964417
 30
0.0
 40
0.1250000000000071
  0
CIRCLE
  5
A8
330
1F
100
AcDbEntity
  8
0
  6
Continuous
 62
     7
370
     0
100
AcDbCircle
 10
33.936136442
 20
34.8634964417
 30
0.0
 40
0.1250000000000071
  0
CIRCLE
  5
A9
330
1F
100
AcDbEntity
  8
0
  6
Continuous
 62
     7
370
     0
100
AcDbCircle
 10
35.136136442
 20
34.4634964417
 30
0.0
 40
0.1250000000000071
  0
CIRCLE
  5
AA
330
1F
100
AcDbEntity
  8
0
  6
Continuous
 62
     7
370
     0
100
AcDbCircle
 10
34.736136442
 20
34.4634964417
 30
0.0
 40
0.1250000000000071
  0
ARC
  5
AB
330
1F
100
AcDbEntity
  8
0
  6
Continuous
 62
     7
370
     0
100
AcDbCircle
 10
37.4846569284
 20
29.6509964417
 30
0.0
 40
3.2
100
AcDbArc
 50
270.0
 51
293.4040394315
  0
ARC
  5
AC
330
1F
100
AcDbEntity
  8
0
  6
Continuous
 62
     7
370
     0
100
AcDbCircle
 10
30.7876159557
 20
29.6509964417
 30
0.0
 40
3.200000000000001
100
AcDbArc
 50
246.5959605685
 51
270.0
  0
ARC
  5
AD
330
1F
100
AcDbEntity
  8
0
  6
Continuous
 62
     7
370
     0
100
AcDbCircle
 10
29.0200199185
 20
25.5671129652
 30
0.0
 40
1.249999999999999
100
AcDbArc
 50
66.5959605685
 51
203.4040394315
  0
ARC
  5
AE
330
1F
100
AcDbEntity
  8
0
  6
Continuous
 62
     7
370
     0
100
AcDbCircle
 10
24.936136442
 20
23.7995169281
 30
0.0
 40
3.200000000000001
100
AcDbArc
 50
0.0
 51
23.4040394315
  0
ARC
  5
AF
330
1F
100
AcDbEntity
  8
0
  6
Continuous
 62
     7
370
     0
100
AcDbCircle
 10
23.536136442
 20
27.0758126218
 30
0.0
 40
1.6
100
AcDbArc
 50
0.0
 51
76.9052241919
  0
ARC
  5
B0
330
1F
100
AcDbEntity
  8
0
  6
Continuous
 62
     7
370
     0
100
AcDbCircle
 10
24.623636442
 20
31.7509964417
 30
0.0
 40
3.200000000000003
100
AcDbArc
 50
180.0
 51
256.9052241919
  0
LINE
  5
B1
330
1F
100
AcDbEntity
  8
0
  6
Continuous
 62
     7
370
     0
100
AcDbLine
 10
21.423636442
 20
40.3759964417
 30
0.0
 11
21.423636442
 21
31.7509964417
 31
0.0
  0
ARC
  5
B2
330
1F
100
AcDbEntity
  8
0
  6
Continuous
 62
     7
370
     0
100
AcDbCircle
 10
24.623636442
 20
40.3759964417
 30
0.0
 40
3.200000000000003
100
AcDbArc
 50
103.0947758081
 51
180.0
  0
ARC
  5
B3
330
1F
100
AcDbEntity
  8
0
  6
Continuous
 62
     7
370
     0
100
AcDbCircle
 10
23.536136442
 20
45.0511802616
 30
0.0
 40
1.600000000000004
100
AcDbArc
 50
283.0947758081
 51
0.0
  0
LINE
  5
B4
330
1F
100
AcDbEntity
  8
0
  6
Continuous
 62
     7
370
     0
100
AcDbLine
 10
25.136136442
 20
45.0511802616
 30
0.0
 11
25.136136442
 21
48.1759964417
 31
0.0
  0
LINE
  5
B5
330
1F
100
AcDbEntity
  8
0
  6
Continuous
 62
     7
370
     0
100
AcDbLine
 10
43.136136442
 20
48.1759964417
 30
0.0
 11
43.136136442
 21
45.0511802616
 31
0.0
  0
ARC
  5
B6
330
1F
100
AcDbEntity
  8
0
  6
Continuous
 62
     7
370
     0
100
AcDbCircle
 10
44.736136442
 20
45.0511802616
 30
0.0
 40
1.600000000000001
100
AcDbArc
 50
180.0
 51
256.9052241919
  0
LINE
  5
B7
330
1F
100
AcDbEntity
  8
0
  6
Continuous
 62
     7
370
     0
100
AcDbLine
 10
46.848636442
 20
31.7509964417
 30
0.0
 11
46.848636442
 21
40.3759964417
 31
0.0
  0
ARC
  5
B8
330
1F
100
AcDbEntity
  8
0
  6
Continuous
 62
     7
370
     0
100
AcDbCircle
 10
43.648636442
 20
31.7509964417
 30
0.0
 40
3.200000000000003
100
AcDbArc
 50
283.0947758081
 51
0.0
  0
ARC
  5
B9
330
1F
100
AcDbEntity
  8
0
  6
Continuous
 62
     7
370
     0
100
AcDbCircle
 10
44.736136442
 20
27.0758126218
 30
0.0
 40
1.600000000000001
100
AcDbArc
 50
103.0947758081
 51
180.0
  0
ARC
  5
BA
330
1F
100
AcDbEntity
  8
0
  6
Continuous
 62
     7
370
     0
100
AcDbCircle
 10
43.336136442
 20
23.7995169281
 30
0.0
 40
3.200000000000003
100
AcDbArc
 50
156.5959605685
 51
180.0
  0
ARC
  5
BB
330
1F
100
AcDbEntity
  8
0
  6
Continuous
 62
     7
370
     0
100
AcDbCircle
 10
39.2522529655
 20
25.5671129652
 30
0.0
 40
1.250000000000002
100
AcDbArc
 50
336.5959605685
 51
113.4040394315
  0
ARC
  5
BC
330
1F
100
AcDbEntity
  8
0
  6
Continuous
 62
     7
370
     0
100
AcDbCircle
 10
43.648636442
 20
40.3759964417
 30
0.0
 40
3.200000000000006
100
AcDbArc
 50
0.0
 51
76.9052241919
  0
LINE
  5
BD
330
1F
100
AcDbEntity
  8
0
  6
Continuous
 62
     7
370
     0
100
AcDbLine
 10
40.136136442
 20
21.9509964417
 30
0.0
 11
40.136136442
 21
23.7995169281
 31
0.0
  0
LINE
  5
BE
330
1F
100
AcDbEntity
  8
0
  6
Continuous
 62
     7
370
     0
100
AcDbLine
 10
37.4846569284
 20
26.4509964417
 30
0.0
 11
30.7876159557
 21
26.4509964417
 31
0.0
  0
LINE
  5
BF
330
1F
100
AcDbEntity
  8
0
  6
Continuous
 62
     7
370
     0
100
AcDbLine
 10
28.136136442
 20
23.7995169281
 30
0.0
 11
28.136136442
 21
21.9509964417
 31
0.0
  0
LINE
  5
C0
330
1F
100
AcDbEntity
  8
0
  6
Continuous
 62
     7
370
     0
100
AcDbLine
 10
25.136136442
 20
21.9509964417
 30
0.0
 11
25.136136442
 21
27.0758126218
 31
0.0
  0
LINE
  5
C1
330
1F
100
AcDbEntity
  8
0
  6
Continuous
 62
     7
370
     0
100
AcDbLine
 10
43.136136442
 20
27.0758126218
 30
0.0
 11
43.136136442
 21
21.9509964417
 31
0.0
  0
LINE
  5
C2
330
1F
100
AcDbEntity
  8
0
  6
Continuous
 62
     7
370
     0
100
AcDbLine
 10
25.136136442
 20
48.1759964417
 30
0.0
 11
25.136136442
 21
50.1759964417
 31
0.0
  0
LINE
  5
C3
330
1F
100
AcDbEntity
  8
0
  6
Continuous
 62
     7
370
     0
100
AcDbLine
 10
25.136136442
 20
50.1759964417
 30
0.0
 11
43.136136442
 21
50.1759964417
 31
0.0
  0
LINE
  5
C4
330
1F
100
AcDbEntity
  8
0
  6
Continuous
 62
     7
370
     0
100
AcDbLine
 10
43.136136442
 20
50.1759964417
 30
0.0
 11
43.136136442
 21
48.1759964417
 31
0.0
  0
LINE
  5
C5
330
1F
100
AcDbEntity
  8
0
  6
Continuous
 62
     7
370
     0
100
AcDbLine
 10
43.136136442
 20
19.9509964417
 30
0.0
 11
40.136136442
 21
19.9509964417
 31
0.0
  0
LINE
  5
C6
330
1F
100
AcDbEntity
  8
0
  6
Continuous
 62
     7
370
     0
100
AcDbLine
 10
40.136136442
 20
19.9509964417
 30
0.0
 11
40.136136442
 21
21.9509964417
 31
0.0
  0
LINE
  5
C7
330
1F
100
AcDbEntity
  8
0
  6
Continuous
 62
     7
370
     0
100
AcDbLine
 10
43.136136442
 20
21.9509964417
 30
0.0
 11
43.136136442
 21
19.9509964417
 31
0.0
  0
LINE
  5
C8
330
1F
100
AcDbEntity
  8
0
  6
Continuous
 62
     7
370
     0
100
AcDbLine
 10
28.136136442
 20
19.9509964417
 30
0.0
 11
25.136136442
 21
19.9509964417
 31
0.0
  0
LINE
  5
C9
330
1F
100
AcDbEntity
  8
0
  6
Continuous
 62
     7
370
     0
100
AcDbLine
 10
28.136136442
 20
21.9509964417
 30
0.0
 11
28.136136442
 21
19.9509964417
 31
0.0
  0
LINE
  5
CA
330
1F
100
AcDbEntity
  8
0
  6
Continuous
 62
     7
370
     0
100
AcDbLine
 10
25.136136442
 20
19.9509964417
 30
0.0
 11
25.136136442
 21
21.9509964417
 31
0.0
  0
LINE
  5
CB
330
1F
100
AcDbEntity
  8
0
  6
Continuous
 62
     7
370
     0
100
AcDbLine
 10
25.226136442
 20
37.6100733069
 30
0.0
 11
25.226136442
 21
34.5169195765
 31
0.0
  0
LINE
  5
CC
330
1F
100
AcDbEntity
  8
0
  6
Continuous
 62
     7
370
     0
100
AcDbLine
 10
43.046136442
 20
34.5169195765
 30
0.0
 11
43.046136442
 21
37.6100733069
 31
0.0
  0
LINE
  5
CD
330
1F
100
AcDbEntity
  8
0
  6
HIDDEN
 62
     7
370
     0
100
AcDbLine
 10
32.0191243135
 20
38.4731037425
 30
0.0
 11
32.4838342929
 21
39.058294087
 31
0.0
  0
CIRCLE
  5
CE
330
1F
100
AcDbEntity
  8
0
  6
Continuous
 62
     7
370
     0
100
AcDbCircle
 10
38.998636442
 20
38.9259964417
 30
0.0
 40
0.4250000000000043
  0
CIRCLE
  5
CF
330
1F
100
AcDbEntity
  8
0
  6
Continuous
 62
     7
370
     0
100
AcDbCircle
 10
29.273636442
 20
34.2009964417
 30
0.0
 40
0.4250000000000043
  0
LINE
  5
D0
330
1F
100
AcDbEntity
  8
0
  6
HIDDEN
 62
     7
370
     0
100
AcDbLine
 10
32.4838342929
 20
39.058294087
 30
0.0
 11
31.554414334
 21
39.058294087
 31
0.0
  0
LINE
  5
D1
330
1F
100
AcDbEntity
  8
0
  6
HIDDEN
 62
     7
370
     0
100
AcDbLine
 10
31.554414334
 20
39.058294087
 30
0.0
 11
32.0191243135
 21
38.4731037425
 31
0.0
  0
CIRCLE
  5
D2
330
1F
100
AcDbEntity
  8
0
  6
Continuous
 62
     7
370
     0
100
AcDbCircle
 10
38.998636442
 20
40.9259964417
 30
0.0
 40
0.8635999999999989
  0
CIRCLE
  5
D3
330
1F
100
AcDbEntity
  8
0
  6
HIDDEN
 62
     7
370
     0
100
AcDbCircle
 10
38.998636442
 20
40.9259964417
 30
0.0
 40
2.387599999999993
  0
CIRCLE
  5
D4
330
1F
100
AcDbEntity
  8
0
  6
HIDDEN
 62
     7
370
     0
100
AcDbCircle
 10
29.273636442
 20
31.2009964417
 30
0.0
 40
2.387599999999999
  0
CIRCLE
  5
D5
330
1F
100
AcDbEntity
  8
0
  6
Continuous
 62
     7
370
     0
100
AcDbCircle
 10
29.273636442
 20
31.2009964417
 30
0.0
 40
0.8635999999999981
  0
CIRCLE
  5
D6
330
1F
100
AcDbEntity
  8
0
  6
HIDDEN
 62
     7
370
     0
100
AcDbCircle
 10
38.998636442
 20
31.2009964417
 30
0.0
 40
2.387599999999999
  0
CIRCLE
  5
D7
330
1F
100
AcDbEntity
  8
0
  6
Continuous
 62
     7
370
     0
100
AcDbCircle
 10
38.998636442
 20
31.2009964417
 30
0.0
 40
0.8635999999999981
  0
CIRCLE
  5
D8
330
1F
100
AcDbEntity
  8
0
  6
Continuous
 62
     7
370
     0
100
AcDbCircle
 10
29.273636442
 20
40.9259964417
 30
0.0
 40
0.8635999999999981
  0
CIRCLE
  5
D9
330
1F
100
AcDbEntity
  8
0
  6
HIDDEN
 62
     7
370
     0
100
AcDbCircle
 10
29.273636442
 20
40.9259964417
 30
0.0
 40
2.387599999999999
  0
ARC
  5
DA
330
1F
100
AcDbEntity
  8
0
  6
HIDDEN
 62
     7
370
     0
100
AcDbCircle
 10
41.046136442
 20
48.1759964417
 30
0.0
 40
2.000000000000007
100
AcDbArc
 50
0.0
 51
90.0
  0
LINE
  5
DB
330
1F
100
AcDbEntity
  8
0
  6
HIDDEN
 62
     7
370
     0
100
AcDbLine
 10
25.226136442
 20
48.1759964417
 30
0.0
 11
25.226136442
 21
46.6759964417
 31
0.0
  0
ARC
  5
DC
330
1F
100
AcDbEntity
  8
0
  6
HIDDEN
 62
     7
370
     0
100
AcDbCircle
 10
27.226136442
 20
48.1759964417
 30
0.0
 40
2.000000000000007
100
AcDbArc
 50
90.0
 51
180.0
  0
LINE
  5
DD
330
1F
100
AcDbEntity
  8
0
  6
HIDDEN
 62
     7
370
     0
100
AcDbLine
 10
43.046136442
 20
46.6759964417
 30
0.0
 11
43.046136442
 21
48.1759964417
 31
0.0
  0
LINE
  5
DE
330
1F
100
AcDbEntity
  8
0
  6
HIDDEN
 62
     7
370
     0
100
AcDbLine
 10
25.226136442
 20
25.4509964417
 30
0.0
 11
25.226136442
 21
23.9509964417
 31
0.0
  0
ARC
  5
DF
330
1F
100
AcDbEntity
  8
0
  6
HIDDEN
 62
     7
370
     0
100
AcDbCircle
 10
41.046136442
 20
23.9509964417
 30
0.0
 40
2.0
100
AcDbArc
 50
345.5224878141
 51
0.0
  0
ARC
  5
E0
330
1F
100
AcDbEntity
  8
0
  6
HIDDEN
 62
     7
370
     0
100
AcDbCircle
 10
27.226136442
 20
23.9509964417
 30
0.0
 40
2.0
100
AcDbArc
 50
180.0
 51
194.4775121859
  0
LINE
  5
E1
330
1F
100
AcDbEntity
  8
0
  6
HIDDEN
 62
     7
370
     0
100
AcDbLine
 10
43.046136442
 20
23.9509964417
 30
0.0
 11
43.046136442
 21
25.4509964417
 31
0.0
  0
ARC
  5
E2
330
1F
100
AcDbEntity
  8
0
  6
HIDDEN
 62
     7
370
     0
100
AcDbCircle
 10
41.046136442
 20
23.9509964417
 30
0.0
 40
2.0
100
AcDbArc
 50
270.0
 51
345.5224878141
  0
ARC
  5
E3
330
1F
100
AcDbEntity
  8
0
  6
HIDDEN
 62
     7
370
     0
100
AcDbCircle
 10
27.226136442
 20
23.9509964417
 30
0.0
 40
2.000000000000004
100
AcDbArc
 50
194.4775121859
 51
270.0
  0
LINE
  5
E4
330
1F
100
AcDbEntity
  8
0
  6
HIDDEN
 62
     7
370
     0
100
AcDbLine
 10
27.4367583495
 20
41.7124189718
 30
0.0
 11
28.8295462752
 21
43.1052068975
 31
0.0
  0
ARC
  5
E5
330
1F
100
AcDbEntity
  8
0
  6
HIDDEN
 62
     7
370
     0
100
AcDbCircle
 10
28.4759928846
 20
43.4587602881
 30
0.0
 40
0.4999999999999939
100
AcDbArc
 50
315.0
 51
90.0
  0
LINE
  5
E6
330
1F
100
AcDbEntity
  8
0
  6
HIDDEN
 62
     7
370
     0
100
AcDbLine
 10
28.4759928846
 20
43.9587602881
 30
0.0
 11
27.0832049589
 21
43.9587602881
 31
0.0
  0
ARC
  5
E7
330
1F
100
AcDbEntity
  8
0
  6
HIDDEN
 62
     7
370
     0
100
AcDbCircle
 10
27.0832049589
 20
43.4587602881
 30
0.0
 40
0.5
100
AcDbArc
 50
90.0
 51
180.0
  0
LINE
  5
E8
330
1F
100
AcDbEntity
  8
0
  6
HIDDEN
 62
     7
370
     0
100
AcDbLine
 10
26.5832049589
 20
43.4587602881
 30
0.0
 11
26.5832049589
 21
42.0659723624
 31
0.0
  0
ARC
  5
E9
330
1F
100
AcDbEntity
  8
0
  6
HIDDEN
 62
     7
370
     0
100
AcDbCircle
 10
27.0832049589
 20
42.0659723624
 30
0.0
 40
0.5000000000000066
100
AcDbArc
 50
180.0
 51
315.0
  0
LINE
  5
EA
330
1F
100
AcDbEntity
  8
0
  6
HIDDEN
 62
     7
370
     0
100
AcDbLine
 10
25.226136442
 20
46.6759964417
 30
0.0
 11
25.226136442
 21
37.6100733069
 31
0.0
  0
LINE
  5
EB
330
1F
100
AcDbEntity
  8
0
  6
HIDDEN
 62
     7
370
     0
100
AcDbLine
 10
25.226136442
 20
34.5169195765
 30
0.0
 11
25.226136442
 21
25.4509964417
 31
0.0
  0
LINE
  5
EC
330
1F
100
AcDbEntity
  8
0
  6
HIDDEN
 62
     7
370
     0
100
AcDbLine
 10
43.046136442
 20
25.4509964417
 30
0.0
 11
43.046136442
 21
34.5169195765
 31
0.0
  0
LINE
  5
ED
330
1F
100
AcDbEntity
  8
0
  6
HIDDEN
 62
     7
370
     0
100
AcDbLine
 10
43.046136442
 20
37.6100733069
 30
0.0
 11
43.046136442
 21
46.6759964417
 31
0.0
  0
LINE
  5
EE
330
1F
100
AcDbEntity
  8
0
  6
HIDDEN
 62
     7
370
     0
100
AcDbLine
 10
28.023636442
 20
42.1759964417
 30
0.0
 11
40.248636442
 21
42.1759964417
 31
0.0
  0
LINE
  5
EF
330
1F
100
AcDbEntity
  8
0
  6
HIDDEN
 62
     7
370
     0
100
AcDbLine
 10
28.023636442
 20
29.9509964417
 30
0.0
 11
28.023636442
 21
42.1759964417
 31
0.0
  0
LINE
  5
F0
330
1F
100
AcDbEntity
  8
0
  6
HIDDEN
 62
     7
370
     0
100
AcDbLine
 10
40.248636442
 20
29.9509964417
 30
0.0
 11
28.023636442
 21
29.9509964417
 31
0.0
  0
LINE
  5
F1
330
1F
100
AcDbEntity
  8
0
  6
HIDDEN
 62
     7
370
     0
100
AcDbLine
 10
40.248636442
 20
42.1759964417
 30
0.0
 11
40.248636442
 21
29.9509964417
 31
0.0
  0
LINE
  5
F2
330
1F
100
AcDbEntity
  8
LAYOUT
 62
     7
100
AcDbLine
 10
28.136136442
 20
19.9509964417
 30
0.0
 11
40.136136442
 21
19.9509964417
 31
0.0
  0
LINE
  5
F3
330
1F
100
AcDbEntity
  8
LAYOUT
 62
     7
100
AcDbLine
 10
40.136136442
 20
19.9509964417
 30
0.0
 11
40.136136442
 21
26.4509964417
 31
0.0
  0
LINE
  5
F4
330
1F
100
AcDbEntity
  8
LAYOUT
 62
     7
100
AcDbLine
 10
40.136136442
 20
19.9509964417
 30
0.0
 11
43.136136442
 21
19.9509964417
 31
0.0
  0
LINE
  5
F5
330
1F
100
AcDbEntity
  8
LAYOUT
 62
     7
100
AcDbLine
 10
40.136136442
 20
26.4509964417
 30
0.0
 11
40.1231304514
 21
26.3689979379
 31
0.0
  0
LINE
  5
F6
330
1F
100
AcDbEntity
  8
LAYOUT
 62
     7
100
AcDbLine
 10
40.248636442
 20
29.9509964417
 30
0.0
 11
28.023636442
 21
29.9509964417
 31
0.0
  0
LINE
  5
F7
330
1F
100
AcDbEntity
  8
LAYOUT
 62
     7
100
AcDbLine
 10
28.136136442
 20
19.9509964417
 30
0.0
 11
28.136136442
 21
26.4509964417
 31
0.0
  0
LINE
  5
F8
330
1F
100
AcDbEntity
  8
LAYOUT
 62
     7
100
AcDbLine
 10
27.226136442
 20
50.1759964417
 30
0.0
 11
41.046136442
 21
50.1759964417
 31
0.0
  0
LINE
  5
F9
330
1F
100
AcDbEntity
  8
LAYOUT
 62
     7
100
AcDbLine
 10
43.046136442
 20
46.6759964417
 30
0.0
 11
43.046136442
 21
48.1759964417
 31
0.0
  0
LINE
  5
FA
330
1F
100
AcDbEntity
  8
LAYOUT
 62
     7
100
AcDbLine
 10
25.226136442
 20
48.1759964417
 30
0.0
 11
25.226136442
 21
46.6759964417
 31
0.0
  0
LINE
  5
FB
330
1F
100
AcDbEntity
  8
LAYOUT
 62
     7
100
AcDbLine
 10
43.046136442
 20
48.1759964417
 30
0.0
 11
43.046136442
 21
23.9509964417
 31
0.0
  0
LINE
  5
FC
330
1F
100
AcDbEntity
  8
LAYOUT
 62
     7
100
AcDbLine
 10
25.226136442
 20
25.4509964417
 30
0.0
 11
25.226136442
 21
23.9509964417
 31
0.0
  0
LINE
  5
FD
330
1F
100
AcDbEntity
  8
LAYOUT
 62
     7
100
AcDbLine
 10
28.136136442
 20
26.4509964417
 30
0.0
 11
28.136136442
 21
21.9509964417
 31
0.0
  0
LINE
  5
FE
330
1F
100
AcDbEntity
  8
LAYOUT
 62
     7
100
AcDbLine
 10
40.136136442
 20
26.4509964417
 30
0.0
 11
28.136136442
 21
26.4509964417
 31
0.0
  0
LINE
  5
FF
330
1F
100
AcDbEntity
  8
LAYOUT
 62
     7
100
AcDbLine
 10
40.136136442
 20
21.9509964417
 30
0.0
 11
40.136136442
 21
26.4509964417
 31
0.0
  0
LINE
  5
100
330
1F
100
AcDbEntity
  8
LAYOUT
 62
     7
100
AcDbLine
 10
40.136136442
 20
21.9509964417
 30
0.0
 11
41.046136442
 21
21.9509964417
 31
0.0
  0
LINE
  5
101
330
1F
100
AcDbEntity
  8
LAYOUT
 62
     7
100
AcDbLine
 10
43.046136442
 20
23.9509964417
 30
0.0
 11
43.046136442
 21
25.4509964417
 31
0.0
  0
LINE
  5
102
330
1F
100
AcDbEntity
  8
LAYOUT
 62
     7
100
AcDbLine
 10
28.023636442
 20
29.9509964417
 30
0.0
 11
28.023636442
 21
42.1759964417
 31
0.0
  0
LINE
  5
103
330
1F
100
AcDbEntity
  8
LAYOUT
 62
     7
100
AcDbLine
 10
40.248636442
 20
42.1759964417
 30
0.0
 11
40.248636442
 21
29.9509964417
 31
0.0
  0
LINE
  5
104
330
1F
100
AcDbEntity
  8
LAYOUT
 62
     7
100
AcDbLine
 10
28.023636442
 20
42.1759964417
 30
0.0
 11
40.248636442
 21
42.1759964417
 31
0.0
  0
LINE
  5
105
330
1F
100
AcDbEntity
  8
LAYOUT
 62
     7
100
AcDbLine
 10
25.226136442
 20
48.1759964417
 30
0.0
 11
25.226136442
 21
23.9509964417
 31
0.0
  0
LINE
  5
106
330
1F
100
AcDbEntity
  8
LAYOUT
 62
     7
100
AcDbLine
 10
27.226136442
 20
21.9509964417
 30
0.0
 11
28.136136442
 21
21.9509964417
 31
0.0
  0
LINE
  5
107
330
1F
100
AcDbEntity
  8
LAYOUT
 62
     7
100
AcDbLine
 10
25.136136442
 20
45.1759964417
 30
0.0
 11
25.136136442
 21
48.1759964417
 31
0.0
  0
LINE
  5
108
330
1F
100
AcDbEntity
  8
LAYOUT
 62
     7
100
AcDbLine
 10
22.998636442
 20
43.5759964417
 30
0.0
 11
23.536136442
 21
43.5759964417
 31
0.0
  0
LINE
  5
109
330
1F
100
AcDbEntity
  8
LAYOUT
 62
     7
100
AcDbLine
 10
43.136136442
 20
19.9509964417
 30
0.0
 11
40.136136442
 21
19.9509964417
 31
0.0
  0
LINE
  5
10A
330
1F
100
AcDbEntity
  8
LAYOUT
 62
     7
100
AcDbLine
 10
43.136136442
 20
26.9509964417
 30
0.0
 11
43.136136442
 21
21.9509964417
 31
0.0
  0
ARC
  5
10B
330
1F
100
AcDbEntity
  8
LAYOUT
 62
     7
100
AcDbCircle
 10
23.536136442
 20
45.1759964417
 30
0.0
 40
1.600000000000001
100
AcDbArc
 50
270.0
 51
0.0
  0
ARC
  5
10C
330
1F
100
AcDbEntity
  8
LAYOUT
 62
     7
100
AcDbCircle
 10
22.998636442
 20
41.9759964417
 30
0.0
 40
1.600000000000001
100
AcDbArc
 50
90.0
 51
180.0
  0
ARC
  5
10D
330
1F
100
AcDbEntity
  8
LAYOUT
 62
     7
100
AcDbCircle
 10
27.226136442
 20
48.1759964417
 30
0.0
 40
2.000000000000007
100
AcDbArc
 50
90.0
 51
180.0
  0
ARC
  5
10E
330
1F
100
AcDbEntity
  8
LAYOUT
 62
     7
100
AcDbCircle
 10
41.046136442
 20
48.1759964417
 30
0.0
 40
2.000000000000007
100
AcDbArc
 50
0.0
 51
90.0
  0
ARC
  5
10F
330
1F
100
AcDbEntity
  8
LAYOUT
 62
     7
100
AcDbCircle
 10
27.226136442
 20
23.9509964417
 30
0.0
 40
2.000000000000004
100
AcDbArc
 50
194.4775121859
 51
270.0
  0
ARC
  5
110
330
1F
100
AcDbEntity
  8
LAYOUT
 62
     7
100
AcDbCircle
 10
27.226136442
 20
23.9509964417
 30
0.0
 40
2.000000000000001
100
AcDbArc
 50
180.0
 51
194.4775121859
  0
ARC
  5
111
330
1F
100
AcDbEntity
  8
LAYOUT
 62
     7
100
AcDbCircle
 10
41.046136442
 20
23.9509964417
 30
0.0
 40
2.000000000000001
100
AcDbArc
 50
345.5224878141
 51
0.0
  0
ARC
  5
112
330
1F
100
AcDbEntity
  8
LAYOUT
 62
     7
100
AcDbCircle
 10
41.046136442
 20
23.9509964417
 30
0.0
 40
2.000000000000004
100
AcDbArc
 50
270.0
 51
345.5224878141
  0
HATCH
  5
113
330
1F
100
AcDbEntity
  8
LAYOUT
 62
   179
100
AcDbHatch
 10
0.0
 20
0.0
 30
0.0
210
0.0
220
0.0
230
1.0
  2
ANSI31
 70
     0
 71
     0
 91
        1
 92
        0
 93
        5
 72
     1
 10
40.13613644203315
 20
19.95099644172536
 11
43.13613644203315
 21
19.95099644172536
 72
     1
 10
43.13613644203315
 20
19.95099644172536
 11
43.13613644203315
 21
21.95099644172537
 72
     1
 10
43.13613644203315
 20
21.95099644172537
 11
41.04613644203314
 21
21.95099644172537
 72
     1
 10
41.04613644203314
 20
21.95099644172537
 11
40.13613644203315
 21
21.95099644172537
 72
     1
 10
40.13613644203315
 20
21.95099644172537
 11
40.13613644203315
 21
19.95099644172536
 97
        0
 75
     0
 76
     1
 52
0.0
 41
0.25
 77
     0
 78
     1
 53
45.0
 43
0.0
 44
0.0
 45
-0.561266007566822
 46
0.5612660075668221
 79
     0
 98
        1
 10
0.0
 20
0.0
  0
HATCH
  5
114
330
1F
100
AcDbEntity
  8
LAYOUT
 62
   179
100
AcDbHatch
 10
0.0
 20
0.0
 30
0.0
210
0.0
220
0.0
230
1.0
  2
ANSI31
 70
     0
 71
     0
 91
        1
 92
        0
 93
        4
 72
     1
 10
40.13613644203315
 20
19.95099644172536
 11
40.13613644203315
 21
26.45099644172537
 72
     1
 10
40.13613644203315
 20
26.45099644172537
 11
28.13613644203315
 21
26.45099644172537
 72
     1
 10
28.13613644203315
 20
26.45099644172537
 11
28.13613644203315
 21
19.95099644172536
 72
     1
 10
28.13613644203315
 20
19.95099644172536
 11
40.13613644203315
 21
19.95099644172536
 97
        0
 75
     0
 76
     1
 52
0.0
 41
0.0625
 77
     0
 78
     1
 53
45.0
 43
0.0
 44
0.0
 45
-0.1403165018917055
 46
0.1403165018917055
 79
     0
 98
        1
 10
0.0
 20
0.0
  0
HATCH
  5
115
330
1F
100
AcDbEntity
  8
LAYOUT
 62
   179
100
AcDbHatch
 10
0.0
 20
0.0
 30
0.0
210
0.0
220
0.0
230
1.0
  2
ANSI31
 70
     0
 71
     0
 91
        1
 92
        0
 93
        4
 72
     1
 10
25.22613644203313
 20
48.17599644172537
 11
43.04613644203313
 21
48.17599644172537
 72
     2
 10
41.04613644203313
 20
48.17599644172537
 40
1.999999999999999
 50
0.0
 51
90.0
 73
     1
 72
     1
 10
41.04613644203313
 20
50.17599644172538
 11
27.22613644203313
 21
50.17599644172538
 72
     2
 10
27.22613644203313
 20
48.17599644172537
 40
2.000000000000001
 50
90.0
 51
180.0
 73
     1
 97
        0
 75
     0
 76
     1
 52
90.0
 41
0.125
 77
     0
 78
     1
 53
135.0000000000002
 43
0.0
 44
0.0
 45
-0.2806330037834101
 46
-0.280633003783412
 79
     0
 98
        1
 10
0.0
 20
0.0
  0
HATCH
  5
116
330
1F
100
AcDbEntity
  8
LAYOUT
 62
   179
100
AcDbHatch
 10
0.0
 20
0.0
 30
0.0
210
0.0
220
0.0
230
1.0
  2
ANSI31
 70
     0
 71
     0
 91
        1
 92
        0
 93
        4
 72
     2
 10
27.22613644203313
 20
48.17599644172537
 40
2.0
 50
180.0
 51
270.0000000000008
 73
     0
 72
     1
 10
27.22613644203313
 20
50.17599644172538
 11
25.13613644203315
 21
50.17599644172538
 72
     1
 10
25.13613644203315
 20
50.17599644172538
 11
25.13613644203315
 21
48.17599644172537
 72
     1
 10
25.13613644203315
 20
48.17599644172537
 11
25.22613644203313
 21
48.17599644172537
 97
        0
 75
     0
 76
     1
 52
0.0
 41
0.25
 77
     0
 78
     1
 53
45.0
 43
0.0
 44
0.0
 45
-0.561266007566822
 46
0.5612660075668221
 79
     0
 98
        1
 10
0.0
 20
0.0
  0
HATCH
  5
117
330
1F
100
AcDbEntity
  8
LAYOUT
 62
   179
100
AcDbHatch
 10
0.0
 20
0.0
 30
0.0
210
0.0
220
0.0
230
1.0
  2
ANSI31
 70
     0
 71
     0
 91
        1
 92
        0
 93
        4
 72
     2
 10
41.04613644203314
 20
48.17599644172537
 40
1.999999999999998
 50
270.0000000000008
 51
360.0000000000008
 73
     0
 72
     1
 10
43.04613644203313
 20
48.17599644172537
 11
43.13613644203316
 21
48.17599644172537
 72
     1
 10
43.13613644203316
 20
48.17599644172537
 11
43.13613644203315
 21
50.17599644172538
 72
     1
 10
43.13613644203315
 20
50.17599644172538
 11
41.04613644203314
 21
50.17599644172538
 97
        0
 75
     0
 76
     1
 52
0.0
 41
0.25
 77
     0
 78
     1
 53
45.0
 43
0.0
 44
0.0
 45
-0.561266007566822
 46
0.5612660075668221
 79
     0
 98
        1
 10
0.0
 20
0.0
  0
HATCH
  5
118
330
1F
100
AcDbEntity
  8
LAYOUT
 62
   179
100
AcDbHatch
 10
0.0
 20
0.0
 30
0.0
210
0.0
220
0.0
230
1.0
  2
ANSI31
 70
     0
 71
     0
 91
        1
 92
        0
 93
       18
 72
     2
 10
25.63613644203315
 20
36.06349644172538
 40
2.999999999999999
 50
97.85500620341634
 51
262.1449937965845
 73
     0
 72
     1
 10
25.22613644203313
 20
39.03534771660438
 11
25.22613644203313
 21
46.67599644172537
 72
     1
 10
25.22613644203313
 20
46.67599644172537
 11
25.22613644203313
 21
48.17599644172537
 72
     1
 10
25.22613644203313
 20
48.17599644172537
 11
25.13613644203315
 21
48.17599644172537
 72
     1
 10
25.13613644203315
 20
48.17599644172537
 11
25.13613644203316
 21
45.17599644172537
 72
     2
 10
23.53613644203315
 20
45.17599644172537
 40
1.599999999999999
 50
0.0
 51
90.0
 73
     0
 72
     1
 10
23.53613644203315
 20
43.57599644172537
 11
22.99863644203315
 21
43.57599644172537
 72
     2
 10
22.99863644203315
 20
41.97599644172537
 40
1.600000000000003
 50
90.0
 51
180.0
 73
     1
 72
     1
 10
21.39863644203315
 20
41.97599644172537
 11
21.39863644203315
 21
30.15099644172537
 72
     2
 10
22.99863644203315
 20
30.15099644172537
 40
1.599999999999999
 50
180.0
 51
270.0000000000008
 73
     1
 72
     1
 10
22.99863644203315
 20
28.55099644172538
 11
23.53613644203315
 21
28.55099644172538
 72
     2
 10
23.53613644203315
 20
26.95099644172537
 40
1.600000000000003
 50
270.0000000000008
 51
360.0000000000008
 73
     0
 72
     1
 10
25.13613644203315
 20
26.95099644172537
 11
25.13613644203315
 21
21.95099644172537
 72
     1
 10
25.13613644203315
 20
21.95099644172537
 11
27.22613644203313
 21
21.95099644172537
 72
     2
 10
27.22613644203313
 20
23.95099644172538
 40
2.0
 50
90.0
 51
165.5224878140702
 73
     0
 72
     2
 10
27.22613644203313
 20
23.95099644172538
 40
1.999999999999998
 50
165.5224878140702
 51
180.0
 73
     0
 72
     1
 10
25.22613644203313
 20
23.95099644172538
 11
25.22613644203313
 21
25.45099644172537
 72
     1
 10
25.22613644203313
 20
25.45099644172537
 11
25.22613644203313
 21
33.09164516684637
 97
        0
 75
     0
 76
     1
 52
0.0
 41
0.25
 77
     0
 78
     1
 53
45.0
 43
0.0
 44
0.0
 45
-0.561266007566822
 46
0.5612660075668221
 79
     0
 98
        1
 10
0.0
 20
0.0
  0
HATCH
  5
119
330
1F
100
AcDbEntity
  8
LAYOUT
 62
   179
100
AcDbHatch
 10
0.0
 20
0.0
 30
0.0
210
0.0
220
0.0
230
1.0
  2
ANSI31
 70
     0
 71
     0
 91
        1
 92
        0
 93
       17
 72
     2
 10
42.63613644203316
 20
36.06349644172537
 40
2.999999999999993
 50
277.8550062034163
 51
442.1449937965853
 73
     0
 72
     1
 10
43.04613644203313
 20
33.09164516684636
 11
43.04613644203313
 21
23.95099644172538
 72
     2
 10
41.04613644203313
 20
23.95099644172538
 40
1.999999999999998
 50
0.0
 51
14.47751218592987
 73
     0
 72
     2
 10
41.04613644203313
 20
23.95099644172538
 40
1.999999999999998
 50
14.47751218592987
 51
89.9999999999998
 73
     0
 72
     1
 10
41.04613644203314
 20
21.95099644172537
 11
43.13613644203315
 21
21.95099644172537
 72
     1
 10
43.13613644203315
 20
21.95099644172537
 11
43.13613644203315
 21
26.95099644172537
 72
     2
 10
44.73613644203315
 20
26.95099644172537
 40
1.599999999999999
 50
180.0
 51
270.0000000000008
 73
     0
 72
     1
 10
44.73613644203315
 20
28.55099644172537
 11
45.27363644203314
 21
28.55099644172537
 72
     2
 10
45.27363644203314
 20
30.15099644172537
 40
1.600000000000003
 50
270.0000000000008
 51
360.0000000000008
 73
     1
 72
     1
 10
46.87363644203315
 20
30.15099644172537
 11
46.87363644203315
 21
41.97599644172537
 72
     2
 10
45.27363644203314
 20
41.97599644172537
 40
1.600000000000004
 50
0.0
 51
90.0
 73
     1
 72
     1
 10
45.27363644203314
 20
43.57599644172537
 11
44.73613644203315
 21
43.57599644172537
 72
     2
 10
44.73613644203315
 20
45.17599644172537
 40
1.600000000000001
 50
90.0
 51
180.0
 73
     0
 72
     1
 10
43.13613644203315
 20
45.17599644172537
 11
43.13613644203316
 21
48.17599644172537
 72
     1
 10
43.13613644203316
 20
48.17599644172537
 11
43.04613644203313
 21
48.17599644172537
 72
     1
 10
43.04613644203313
 20
48.17599644172537
 11
43.04613644203313
 21
46.67599644172537
 72
     1
 10
43.04613644203313
 20
46.67599644172537
 11
43.04613644203313
 21
39.03534771660438
 97
        0
 75
     0
 76
     1
 52
0.0
 41
0.25
 77
     0
 78
     1
 53
45.0
 43
0.0
 44
0.0
 45
-0.561266007566822
 46
0.5612660075668221
 79
     0
 98
        1
 10
0.0
 20
0.0
  0
HATCH
  5
11A
330
1F
100
AcDbEntity
  8
LAYOUT
 62
   179
100
AcDbHatch
 10
0.0
 20
0.0
 30
0.0
210
0.0
220
0.0
230
1.0
  2
ANSI31
 70
     0
 71
     0
 91
        1
 92
        0
 93
        4
 72
     2
 10
42.63613644203315
 20
36.06349644172537
 40
1.599999999999994
 50
284.847666147396
 51
435.1523338526058
 73
     0
 72
     1
 10
43.04613644203313
 20
34.51691957651627
 11
43.04613644203313
 21
33.09164516684636
 72
     2
 10
42.63613644203315
 20
36.06349644172537
 40
2.999999999999992
 50
277.8550062034165
 51
442.1449937965851
 73
     1
 72
     1
 10
43.04613644203313
 20
39.03534771660437
 11
43.04613644203313
 21
37.61007330693446
 97
        0
 75
     0
 76
     1
 52
0.0
 41
0.25
 77
     0
 78
     1
 53
45.0
 43
0.0
 44
0.0
 45
-0.561266007566822
 46
0.5612660075668221
 79
     0
 98
        1
 10
0.0
 20
0.0
  0
HATCH
  5
11B
330
1F
100
AcDbEntity
  8
LAYOUT
 62
   179
100
AcDbHatch
 10
0.0
 20
0.0
 30
0.0
210
0.0
220
0.0
230
1.0
  2
ANSI31
 70
     0
 71
     0
 91
        1
 92
        0
 93
        4
 72
     2
 10
25.63613644203315
 20
36.06349644172538
 40
1.600000000000002
 50
104.8476661473963
 51
255.1523338526045
 73
     0
 72
     1
 10
25.22613644203313
 20
37.61007330693447
 11
25.22613644203313
 21
39.03534771660438
 72
     2
 10
25.63613644203315
 20
36.06349644172538
 40
2.999999999999999
 50
97.85500620341628
 51
262.1449937965845
 73
     1
 72
     1
 10
25.22613644203313
 20
33.09164516684637
 11
25.22613644203313
 21
34.51691957651628
 97
        0
 75
     0
 76
     1
 52
0.0
 41
0.25
 77
     0
 78
     1
 53
45.0
 43
0.0
 44
0.0
 45
-0.561266007566822
 46
0.5612660075668221
 79
     0
 98
        1
 10
0.0
 20
0.0
  0
HATCH
  5
11C
330
1F
100
AcDbEntity
  8
LAYOUT
 62
   179
100
AcDbHatch
 10
0.0
 20
0.0
 30
0.0
210
0.0
220
0.0
230
1.0
  2
ANSI31
 70
     0
 71
     0
 91
        1
 92
        0
 93
        2
 72
     1
 10
25.22613644203313
 20
34.51691957651628
 11
25.22613644203313
 21
37.61007330693447
 72
     2
 10
25.63613644203315
 20
36.06349644172538
 40
1.600000000000002
 50
104.8476661473963
 51
255.1523338526046
 73
     1
 97
        0
 75
     0
 76
     1
 52
0.0
 41
0.25
 77
     0
 78
     1
 53
45.0
 43
0.0
 44
0.0
 45
-0.561266007566822
 46
0.5612660075668221
 79
     0
 98
        1
 10
0.0
 20
0.0
  0
HATCH
  5
11D
330
1F
100
AcDbEntity
  8
LAYOUT
 62
   179
100
AcDbHatch
 10
0.0
 20
0.0
 30
0.0
210
0.0
220
0.0
230
1.0
  2
ANSI31
 70
     0
 71
     0
 91
        1
 92
        0
 93
        5
 72
     1
 10
27.22613644203313
 20
21.95099644172537
 11
25.13613644203315
 21
21.95099644172537
 72
     1
 10
25.13613644203315
 20
21.95099644172537
 11
25.13613644203315
 21
19.95099644172538
 72
     1
 10
25.13613644203315
 20
19.95099644172538
 11
28.13613644203315
 21
19.95099644172536
 72
     1
 10
28.13613644203315
 20
19.95099644172536
 11
28.13613644203315
 21
21.95099644172537
 72
     1
 10
28.13613644203315
 20
21.95099644172537
 11
27.22613644203313
 21
21.95099644172537
 97
        0
 75
     0
 76
     1
 52
0.0
 41
0.25
 77
     0
 78
     1
 53
45.0
 43
0.0
 44
0.0
 45
-0.561266007566822
 46
0.5612660075668221
 79
     0
 98
        1
 10
0.0
 20
0.0
  0
HATCH
  5
11E
330
1F
100
AcDbEntity
  8
LAYOUT
 62
   179
100
AcDbHatch
 10
0.0
 20
0.0
 30
0.0
210
0.0
220
0.0
230
1.0
  2
ANSI31
 70
     0
 71
     0
 91
        1
 92
        0
 93
        2
 72
     1
 10
43.04613644203313
 20
37.61007330693446
 11
43.04613644203313
 21
34.51691957651627
 72
     2
 10
42.63613644203315
 20
36.06349644172537
 40
1.599999999999994
 50
284.847666147396
 51
435.1523338526056
 73
     1
 97
        0
 75
     0
 76
     1
 52
0.0
 41
0.25
 77
     0
 78
     1
 53
45.0
 43
0.0
 44
0.0
 45
-0.561266007566822
 46
0.5612660075668221
 79
     0
 98
        1
 10
0.0
 20
0.0
  0
HATCH
  5
11F
330
1F
100
AcDbEntity
  8
LAYOUT
 62
   179
100
AcDbHatch
 10
0.0
 20
0.0
 30
0.0
210
0.0
220
0.0
230
1.0
  2
ANSI31
 70
     0
 71
     0
 91
        1
 92
        0
 93
       10
 72
     2
 10
42.63613644203315
 20
36.06349644172537
 40
2.999999999999992
 50
217.2659629264947
 51
277.8550062034165
 73
     0
 72
     1
 10
43.04613644203313
 20
39.03534771660437
 11
43.04613644203313
 21
46.67599644172537
 72
     1
 10
43.04613644203313
 20
46.67599644172537
 11
43.04613644203313
 21
48.17599644172537
 72
     1
 10
43.04613644203313
 20
48.17599644172537
 11
25.22613644203313
 21
48.17599644172537
 72
     1
 10
25.22613644203313
 20
48.17599644172537
 11
25.22613644203313
 21
46.67599644172537
 72
     1
 10
25.22613644203313
 20
46.67599644172537
 11
25.22613644203313
 21
39.03534771660438
 72
     2
 10
25.63613644203315
 20
36.06349644172538
 40
2.999999999999999
 50
262.1449937965845
 51
322.7340370735066
 73
     0
 72
     1
 10
28.02363644203314
 20
37.88004364727772
 11
28.02363644203314
 21
42.17599644172537
 72
     1
 10
28.02363644203314
 20
42.17599644172537
 11
40.24863644203315
 21
42.17599644172537
 72
     1
 10
40.24863644203315
 20
42.17599644172537
 11
40.24863644203315
 21
37.88004364727769
 97
        0
 75
     0
 76
     1
 52
90.0
 41
0.125
 77
     0
 78
     1
 53
135.0000000000002
 43
0.0
 44
0.0
 45
-0.2806330037834101
 46
-0.280633003783412
 79
     0
 98
        1
 10
0.0
 20
0.0
  0
HATCH
  5
120
330
1F
100
AcDbEntity
  8
LAYOUT
 62
   179
100
AcDbHatch
 10
0.0
 20
0.0
 30
0.0
210
0.0
220
0.0
230
1.0
  2
ANSI31
 70
     0
 71
     0
 91
        1
 92
        0
 93
        2
 72
     1
 10
25.22613644203313
 20
37.61007330693447
 11
25.22613644203313
 21
34.51691957651628
 72
     2
 10
25.63613644203315
 20
36.06349644172538
 40
1.600000000000002
 50
255.1523338526046
 51
464.8476661473971
 73
     1
 97
        0
 75
     0
 76
     1
 52
90.0
 41
0.125
 77
     0
 78
     1
 53
135.0000000000002
 43
0.0
 44
0.0
 45
-0.2806330037834101
 46
-0.280633003783412
 79
     0
 98
        1
 10
0.0
 20
0.0
  0
HATCH
  5
121
330
1F
100
AcDbEntity
  8
LAYOUT
 62
   179
100
AcDbHatch
 10
0.0
 20
0.0
 30
0.0
210
0.0
220
0.0
230
1.0
  2
ANSI31
 70
     0
 71
     0
 91
        1
 92
        0
 93
        6
 72
     2
 10
25.63613644203315
 20
36.06349644172538
 40
1.600000000000002
 50
255.1523338526045
 51
464.8476661473971
 73
     0
 72
     1
 10
25.22613644203313
 20
34.51691957651628
 11
25.22613644203313
 21
33.09164516684637
 72
     2
 10
25.63613644203315
 20
36.06349644172538
 40
2.999999999999999
 50
262.1449937965845
 51
322.7340370735066
 73
     1
 72
     1
 10
28.02363644203314
 20
34.24694923617304
 11
28.02363644203314
 21
37.88004364727772
 72
     2
 10
25.63613644203315
 20
36.06349644172538
 40
2.999999999999999
 50
37.26596292649432
 51
97.85500620341628
 73
     1
 72
     1
 10
25.22613644203313
 20
39.03534771660438
 11
25.22613644203313
 21
37.61007330693447
 97
        0
 75
     0
 76
     1
 52
90.0
 41
0.125
 77
     0
 78
     1
 53
135.0000000000002
 43
0.0
 44
0.0
 45
-0.2806330037834101
 46
-0.280633003783412
 79
     0
 98
        1
 10
0.0
 20
0.0
  0
HATCH
  5
122
330
1F
100
AcDbEntity
  8
LAYOUT
 62
   179
100
AcDbHatch
 10
0.0
 20
0.0
 30
0.0
210
0.0
220
0.0
230
1.0
  2
ANSI31
 70
     0
 71
     0
 91
        1
 92
        0
 93
        2
 72
     1
 10
43.04613644203313
 20
34.51691957651627
 11
43.04613644203313
 21
37.61007330693446
 72
     2
 10
42.63613644203315
 20
36.06349644172537
 40
1.599999999999994
 50
75.1523338526048
 51
284.847666147396
 73
     1
 97
        0
 75
     0
 76
     1
 52
90.0
 41
0.125
 77
     0
 78
     1
 53
135.0000000000002
 43
0.0
 44
0.0
 45
-0.2806330037834101
 46
-0.280633003783412
 79
     0
 98
        1
 10
0.0
 20
0.0
  0
HATCH
  5
123
330
1F
100
AcDbEntity
  8
LAYOUT
 62
   179
100
AcDbHatch
 10
0.0
 20
0.0
 30
0.0
210
0.0
220
0.0
230
1.0
  2
ANSI31
 70
     0
 71
     0
 91
        1
 92
        0
 93
        6
 72
     2
 10
42.63613644203315
 20
36.06349644172537
 40
1.599999999999994
 50
75.15233385260485
 51
284.847666147396
 73
     0
 72
     1
 10
43.04613644203313
 20
37.61007330693446
 11
43.04613644203313
 21
39.03534771660437
 72
     2
 10
42.63613644203315
 20
36.06349644172537
 40
2.999999999999992
 50
82.14499379658433
 51
142.7340370735061
 73
     1
 72
     1
 10
40.24863644203315
 20
37.88004364727769
 11
40.24863644203315
 21
34.24694923617305
 72
     2
 10
42.63613644203315
 20
36.06349644172537
 40
2.999999999999992
 50
217.2659629264947
 51
277.8550062034165
 73
     1
 72
     1
 10
43.04613644203313
 20
33.09164516684636
 11
43.04613644203313
 21
34.51691957651627
 97
        0
 75
     0
 76
     1
 52
90.0
 41
0.125
 77
     0
 78
     1
 53
135.0000000000002
 43
0.0
 44
0.0
 45
-0.2806330037834101
 46
-0.280633003783412
 79
     0
 98
        1
 10
0.0
 20
0.0
  0
HATCH
  5
124
330
1F
100
AcDbEntity
  8
LAYOUT
 62
   179
100
AcDbHatch
 10
0.0
 20
0.0
 30
0.0
210
0.0
220
0.0
230
1.0
  2
ANSI31
 70
     0
 71
     0
 91
        1
 92
        0
 93
       17
 72
     2
 10
42.63613644203316
 20
36.06349644172537
 40
2.999999999999993
 50
82.14499379658447
 51
142.7340370735063
 73
     0
 72
     1
 10
40.24863644203315
 20
34.24694923617306
 11
40.24863644203315
 21
29.95099644172537
 72
     1
 10
40.24863644203315
 20
29.95099644172537
 11
28.02363644203314
 21
29.95099644172537
 72
     1
 10
28.02363644203314
 20
29.95099644172537
 11
28.02363644203314
 21
34.24694923617304
 72
     2
 10
25.63613644203315
 20
36.06349644172538
 40
2.999999999999999
 50
37.26596292649436
 51
97.85500620341634
 73
     0
 72
     1
 10
25.22613644203313
 20
33.09164516684637
 11
25.22613644203313
 21
25.45099644172537
 72
     1
 10
25.22613644203313
 20
25.45099644172537
 11
25.22613644203313
 21
23.95099644172538
 72
     2
 10
27.22613644203313
 20
23.95099644172538
 40
1.999999999999998
 50
180.0
 51
194.4775121859306
 73
     1
 72
     2
 10
27.22613644203313
 20
23.95099644172538
 40
2.0
 50
194.4775121859306
 51
270.0000000000008
 73
     1
 72
     1
 10
27.22613644203313
 20
21.95099644172537
 11
28.13613644203315
 21
21.95099644172537
 72
     1
 10
28.13613644203315
 20
21.95099644172537
 11
28.13613644203315
 21
26.45099644172537
 72
     1
 10
28.13613644203315
 20
26.45099644172537
 11
40.13613644203315
 21
26.45099644172537
 72
     1
 10
40.13613644203315
 20
26.45099644172537
 11
40.13613644203315
 21
21.95099644172537
 72
     1
 10
40.13613644203315
 20
21.95099644172537
 11
41.04613644203314
 21
21.95099644172537
 72
     2
 10
41.04613644203313
 20
23.95099644172538
 40
1.999999999999998
 50
270.000000000001
 51
345.5224878140709
 73
     1
 72
     2
 10
41.04613644203313
 20
23.95099644172538
 40
1.999999999999998
 50
345.5224878140709
 51
360.0000000000008
 73
     1
 72
     1
 10
43.04613644203313
 20
23.95099644172538
 11
43.04613644203313
 21
33.09164516684636
 97
        0
 75
     0
 76
     1
 52
90.0
 41
0.125
 77
     0
 78
     1
 53
135.0000000000002
 43
0.0
 44
0.0
 45
-0.2806330037834101
 46
-0.280633003783412
 79
     0
 98
        1
 10
0.0
 20
0.0
  0
ENDSEC
  0
SECTION
  2
OBJECTS
  0
DICTIONARY
  5
C
330
0
100
AcDbDictionary
281
     1
  3
ACAD_GROUP
350
D
  3
ACAD_LAYOUT
350
1A
  3
ACAD_MLINESTYLE
350
17
  3
ACAD_PLOTSETTINGS
350
19
  3
ACAD_PLOTSTYLENAME
350
E
  3
ACAD_SCALELIST
350
47
  0
DICTIONARY
  5
D
102
{ACAD_REACTORS
330
C
102
}
330
C
100
AcDbDictionary
281
     1
  0
DICTIONARY
  5
1A
102
{ACAD_REACTORS
330
C
102
}
330
C
100
AcDbDictionary
281
     1
  3
Layout1
350
1E
  3
Layout2
350
26
  3
Model
350
22
  0
DICTIONARY
  5
17
102
{ACAD_REACTORS
330
C
102
}
330
C
100
AcDbDictionary
281
     1
  3
Standard
350
18
  0
DICTIONARY
  5
19
102
{ACAD_REACTORS
330
C
102
}
330
C
100
AcDbDictionary
281
     1
  0
ACDBDICTIONARYWDFLT
  5
E
102
{ACAD_REACTORS
330
C
102
}
330
C
100
AcDbDictionary
281
     1
  3
Normal
350
F
100
AcDbDictionaryWithDefault
340
F
  0
DICTIONARY
  5
47
102
{ACAD_REACTORS
330
C
102
}
330
C
100
AcDbDictionary
281
     1
  3
A0
350
48
  3
A1
350
49
  3
A2
350
4A
  3
A3
350
4B
  3
A4
350
4C
  3
A5
350
4D
  3
A6
350
4E
  3
A7
350
4F
  3
A8
350
50
  3
A9
350
51
  3
B0
350
52
  3
B1
350
53
  3
B2
350
54
  3
B3
350
55
  3
B4
350
56
  3
B5
350
57
  3
B6
350
58
  3
B7
350
59
  3
B8
350
5A
  3
B9
350
5B
  3
C0
350
5C
  3
C1
350
5D
  3
C2
350
5E
  3
C3
350
5F
  3
C4
350
60
  3
C5
350
61
  3
C6
350
62
  3
C7
350
63
  3
C8
350
64
  3
C9
350
65
  3
D0
350
66
  3
D1
350
67
  3
D2
350
68
  0
LAYOUT
  5
1E
102
{ACAD_REACTORS
330
1A
102
}
330
1A
100
AcDbPlotSettings
  1

  2
none_device
  4

  6

 40
0.0
 41
0.0
 42
0.0
 43
0.0
 44
0.0
 45
0.0
 46
0.0
 47
0.0
 48
0.0
 49
0.0
140
0.0
141
0.0
142
1.0
143
1.0
 70
   688
 72
     1
 73
     0
 74
     5
  7

 75
    16
147
1.0
148
0.0
149
0.0
100
AcDbLayout
  1
Layout1
 70
     1
 71
     1
 10
0.0
 20
0.0
 11
420.0
 21
297.0
 12
0.0
 22
0.0
 32
0.0
 14
1.0000000000E+20
 24
1.0000000000E+20
 34
1.0000000000E+20
 15
-1.0000000000E+20
 25
-1.0000000000E+20
 35
-1.0000000000E+20
146
0.0
 13
0.0
 23
0.0
 33
0.0
 16
1.0
 26
0.0
 36
0.0
 17
0.0
 27
1.0
 37
0.0
 76
     0
330
1B
  0
LAYOUT
  5
26
102
{ACAD_REACTORS
330
1A
102
}
330
1A
100
AcDbPlotSettings
  1

  2
none_device
  4

  6

 40
0.0
 41
0.0
 42
0.0
 43
0.0
 44
0.0
 45
0.0
 46
0.0
 47
0.0
 48
0.0
 49
0.0
140
0.0
141
0.0
142
1.0
143
1.0
 70
   688
 72
     1
 73
     0
 74
     5
  7

 75
    16
147
1.0
148
0.0
149
0.0
100
AcDbLayout
  1
Layout2
 70
     1
 71
     2
 10
0.0
 20
0.0
 11
0.0
 21
0.0
 12
0.0
 22
0.0
 32
0.0
 14
0.0
 24
0.0
 34
0.0
 15
0.0
 25
0.0
 35
0.0
146
0.0
 13
0.0
 23
0.0
 33
0.0
 16
1.0
 26
0.0
 36
0.0
 17
0.0
 27
1.0
 37
0.0
 76
     0
330
23
  0
LAYOUT
  5
22
102
{ACAD_REACTORS
330
1A
102
}
330
1A
100
AcDbPlotSettings
  1

  2
none_device
  4
Letter_(8.50_x_11.00_Inches)
  6

 40
6.35
 41
6.35
 42
6.35000508
 43
6.35000508
 44
215.9
 45
279.4
 46
0.0
 47
0.0
 48
0.0
 49
0.0
140
0.0
141
0.0
142
1.0
143
1.0
 70
  1712
 72
     1
 73
     0
 74
     0
  7

 75
     0
147
1.0
148
0.0
149
0.0
100
AcDbLayout
  1
Model
 70
     1
 71
     0
 10
0.0
 20
0.0
 11
74.5066666667
 21
57.5733333333
 12
0.0
 22
0.0
 32
0.0
 14
0.0
 24
0.0
 34
0.0
 15
74.5066666667
 25
57.5733333333
 35
0.0
146
0.0
 13
0.0
 23
0.0
 33
0.0
 16
1.0
 26
0.0
 36
0.0
 17
0.0
 27
1.0
 37
0.0
 76
     0
330
1F
331
29
  0
MLINESTYLE
  5
18
102
{ACAD_REACTORS
330
17
102
}
330
17
100
AcDbMlineStyle
  2
Standard
 70
     0
  3

 62
   256
 51
90.0
 52
90.0
 71
     2
 49
0.5
 62
   256
  6
BYLAYER
 49
-0.5
 62
   256
  6
BYLAYER
  0
ACDBPLACEHOLDER
  5
F
102
{ACAD_REACTORS
330
E
102
}
330
E
  0
SCALE
  5
48
102
{ACAD_REACTORS
330
47
102
}
330
47
100
AcDbScale
 70
     0
300
1:1
140
1.0
141
1.0
290
     1
  0
SCALE
  5
49
102
{ACAD_REACTORS
330
47
102
}
330
47
100
AcDbScale
 70
     0
300
1:2
140
1.0
141
2.0
290
     0
  0
SCALE
  5
4A
102
{ACAD_REACTORS
330
47
102
}
330
47
100
AcDbScale
 70
     0
300
1:4
140
1.0
141
4.0
290
     0
  0
SCALE
  5
4B
102
{ACAD_REACTORS
330
47
102
}
330
47
100
AcDbScale
 70
     0
300
1:5
140
1.0
141
5.0
290
     0
  0
SCALE
  5
4C
102
{ACAD_REACTORS
330
47
102
}
330
47
100
AcDbScale
 70
     0
300
1:8
140
1.0
141
8.0
290
     0
  0
SCALE
  5
4D
102
{ACAD_REACTORS
330
47
102
}
330
47
100
AcDbScale
 70
     0
300
1:10
140
1.0
141
10.0
290
     0
  0
SCALE
  5
4E
102
{ACAD_REACTORS
330
47
102
}
330
47
100
AcDbScale
 70
     0
300
1:16
140
1.0
141
16.0
290
     0
  0
SCALE
  5
4F
102
{ACAD_REACTORS
330
47
102
}
330
47
100
AcDbScale
 70
     0
300
1:20
140
1.0
141
20.0
290
     0
  0
SCALE
  5
50
102
{ACAD_REACTORS
330
47
102
}
330
47
100
AcDbScale
 70
     0
300
1:30
140
1.0
141
30.0
290
     0
  0
SCALE
  5
51
102
{ACAD_REACTORS
330
47
102
}
330
47
100
AcDbScale
 70
     0
300
1:40
140
1.0
141
40.0
290
     0
  0
SCALE
  5
52
102
{ACAD_REACTORS
330
47
102
}
330
47
100
AcDbScale
 70
     0
300
1:50
140
1.0
141
50.0
290
     0
  0
SCALE
  5
53
102
{ACAD_REACTORS
330
47
102
}
330
47
100
AcDbScale
 70
     0
300
1:100
140
1.0
141
100.0
290
     0
  0
SCALE
  5
54
102
{ACAD_REACTORS
330
47
102
}
330
47
100
AcDbScale
 70
     0
300
2:1
140
2.0
141
1.0
290
     0
  0
SCALE
  5
55
102
{ACAD_REACTORS
330
47
102
}
330
47
100
AcDbScale
 70
     0
300
4:1
140
4.0
141
1.0
290
     0
  0
SCALE
  5
56
102
{ACAD_REACTORS
330
47
102
}
330
47
100
AcDbScale
 70
     0
300
8:1
140
8.0
141
1.0
290
     0
  0
SCALE
  5
57
102
{ACAD_REACTORS
330
47
102
}
330
47
100
AcDbScale
 70
     0
300
10:1
140
10.0
141
1.0
290
     0
  0
SCALE
  5
58
102
{ACAD_REACTORS
330
47
102
}
330
47
100
AcDbScale
 70
     0
300
100:1
140
100.0
141
1.0
290
     0
  0
SCALE
  5
59
102
{ACAD_REACTORS
330
47
102
}
330
47
100
AcDbScale
 70
     0
300
1/128" = 1'-0"
140
0.0078125
141
12.0
290
     0
  0
SCALE
  5
5A
102
{ACAD_REACTORS
330
47
102
}
330
47
100
AcDbScale
 70
     0
300
1/64" = 1'-0"
140
0.015625
141
12.0
290
     0
  0
SCALE
  5
5B
102
{ACAD_REACTORS
330
47
102
}
330
47
100
AcDbScale
 70
     0
300
1/32" = 1'-0"
140
0.03125
141
12.0
290
     0
  0
SCALE
  5
5C
102
{ACAD_REACTORS
330
47
102
}
330
47
100
AcDbScale
 70
     0
300
1/16" = 1'-0"
140
0.0625
141
12.0
290
     0
  0
SCALE
  5
5D
102
{ACAD_REACTORS
330
47
102
}
330
47
100
AcDbScale
 70
     0
300
3/32" = 1'-0"
140
0.09375
141
12.0
290
     0
  0
SCALE
  5
5E
102
{ACAD_REACTORS
330
47
102
}
330
47
100
AcDbScale
 70
     0
300
1/8" = 1'-0"
140
0.125
141
12.0
290
     0
  0
SCALE
  5
5F
102
{ACAD_REACTORS
330
47
102
}
330
47
100
AcDbScale
 70
     0
300
3/16" = 1'-0"
140
0.1875
141
12.0
290
     0
  0
SCALE
  5
60
102
{ACAD_REACTORS
330
47
102
}
330
47
100
AcDbScale
 70
     0
300
1/4" = 1'-0"
140
0.25
141
12.0
290
     0
  0
SCALE
  5
61
102
{ACAD_REACTORS
330
47
102
}
330
47
100
AcDbScale
 70
     0
300
3/8" = 1'-0"
140
0.375
141
12.0
290
     0
  0
SCALE
  5
62
102
{ACAD_REACTORS
330
47
102
}
330
47
100
AcDbScale
 70
     0
300
1/2" = 1'-0"
140
0.5
141
12.0
290
     0
  0
SCALE
  5
63
102
{ACAD_REACTORS
330
47
102
}
330
47
100
AcDbScale
 70
     0
300
3/4" = 1'-0"
140
0.75
141
12.0
290
     0
  0
SCALE
  5
64
102
{ACAD_REACTORS
330
47
102
}
330
47
100
AcDbScale
 70
     0
300
1" = 1'-0"
140
1.0
141
12.0
290
     0
  0
SCALE
  5
65
102
{ACAD_REACTORS
330
47
102
}
330
47
100
AcDbScale
 70
     0
300
1-1/2" = 1'-0"
140
1.5
141
12.0
290
     0
  0
SCALE
  5
66
102
{ACAD_REACTORS
330
47
102
}
330
47
100
AcDbScale
 70
     0
300
3" = 1'-0"
140
3.0
141
12.0
290
     0
  0
SCALE
  5
67
102
{ACAD_REACTORS
330
47
102
}
330
47
100
AcDbScale
 70
     0
300
6" = 1'-0"
140
6.0
141
12.0
290
     0
  0
SCALE
  5
68
102
{ACAD_REACTORS
330
47
102
}
330
47
100
AcDbScale
 70
     0
300
1'-0" = 1'-0"
140
12.0
141
12.0
290
     0
  0
ENDSEC
  0
EOF
