  0
SECTION
  2
HEADER
  9
$ACADVER
  1
AC1015
  9
$ACADMAINTVER
 70
               6
  9
$DWGCODEPAGE
  3
ANSI_1252
  9
$INSBASE
 10
0.0
 20
0.0
 30
0.0
  9
$EXTMIN
 10
-21.107020310286153
 20
-25.09003312808693
 30
-1.3546666666666665
  9
$EXTMAX
 10
26.390960890494984
 20
16.876500183197777
 30
1.3546666666666665
  9
$LIMMIN
 10
0.0
 20
0.0
  9
$LIMMAX
 10
0.0
 20
0.0
  9
$ORTHOMODE
 70
               0
  9
$REGENMODE
 70
               1
  9
$FILLMODE
 70
               1
  9
$QTEXTMODE
 70
               0
  9
$MIRRTEXT
 70
               1
  9
$LTSCALE
 40
5.0800000000000001
  9
$ATTMODE
 70
               1
  9
$TEXTSIZE
 40
0.2
  9
$TRACEWID
 40
1.0
  9
$TEXTSTYLE
  7
Standard
  9
$CLAYER
  8
None
  9
$CELTYPE
  6
Continuous
  9
$CECOLOR
 62
             256
  9
$CELTSCALE
 40
1.0
  9
$DISPSILH
 70
               0
  9
$DIMSCALE
 40
1.0
  9
$DIMASZ
 40
0.18
  9
$DIMEXO
 40
0.0625
  9
$DIMDLI
 40
0.38
  9
$DIMRND
 40
0.0
  9
$DIMDLE
 40
0.0
  9
$DIMEXE
 40
0.18
  9
$DIMTP
 40
0.0
  9
$DIMTM
 40
0.0
  9
$DIMTXT
 40
0.18
  9
$DIMCEN
 40
0.09
  9
$DIMTSZ
 40
0.0
  9
$DIMTOL
 70
               0
  9
$DIMLIM
 70
               0
  9
$DIMTIH
 70
               1
  9
$DIMTOH
 70
               1
  9
$DIMSE1
 70
               0
  9
$DIMSE2
 70
               0
  9
$DIMTAD
 70
               0
  9
$DIMZIN
 70
               0
  9
$DIMBLK
  1

  9
$DIMASO
 70
               1
  9
$DIMSHO
 70
               1
  9
$DIMPOST
  1

  9
$DIMAPOST
  1

  9
$DIMALT
 70
               0
  9
$DIMALTD
 70
               2
  9
$DIMALTF
 40
25.399999999999999
  9
$DIMLFAC
 40
1.0
  9
$DIMTOFL
 70
               0
  9
$DIMTVP
 40
0.0
  9
$DIMTIX
 70
               0
  9
$DIMSOXD
 70
               0
  9
$DIMSAH
 70
               0
  9
$DIMBLK1
  1

  9
$DIMBLK2
  1

  9
$DIMSTYLE
  2
Standard
  9
$DIMCLRD
 70
               0
  9
$DIMCLRE
 70
               0
  9
$DIMCLRT
 70
               0
  9
$DIMTFAC
 40
1.0
  9
$DIMGAP
 40
0.09
  9
$DIMJUST
 70
               0
  9
$DIMSD1
 70
               0
  9
$DIMSD2
 70
               0
  9
$DIMTOLJ
 70
               1
  9
$DIMTZIN
 70
               0
  9
$DIMALTZ
 70
               0
  9
$DIMALTTZ
 70
               0
  9
$DIMUPT
 70
               0
  9
$DIMDEC
 70
               4
  9
$DIMTDEC
 70
               4
  9
$DIMALTU
 70
               2
  9
$DIMALTTD
 70
               2
  9
$DIMTXSTY
  7
Standard
  9
$DIMAUNIT
 70
               0
  9
$DIMADEC
 70
               0
  9
$DIMALTRND
 40
0.0
  9
$DIMAZIN
 70
               0
  9
$DIMDSEP
 70
               0
  9
$DIMATFIT
 70
               3
  9
$DIMFRAC
 70
               0
  9
$DIMLDRBLK
  1

  9
$DIMLUNIT
 70
               2
  9
$DIMLWD
 70
               0
  9
$DIMLWE
 70
               0
  9
$DIMTMOVE
 70
               0
  9
$LUNITS
 70
               2
  9
$LUPREC
 70
               4
  9
$SKETCHINC
 40
0.1
  9
$FILLETRAD
 40
0.0
  9
$AUNITS
 70
               0
  9
$AUPREC
 70
               0
  9
$MENU
  1
acad
  9
$ELEVATION
 40
0.0
  9
$PELEVATION
 40
0.0
  9
$THICKNESS
 40
0.0
  9
$LIMCHECK
 70
               0
  9
$CHAMFERA
 40
0.0
  9
$CHAMFERB
 40
0.0
  9
$CHAMFERC
 40
0.0
  9
$CHAMFERD
 40
0.0
  9
$SKPOLY
 70
               0
  9
$TDCREATE
 40
2456791.278032408
  9
$TDUCREATE
 40
0.000000000
  9
$TDUPDATE
 40
2456791.278032408
  9
$TDUUPDATE
 40
0.000000000
  9
$TDINDWG
 40
0.0000000000
  9
$TDUSRTIMER
 40
0.0000000000
  9
$USRTIMER
 70
               1
  9
$ANGBASE
 50
0.0
  9
$ANGDIR
 70
               0
  9
$PDMODE
 70
               1
  9
$PDSIZE
 40
-2.0
  9
$PLINEWID
 40
0.0
  9
$SPLFRAME
 70
               0
  9
$SPLINETYPE
 70
               6
  9
$SPLINESEGS
 70
               8
  9
$HANDSEED
  5
117
  9
$SURFTAB1
 70
               6
  9
$SURFTAB2
 70
               6
  9
$SURFTYPE
 70
               6
  9
$SURFU
 70
               6
  9
$SURFV
 70
               6
  9
$UCSBASE
  2

  9
$UCSNAME
  2

  9
$UCSORG
 10
0.0
 20
0.0
 30
0.0
  9
$UCSXDIR
 10
1.0
 20
0.0
 30
0.0
  9
$UCSYDIR
 10
0.0
 20
1.0
 30
0.0
  9
$UCSORTHOREF
  2

  9
$UCSORTHOVIEW
 70
               0
  9
$UCSORGTOP
 10
0.0
 20
0.0
 30
0.0
  9
$UCSORGBOTTOM
 10
0.0
 20
0.0
 30
0.0
  9
$UCSORGLEFT
 10
0.0
 20
0.0
 30
0.0
  9
$UCSORGRIGHT
 10
0.0
 20
0.0
 30
0.0
  9
$UCSORGFRONT
 10
0.0
 20
0.0
 30
0.0
  9
$UCSORGBACK
 10
0.0
 20
0.0
 30
0.0
  9
$PUCSBASE
  2

  9
$PUCSNAME
  2

  9
$PUCSORG
 10
0.0
 20
0.0
 30
0.0
  9
$PUCSXDIR
 10
1.0
 20
0.0
 30
0.0
  9
$PUCSYDIR
 10
0.0
 20
1.0
 30
0.0
  9
$PUCSORTHOREF
  2

  9
$PUCSORTHOVIEW
 70
               0
  9
$PUCSORGTOP
 10
0.0
 20
0.0
 30
0.0
  9
$PUCSORGBOTTOM
 10
0.0
 20
0.0
 30
0.0
  9
$PUCSORGLEFT
 10
0.0
 20
0.0
 30
0.0
  9
$PUCSORGRIGHT
 10
0.0
 20
0.0
 30
0.0
  9
$PUCSORGFRONT
 10
0.0
 20
0.0
 30
0.0
  9
$PUCSORGBACK
 10
0.0
 20
0.0
 30
0.0
  9
$USERI1
 70
               0
  9
$USERI2
 70
               0
  9
$USERI3
 70
               0
  9
$USERI4
 70
               0
  9
$USERI5
 70
               0
  9
$USERR1
 40
0.0
  9
$USERR2
 40
0.0
  9
$USERR3
 40
0.0
  9
$USERR4
 40
0.0
  9
$USERR5
 40
0.0
  9
$WORLDVIEW
 70
               1
  9
$SHADEDGE
 70
               3
  9
$SHADEDIF
 70
              70
  9
$TILEMODE
 70
               1
  9
$MAXACTVP
 70
              64
  9
$PINSBASE
 10
0.0
 20
0.0
 30
0.0
  9
$PLIMCHECK
 70
               0
  9
$PEXTMIN
 10
1.0000000000000000E+20
 20
1.0000000000000000E+20
 30
1.0000000000000000E+20
  9
$PEXTMAX
 10
-1.0000000000000000E+20
 20
-1.0000000000000000E+20
 30
-1.0000000000000000E+20
  9
$PLIMMIN
 10
0.0
 20
0.0
  9
$PLIMMAX
 10
12.0
 20
9.0
  9
$UNITMODE
 70
               0
  9
$VISRETAIN
 70
               0
  9
$PLINEGEN
 70
               1
  9
$PSLTSCALE
 70
               0
  9
$TREEDEPTH
 70
            3020
  9
$CMLSTYLE
  2
Standard
  9
$CMLJUST
 70
               0
  9
$CMLSCALE
 40
1.0
  9
$PROXYGRAPHICS
 70
               0
  9
$MEASUREMENT
 70
               1
  9
$CELWEIGHT
370
               0
  9
$ENDCAPS
280
               0
  9
$JOINSTYLE
280
               0
  9
$LWDISPLAY
290
               1
  9
$INSUNITS
 70
               4
  9
$HYPERLINKBASE
  1

  9
$STYLESHEET
  1

  9
$XEDIT
290
               1
  9
$CEPSNTYPE
380
               0
  9
$PSTYLEMODE
290
               1
  9
$FINGERPRINTGUID
  2

  9
$VERSIONGUID
  2

  9
$EXTNAMES
290
               1
  9
$PSVPSCALE
 40
0.0
  0
ENDSEC
  0
SECTION
  2
CLASSES
  0
CLASS
  1
LWPOLYLINE
  2
AcDbPolyline
  3
AutoCAD 2000
 90
        0
280
               0
281
               1
  0
CLASS
  1
IMAGE
  2
AcDbRasterImage
  3
ISM
 90
      127
280
               0
281
               1
  0
CLASS
  1
OLE2FRAME
  2
AcDbOle2Frame
  3
AutoCAD 2000
 90
        0
280
               0
281
               1
  0
CLASS
  1
HATCH
  2
AcDbHatch
  3
AutoCAD 2000
 90
        0
280
               0
281
               1
  0
CLASS
  1
DICTIONARYVAR
  2
AcDbDictionaryVar
  3
AutoCAD 2000
 90
        0
280
               0
281
               0
  0
CLASS
  1
RASTERVARIABLES
  2
AcDbRasterVariables
  3
ISM
 90
        0
280
               0
281
               0
  0
CLASS
  1
IMAGEDEF
  2
AcDbRasterImageDef
  3
ISM
 90
        0
280
               0
281
               0
  0
CLASS
  1
IMAGEDEF_REACTOR
  2
AcDbRasterImageDefReactor
  3
ISM
 90
        1
280
               0
281
               0
  0
CLASS
  1
IDBUFFER
  2
AcDbIdBuffer
  3
AutoCAD 2000
 90
        0
280
               0
281
               0
  0
CLASS
  1
SPATIAL_FILTER
  2
AcDbSpatialFilter
  3
AutoCAD 2000
 90
        0
280
               0
281
               0
  0
CLASS
  1
XRECORD
  2
AcDbXrecord
  3
AutoCAD 2000
 90
        0
280
               0
281
               0
  0
CLASS
  1
SORTENTSTABLE
  2
AcDbSortentsTable
  3
AutoCAD 2000
 90
        0
280
               0
281
               0
  0
CLASS
  1
LAYER_INDEX
  2
AcDbLayerIndex
  3
AutoCAD 2000
 90
        0
280
               0
281
               0
  0
CLASS
  1
SPATIAL_INDEX
  2
AcDbSpatialIndex
  3
AutoCAD 2000
 90
        0
280
               0
281
               0
  0
CLASS
  1
OBJECT_PTR
  2
CAseDLPNTableRecord
  3
"ASE-LPNTableRecord"
 90
        1
280
               0
281
               0
  0
CLASS
  1
LAYOUT
  2
AcDbLayout
  3
AutoCAD 2000
 90
        0
280
               0
281
               0
  0
CLASS
  1
PLOTSETTINGS
  2
AcDbPlotSettings
  3
AutoCAD 2000
 90
        0
280
               0
281
               0
  0
CLASS
  1
ACDBDICTIONARYWDFLT
  2
AcDbDictionaryWithDefault
  3
AutoCAD 2000
 90
        0
280
               0
281
               0
  0
CLASS
  1
ACDBPLACEHOLDER
  2
AcDbPlaceHolder
  3
AutoCAD 2000
 90
        0
280
               0
281
               0
  0
ENDSEC
  0
SECTION
  2
TABLES
  0
TABLE
  2
VPORT
  5
7
100
AcDbSymbolTable
 70
               1
  0
VPORT
  5
15
100
AcDbSymbolTableRecord
100
AcDbViewportTableRecord
  2
*ACTIVE
 70
               0
 10
0.0
 20
0.0
 11
1.0
 21
1.0
 12
2.6419702901044175
 22
-4.1067664724445763
 13
0.0
 23
0.0
 14
1.0
 24
1.0
 15
0.0
 25
0.0
 16
0.0
 26
0.0
 36
1.0
 17
0.0
 27
0.0
 37
0.0
 40
41.966533311284707
 41
0.688564
 42
50.0
 43
0.0
 44
0.0
 50
0.0
 51
0.0
 71
               0
 72
            2000
 73
               1
 74
               1
 75
               0
 76
               0
 77
               0
 78
               0
281
               0
 65
               0
110
0.0
120
0.0
130
0.0
111
1.0
121
0.0
131
0.0
112
0.0
122
1.0
132
0.0
345
0
346
0
 79
               0
146
0.0
  0
ENDTAB
  0
TABLE
  2
LTYPE
  5
4
100
AcDbSymbolTable
 70
              15
  0
LTYPE
  5
11
100
AcDbSymbolTableRecord
100
AcDbLinetypeTableRecord
  2
ByBlock
 70
              64
  3

 72
              65
 73
               0
 40
0.0
  0
LTYPE
  5
12
100
AcDbSymbolTableRecord
100
AcDbLinetypeTableRecord
  2
ByLayer
 70
              64
  3

 72
              65
 73
               0
 40
0.0
  0
LTYPE
  5
13
100
AcDbSymbolTableRecord
100
AcDbLinetypeTableRecord
  2
Continuous
 70
              64
  3
Solid line
 72
              65
 73
               0
 40
0.0
  0
LTYPE
  5
35
100
AcDbSymbolTableRecord
100
AcDbLinetypeTableRecord
  2
STYLE_01
 70
               0
  3

 72
              65
 73
               2
 40
0.41664
 49
0.20828
 74
               0
 49
-0.20836
 74
               0
  0
LTYPE
  5
36
100
AcDbSymbolTableRecord
100
AcDbLinetypeTableRecord
  2
STYLE_02
 70
               0
  3

 72
              65
 73
               2
 40
0.6944250000000001
 49
0.48607
 74
               0
 49
-0.2083550000000001
 74
               0
  0
LTYPE
  5
37
100
AcDbSymbolTableRecord
100
AcDbLinetypeTableRecord
  2
STYLE_03
 70
               0
  3

 72
              65
 73
               2
 40
1.25
 49
1.0416400000000001
 74
               0
 49
-0.2083599999999999
 74
               0
  0
LTYPE
  5
38
100
AcDbSymbolTableRecord
100
AcDbLinetypeTableRecord
  2
STYLE_04
 70
               0
  3

 72
              65
 73
               2
 40
1.5277099999999999
 49
1.3194249999999998
 74
               0
 49
-0.208285
 74
               0
  0
LTYPE
  5
39
100
AcDbSymbolTableRecord
100
AcDbLinetypeTableRecord
  2
STYLE_05
 70
               0
  3

 72
              65
 73
               2
 40
0.20828
 49
0.069425
 74
               0
 49
-0.138855
 74
               0
  0
LTYPE
  5
3A
100
AcDbSymbolTableRecord
100
AcDbLinetypeTableRecord
  2
STYLE_06
 70
               0
  3

 72
              65
 73
               4
 40
1.0416400000000001
 49
0.625
 74
               0
 49
-0.20828
 74
               0
 49
0.06943
 74
               0
 49
-0.13893
 74
               0
  0
LTYPE
  5
3B
100
AcDbSymbolTableRecord
100
AcDbLinetypeTableRecord
  2
STYLE_07
 70
               0
  3

 72
              65
 73
               6
 40
1.875
 49
0.625
 74
               0
 49
-0.20828
 74
               0
 49
0.6250000000000001
 74
               0
 49
-0.2083599999999999
 74
               0
 49
0.06943
 74
               0
 49
-0.1389299999999999
 74
               0
  0
LTYPE
  5
3C
100
AcDbSymbolTableRecord
100
AcDbLinetypeTableRecord
  2
STYLE_08
 70
               0
  3

 72
              65
 73
               6
 40
1.25
 49
0.625
 74
               0
 49
-0.20828
 74
               0
 49
0.06943
 74
               0
 49
-0.13893
 74
               0
 49
0.0694299999999999
 74
               0
 49
-0.13893
 74
               0
  0
LTYPE
  5
3D
100
AcDbSymbolTableRecord
100
AcDbLinetypeTableRecord
  2
STYLE_09
 70
               0
  3

 72
              65
 73
               4
 40
5.0
 49
3.75
 74
               0
 49
-0.2777849999999998
 74
               0
 49
0.6944300000000003
 74
               0
 49
-0.2777849999999998
 74
               0
  0
LTYPE
  5
3E
100
AcDbSymbolTableRecord
100
AcDbLinetypeTableRecord
  2
STYLE_10
 70
               0
  3

 72
              65
 73
               6
 40
5.9375
 49
3.75
 74
               0
 49
-0.2777849999999998
 74
               0
 49
0.6944300000000003
 74
               0
 49
-0.2777849999999998
 74
               0
 49
0.625
 74
               0
 49
-0.3125
 74
               0
  0
LTYPE
  5
3F
100
AcDbSymbolTableRecord
100
AcDbLinetypeTableRecord
  2
STYLE_11
 70
               0
  3

 72
              65
 73
               2
 40
0.48614501953125
 49
0.2777862548828125
 74
               0
 49
-0.2083587646484375
 74
               0
  0
LTYPE
  5
40
100
AcDbSymbolTableRecord
100
AcDbLinetypeTableRecord
  2
STYLE_12
 70
               0
  3

 72
              65
 73
               2
 40
0.4166412353515625
 49
0.2777862548828125
 74
               0
 49
-0.13885498046875
 74
               0
  0
ENDTAB
  0
TABLE
  2
LAYER
  5
2
100
AcDbSymbolTable
 70
               3
  0
LAYER
  5
14
100
AcDbSymbolTableRecord
100
AcDbLayerTableRecord
  2
0
 70
               0
 62
               7
  6
Continuous
290
               1
370
              -3
390
1D
  0
LAYER
  5
41
100
AcDbSymbolTableRecord
100
AcDbLayerTableRecord
  2
None
 70
               0
 62
               7
  6
Continuous
290
               1
370
               5
390
1D
  0
LAYER
  5
42
100
AcDbSymbolTableRecord
100
AcDbLayerTableRecord
  2
Dimension
 70
               0
 62
               7
  6
Continuous
290
               1
370
               5
390
1D
  0
ENDTAB
  0
TABLE
  2
STYLE
  5
3
100
AcDbSymbolTable
 70
               1
  0
STYLE
  5
17
100
AcDbSymbolTableRecord
100
AcDbTextStyleTableRecord
  2
Standard
 70
               0
 40
0.0
 41
1.0
 50
0.0
 71
               0
 42
0.0
  3
txt
  4

  0
ENDTAB
  0
TABLE
  2
VIEW
  5
5
100
AcDbSymbolTable
 70
               0
  0
ENDTAB
  0
TABLE
  2
UCS
  5
6
100
AcDbSymbolTable
 70
               0
  0
ENDTAB
  0
TABLE
  2
APPID
  5
8
100
AcDbSymbolTable
 70
               1
  0
APPID
  5
16
100
AcDbSymbolTableRecord
100
AcDbRegAppTableRecord
  2
ACAD
 70
               0
  0
ENDTAB
  0
TABLE
  2
DIMSTYLE
  5
9
100
AcDbSymbolTable
 70
               1
100
AcDbDimStyleTable
 71
               0
  0
DIMSTYLE
105
18
100
AcDbSymbolTableRecord
100
AcDbDimStyleTableRecord
  2
Standard
 70
               0
  3

  4

 40
1.0
 41
0.18
 42
0.0625
 43
0.38
 44
0.18
 45
0.0
 46
0.0
 47
0.0
 48
0.0
 71
               0
 72
               0
 73
               1
 74
               1
 75
               0
 76
               0
 77
               0
 78
               0
 79
               0
140
0.18
141
0.09
142
0.0
143
25.399999999999999
144
1.0
145
0.0
146
1.0
147
0.09
148
0.0
170
               0
171
               2
172
               0
173
               0
174
               0
175
               0
176
               0
177
               0
178
               0
179
               0
271
               4
272
               4
273
               2
274
               2
275
               0
276
               0
277
               2
278
              46
279
               0
280
               0
281
               0
282
               0
283
               1
284
               0
285
               0
286
               0
288
               0
289
               3
340
17
341
0
342
0
343
0
344
0
371
              -2
372
              -2
  0
ENDTAB
  0
TABLE
  2
BLOCK_RECORD
  5
1
100
AcDbSymbolTable
 70
              18
  0
BLOCK_RECORD
  5
A
100
AcDbSymbolTableRecord
100
AcDbBlockTableRecord
  2
*MODEL_SPACE
340
20
  0
BLOCK_RECORD
  5
B
100
AcDbSymbolTableRecord
100
AcDbBlockTableRecord
  2
*PAPER_SPACE
340
21
  0
BLOCK_RECORD
  5
23
100
AcDbSymbolTableRecord
100
AcDbBlockTableRecord
  2
R1492. tv
340
0
102
{BLKREFS
331
59
331
5D
331
61
331
65
102
}
  0
BLOCK_RECORD
  5
24
100
AcDbSymbolTableRecord
100
AcDbBlockTableRecord
  2
Group
340
0
102
{BLKREFS
331
56
102
}
  0
BLOCK_RECORD
  5
25
100
AcDbSymbolTableRecord
100
AcDbBlockTableRecord
  2
R1005. tv
340
0
102
{BLKREFS
331
5A
331
5E
331
62
331
66
102
}
  0
BLOCK_RECORD
  5
26
100
AcDbSymbolTableRecord
100
AcDbBlockTableRecord
  2
Group-1
340
0
102
{BLKREFS
331
FC
102
}
  0
BLOCK_RECORD
  5
27
100
AcDbSymbolTableRecord
100
AcDbBlockTableRecord
  2
Group-2
340
0
102
{BLKREFS
331
FD
102
}
  0
BLOCK_RECORD
  5
28
100
AcDbSymbolTableRecord
100
AcDbBlockTableRecord
  2
Group-3
340
0
102
{BLKREFS
331
FE
102
}
  0
BLOCK_RECORD
  5
29
100
AcDbSymbolTableRecord
100
AcDbBlockTableRecord
  2
Group-4
340
0
102
{BLKREFS
331
FF
102
}
  0
BLOCK_RECORD
  5
2A
100
AcDbSymbolTableRecord
100
AcDbBlockTableRecord
  2
Group-5
340
0
102
{BLKREFS
331
112
102
}
  0
BLOCK_RECORD
  5
2B
100
AcDbSymbolTableRecord
100
AcDbBlockTableRecord
  2
Group-6
340
0
102
{BLKREFS
331
113
102
}
  0
BLOCK_RECORD
  5
2C
100
AcDbSymbolTableRecord
100
AcDbBlockTableRecord
  2
Group-7
340
0
102
{BLKREFS
331
E1
102
}
  0
BLOCK_RECORD
  5
2D
100
AcDbSymbolTableRecord
100
AcDbBlockTableRecord
  2
Group-8
340
0
102
{BLKREFS
331
E2
102
}
  0
BLOCK_RECORD
  5
2E
100
AcDbSymbolTableRecord
100
AcDbBlockTableRecord
  2
Group-9
340
0
102
{BLKREFS
331
E3
102
}
  0
BLOCK_RECORD
  5
2F
100
AcDbSymbolTableRecord
100
AcDbBlockTableRecord
  2
Group-10
340
0
102
{BLKREFS
331
E4
102
}
  0
BLOCK_RECORD
  5
30
100
AcDbSymbolTableRecord
100
AcDbBlockTableRecord
  2
Group-11
340
0
102
{BLKREFS
331
E5
102
}
  0
BLOCK_RECORD
  5
31
100
AcDbSymbolTableRecord
100
AcDbBlockTableRecord
  2
Group-12
340
0
102
{BLKREFS
331
E8
102
}
  0
BLOCK_RECORD
  5
32
100
AcDbSymbolTableRecord
100
AcDbBlockTableRecord
  2
Group-13
340
0
102
{BLKREFS
331
F9
102
}
  0
BLOCK_RECORD
  5
33
100
AcDbSymbolTableRecord
100
AcDbBlockTableRecord
  2
Group-14
340
0
102
{BLKREFS
331
114
102
}
  0
BLOCK_RECORD
  5
34
100
AcDbSymbolTableRecord
100
AcDbBlockTableRecord
  2
Group-15
340
0
102
{BLKREFS
331
116
102
}
  0
ENDTAB
  0
ENDSEC
  0
SECTION
  2
BLOCKS
  0
BLOCK
  5
D
100
AcDbEntity
  8
0
390
0
100
AcDbBlockBegin
  2
*MODEL_SPACE
 70
               0
 10
0.0
 20
0.0
 30
0.0
  3
*MODEL_SPACE
  1

  0
ENDBLK
  5
E
100
AcDbEntity
  8
0
390
0
100
AcDbBlockEnd
  0
BLOCK
  5
F
100
AcDbEntity
 67
               1
  8
0
390
0
100
AcDbBlockBegin
  2
*PAPER_SPACE
 70
               0
 10
0.0
 20
0.0
 30
0.0
  3
*PAPER_SPACE
  1

  0
ENDBLK
  5
10
100
AcDbEntity
 67
               1
  8
0
390
0
100
AcDbBlockEnd
  0
BLOCK
  5
43
100
AcDbEntity
  8
None
390
0
100
AcDbBlockBegin
  2
R1492. tv
 70
               0
 10
0.0
 20
0.0
 30
0.0
  3
R1492. tv
  1

  0
CIRCLE
  5
44
100
AcDbEntity
  8
None
370
               9
390
0
  6
STYLE_11
 62
               7
100
AcDbCircle
 10
0.0
 20
0.0
 30
0.0
 40
2.3875999999999999
  0
CIRCLE
  5
45
100
AcDbEntity
  8
None
370
               9
390
0
  6
STYLE_11
 62
               7
100
AcDbCircle
 10
0.0
 20
0.0
 30
0.0
 40
0.8635999999999999
  0
ENDBLK
  5
46
100
AcDbEntity
  8
None
390
0
100
AcDbBlockEnd
  0
BLOCK
  5
47
100
AcDbEntity
  8
None
390
0
100
AcDbBlockBegin
  2
Group
 70
               0
 10
0.0
 20
0.0
 30
0.0
  3
Group
  1

  0
POLYLINE
  5
48
100
AcDbEntity
  8
None
370
               9
390
0
  6
STYLE_11
 62
               7
100
AcDb2dPolyline
 66
               1
 10
0.0
 20
0.0
 30
0.0
 70
               1
 75
               5
  0
VERTEX
  5
49
100
AcDbEntity
  8
None
370
               9
390
0
  6
STYLE_11
 62
               7
100
AcDbVertex
100
AcDb2dVertex
 10
2.2913593999999997
 20
0.0
 30
0.0
  0
VERTEX
  5
4A
100
AcDbEntity
  8
None
370
               9
390
0
  6
STYLE_11
 62
               7
100
AcDbVertex
100
AcDb2dVertex
 10
2.2913593999999997
 20
0.0
 30
0.0
  0
VERTEX
  5
4B
100
AcDbEntity
  8
None
370
               9
390
0
  6
STYLE_11
 62
               7
100
AcDbVertex
100
AcDb2dVertex
 10
1.1456898599999998
 20
-1.9843800799999998
 30
0.0
  0
VERTEX
  5
4C
100
AcDbEntity
  8
None
370
               9
390
0
  6
STYLE_11
 62
               7
100
AcDbVertex
100
AcDb2dVertex
 10
-1.1456796999999999
 20
-1.9843800799999998
 30
0.0
  0
VERTEX
  5
4D
100
AcDbEntity
  8
None
370
               9
390
0
  6
STYLE_11
 62
               7
100
AcDbVertex
100
AcDb2dVertex
 10
-2.2913593999999997
 20
0.0
 30
0.0
  0
VERTEX
  5
4E
100
AcDbEntity
  8
None
370
               9
390
0
  6
STYLE_11
 62
               7
100
AcDbVertex
100
AcDb2dVertex
 10
-1.1456796999999999
 20
1.9843800799999998
 30
0.0
  0
VERTEX
  5
4F
100
AcDbEntity
  8
None
370
               9
390
0
  6
STYLE_11
 62
               7
100
AcDbVertex
100
AcDb2dVertex
 10
1.1456898599999998
 20
1.9843800799999998
 30
0.0
  0
SEQEND
  5
50
100
AcDbEntity
  8
None
370
               9
390
0
  6
STYLE_11
 62
               7
  0
CIRCLE
  5
51
100
AcDbEntity
  8
None
370
               9
390
0
  6
STYLE_11
 62
               7
100
AcDbCircle
 10
0.00001016
 20
0.0
 30
0.0
 40
1.9843800799999998
  0
CIRCLE
  5
52
100
AcDbEntity
  8
None
370
               9
390
0
  6
STYLE_11
 62
               7
100
AcDbCircle
 10
0.00001016
 20
0.0
 30
0.0
 40
0.79375
  0
CIRCLE
  5
53
100
AcDbEntity
  8
None
370
               9
390
0
  6
STYLE_11
 62
               7
100
AcDbCircle
 10
0.00001016
 20
0.0
 30
0.0
 40
0.67467988
  0
ENDBLK
  5
54
100
AcDbEntity
  8
None
390
0
100
AcDbBlockEnd
  0
BLOCK
  5
55
100
AcDbEntity
  8
None
390
0
100
AcDbBlockBegin
  2
R1005. tv
 70
               0
 10
0.0
 20
0.0
 30
0.0
  3
R1005. tv
  1

  0
INSERT
  5
56
100
AcDbEntity
  8
None
390
0
 62
               7
100
AcDbBlockReference
  2
Group
 10
0.0
 20
0.0
 30
0.0
  0
ENDBLK
  5
57
100
AcDbEntity
  8
None
390
0
100
AcDbBlockEnd
  0
BLOCK
  5
58
100
AcDbEntity
  8
None
390
0
100
AcDbBlockBegin
  2
Group-1
 70
               0
 10
0.0
 20
0.0
 30
0.0
  3
Group-1
  1

  0
INSERT
  5
59
100
AcDbEntity
  8
None
390
0
 62
               7
100
AcDbBlockReference
  2
R1492. tv
 10
-9.7554884885320003
 20
14.485994736802496
 30
0.0
 50
-23.587151463774248
  0
INSERT
  5
5A
100
AcDbEntity
  8
None
390
0
 62
               7
100
AcDbBlockReference
  2
R1005. tv
 10
-9.7554884885320003
 20
14.485994736802496
 30
0.0
 50
29.999999999999996
  0
ENDBLK
  5
5B
100
AcDbEntity
  8
None
390
0
100
AcDbBlockEnd
  0
BLOCK
  5
5C
100
AcDbEntity
  8
None
390
0
100
AcDbBlockBegin
  2
Group-2
 70
               0
 10
0.0
 20
0.0
 30
0.0
  3
Group-2
  1

  0
INSERT
  5
5D
100
AcDbEntity
  8
None
390
0
 62
               7
100
AcDbBlockReference
  2
R1492. tv
 10
-0.0304884885319776
 20
14.485994736802496
 30
0.0
 50
-23.587151463774248
  0
INSERT
  5
5E
100
AcDbEntity
  8
None
390
0
 62
               7
100
AcDbBlockReference
  2
R1005. tv
 10
-0.0304884885319776
 20
14.485994736802496
 30
0.0
 50
29.999999999999996
  0
ENDBLK
  5
5F
100
AcDbEntity
  8
None
390
0
100
AcDbBlockEnd
  0
BLOCK
  5
60
100
AcDbEntity
  8
None
390
0
100
AcDbBlockBegin
  2
Group-3
 70
               0
 10
0.0
 20
0.0
 30
0.0
  3
Group-3
  1

  0
INSERT
  5
61
100
AcDbEntity
  8
None
390
0
 62
               7
100
AcDbBlockReference
  2
R1492. tv
 10
-0.0304884885319776
 20
4.7609947368019903
 30
0.0
 50
-23.587151463774248
  0
INSERT
  5
62
100
AcDbEntity
  8
None
390
0
 62
               7
100
AcDbBlockReference
  2
R1005. tv
 10
-0.0304884885319776
 20
4.7609947368019903
 30
0.0
 50
29.999999999999996
  0
ENDBLK
  5
63
100
AcDbEntity
  8
None
390
0
100
AcDbBlockEnd
  0
BLOCK
  5
64
100
AcDbEntity
  8
None
390
0
100
AcDbBlockBegin
  2
Group-4
 70
               0
 10
0.0
 20
0.0
 30
0.0
  3
Group-4
  1

  0
INSERT
  5
65
100
AcDbEntity
  8
None
390
0
 62
               7
100
AcDbBlockReference
  2
R1492. tv
 10
-9.7554884885320003
 20
4.7609947368019903
 30
0.0
 50
-23.587151463774248
  0
INSERT
  5
66
100
AcDbEntity
  8
None
390
0
 62
               7
100
AcDbBlockReference
  2
R1005. tv
 10
-9.7554884885320003
 20
4.7609947368019903
 30
0.0
 50
29.999999999999996
  0
ENDBLK
  5
67
100
AcDbEntity
  8
None
390
0
100
AcDbBlockEnd
  0
BLOCK
  5
68
100
AcDbEntity
  8
Dimension
390
0
100
AcDbBlockBegin
  2
Group-5
 70
               0
 10
0.0
 20
0.0
 30
0.0
  3
Group-5
  1

  0
LINE
  5
69
100
AcDbEntity
  8
None
370
               5
390
0
  6
Continuous
 62
               5
100
AcDbLine
 10
-5.267978439553012
 20
9.6234998168022514
 30
0.0
 11
-4.0179809398746826
 21
9.6234998168022514
 31
0.0
  0
LINE
  5
6A
100
AcDbEntity
  8
None
370
               5
390
0
  6
Continuous
 62
               5
100
AcDbLine
 10
-4.6429796897138473
 20
8.9985010669631436
 30
0.0
 11
-4.6429796897138473
 21
10.248498566641416
 31
0.0
  0
LINE
  5
6B
100
AcDbEntity
  8
None
370
               5
390
0
  6
Continuous
 62
               5
100
AcDbLine
 10
-8.6929781907036201
 20
9.6234998168022514
 30
0.0
 11
-5.7679774382415232
 21
9.6234998168022514
 31
0.0
  0
LINE
  5
6C
100
AcDbEntity
  8
None
370
               5
390
0
  6
Continuous
 62
               5
100
AcDbLine
 10
-3.5179819411861715
 20
9.6234998168022514
 30
0.0
 11
-0.5929811887240746
 21
9.6234998168022514
 31
0.0
  0
LINE
  5
6D
100
AcDbEntity
  8
None
370
               5
390
0
  6
Continuous
 62
               5
100
AcDbLine
 10
-4.6429796897138473
 20
13.673498317792166
 30
0.0
 11
-4.6429796897138473
 21
10.748497565329927
 31
0.0
  0
LINE
  5
6E
100
AcDbEntity
  8
None
370
               5
390
0
  6
Continuous
 62
               5
100
AcDbLine
 10
-4.6429796897138473
 20
8.4985020682745755
 30
0.0
 11
-4.6429796897138473
 21
5.573501315812365
 31
0.0
  0
ENDBLK
  5
6F
100
AcDbEntity
  8
Dimension
390
0
100
AcDbBlockEnd
  0
BLOCK
  5
70
100
AcDbEntity
  8
Dimension
390
0
100
AcDbBlockBegin
  2
Group-6
 70
               0
 10
0.0
 20
0.0
 30
0.0
  3
Group-6
  1

  0
LINE
  5
71
100
AcDbEntity
  8
None
370
               5
390
0
  6
Continuous
 62
              12
100
AcDbLine
 10
-5.517978439553012
 20
9.6234998168022514
 30
0.0
 11
-4.2679809398747395
 21
9.6234998168022514
 31
0.0
  0
LINE
  5
72
100
AcDbEntity
  8
None
370
               5
390
0
  6
Continuous
 62
              12
100
AcDbLine
 10
-4.8929796897138473
 20
8.9985010669630867
 30
0.0
 11
-4.8929796897138473
 21
10.248498566641359
 31
0.0
  0
LINE
  5
73
100
AcDbEntity
  8
None
370
               5
390
0
  6
Continuous
 62
              12
100
AcDbLine
 10
-11.755478190703618
 20
9.6234998168022514
 30
0.0
 11
-6.0179774382415232
 21
9.6234998168022514
 31
0.0
  0
LINE
  5
74
100
AcDbEntity
  8
None
370
               5
390
0
  6
Continuous
 62
              12
100
AcDbLine
 10
-3.7679819411861715
 20
9.6234998168022514
 30
0.0
 11
1.9695188112758686
 21
9.6234998168022514
 31
0.0
  0
LINE
  5
75
100
AcDbEntity
  8
None
370
               5
390
0
  6
Continuous
 62
              12
100
AcDbLine
 10
-4.8929796897138473
 20
16.485998317792308
 30
0.0
 11
-4.8929796897138473
 21
10.748497565329927
 31
0.0
  0
LINE
  5
76
100
AcDbEntity
  8
None
370
               5
390
0
  6
Continuous
 62
              12
100
AcDbLine
 10
-4.8929796897138473
 20
8.4985020682745755
 30
0.0
 11
-4.8929796897138473
 21
2.7610013158121944
 31
0.0
  0
ENDBLK
  5
77
100
AcDbEntity
  8
Dimension
390
0
100
AcDbBlockEnd
  0
BLOCK
  5
78
100
AcDbEntity
  8
Dimension
390
0
100
AcDbBlockBegin
  2
Group-7
 70
               0
 10
0.0
 20
0.0
 30
0.0
  3
Group-7
  1

  0
LINE
  5
79
100
AcDbEntity
  8
None
370
               5
390
0
  6
Continuous
 62
              12
100
AcDbLine
 10
-7.7559796897138469
 20
13.361498566641444
 30
0.0
 11
-7.7559796897138469
 21
12.111501066963115
 31
0.0
  0
LINE
  5
7A
100
AcDbEntity
  8
None
370
               5
390
0
  6
Continuous
 62
              12
100
AcDbLine
 10
-8.3809784395529832
 20
12.736499816802279
 30
0.0
 11
-7.1309809398747106
 21
12.736499816802279
 31
0.0
  0
ENDBLK
  5
7B
100
AcDbEntity
  8
Dimension
390
0
100
AcDbBlockEnd
  0
BLOCK
  5
7C
100
AcDbEntity
  8
Dimension
390
0
100
AcDbBlockBegin
  2
Group-8
 70
               0
 10
0.0
 20
0.0
 30
0.0
  3
Group-8
  1

  0
LINE
  5
7D
100
AcDbEntity
  8
None
370
               5
390
0
  6
Continuous
 62
              12
100
AcDbLine
 10
-7.7559796897138469
 20
7.135498566641445
 30
0.0
 11
-7.7559796897138469
 21
5.8855010669631156
 31
0.0
  0
LINE
  5
7E
100
AcDbEntity
  8
None
370
               5
390
0
  6
Continuous
 62
              12
100
AcDbLine
 10
-8.3809784395529832
 20
6.5104998168022803
 30
0.0
 11
-7.1309809398747106
 21
6.5104998168022803
 31
0.0
  0
ENDBLK
  5
7F
100
AcDbEntity
  8
Dimension
390
0
100
AcDbBlockEnd
  0
BLOCK
  5
80
100
AcDbEntity
  8
Dimension
390
0
100
AcDbBlockBegin
  2
Group-9
 70
               0
 10
0.0
 20
0.0
 30
0.0
  3
Group-9
  1

  0
LINE
  5
81
100
AcDbEntity
  8
None
370
               5
390
0
  6
Continuous
 62
              12
100
AcDbLine
 10
-1.5299796897138478
 20
13.361498566641444
 30
0.0
 11
-1.5299796897138478
 21
12.111501066963115
 31
0.0
  0
LINE
  5
82
100
AcDbEntity
  8
None
370
               5
390
0
  6
Continuous
 62
              12
100
AcDbLine
 10
-2.1549784395529841
 20
12.736499816802279
 30
0.0
 11
-0.9049809398747115
 21
12.736499816802279
 31
0.0
  0
ENDBLK
  5
83
100
AcDbEntity
  8
Dimension
390
0
100
AcDbBlockEnd
  0
BLOCK
  5
84
100
AcDbEntity
  8
Dimension
390
0
100
AcDbBlockBegin
  2
Group-10
 70
               0
 10
0.0
 20
0.0
 30
0.0
  3
Group-10
  1

  0
LINE
  5
85
100
AcDbEntity
  8
None
370
               5
390
0
  6
Continuous
 62
              12
100
AcDbLine
 10
-1.5299796897138478
 20
9.399498566641455
 30
0.0
 11
-1.5299796897138478
 21
8.1495010669631256
 31
0.0
  0
LINE
  5
86
100
AcDbEntity
  8
None
370
               5
390
0
  6
Continuous
 62
              12
100
AcDbLine
 10
-2.1549784395529841
 20
8.7744998168022903
 30
0.0
 11
-0.9049809398747115
 21
8.7744998168022903
 31
0.0
  0
ENDBLK
  5
87
100
AcDbEntity
  8
Dimension
390
0
100
AcDbBlockEnd
  0
BLOCK
  5
88
100
AcDbEntity
  8
Dimension
390
0
100
AcDbBlockBegin
  2
Group-11
 70
               0
 10
0.0
 20
0.0
 30
0.0
  3
Group-11
  1

  0
LINE
  5
89
100
AcDbEntity
  8
None
370
               5
390
0
  6
Continuous
 62
              12
100
AcDbLine
 10
-1.5299796897138478
 20
8.8334985666414241
 30
0.0
 11
-1.5299796897138478
 21
7.5835010669631515
 31
0.0
  0
LINE
  5
8A
100
AcDbEntity
  8
None
370
               5
390
0
  6
Continuous
 62
              12
100
AcDbLine
 10
-2.1549784395529841
 20
8.2084998168022594
 30
0.0
 11
-0.9049809398747115
 21
8.2084998168022594
 31
0.0
  0
ENDBLK
  5
8B
100
AcDbEntity
  8
Dimension
390
0
100
AcDbBlockEnd
  0
BLOCK
  5
8C
100
AcDbEntity
  8
None
390
0
100
AcDbBlockBegin
  2
Group-12
 70
               0
 10
0.0
 20
0.0
 30
0.0
  3
Group-12
  1

  0
CIRCLE
  5
8D
100
AcDbEntity
  8
None
370
               5
390
0
  6
Continuous
 62
               7
100
AcDbCircle
 10
-7.7559796897138469
 20
12.736499816802308
 30
0.0
 40
0.1250000000000218
  0
CIRCLE
  5
8E
100
AcDbEntity
  8
None
370
               5
390
0
  6
Continuous
 62
               7
100
AcDbCircle
 10
-7.7559796897138469
 20
12.170499816802305
 30
0.0
 40
0.1250000000000218
  0
CIRCLE
  5
8F
100
AcDbEntity
  8
None
370
               5
390
0
  6
Continuous
 62
               7
100
AcDbCircle
 10
-7.7559796897138469
 20
11.604499816802303
 30
0.0
 40
0.1249999999999995
  0
CIRCLE
  5
90
100
AcDbEntity
  8
None
370
               5
390
0
  6
Continuous
 62
               7
100
AcDbCircle
 10
-7.7559796897138469
 20
11.0384998168023
 30
0.0
 40
0.1249999999999995
  0
CIRCLE
  5
91
100
AcDbEntity
  8
None
370
               5
390
0
  6
Continuous
 62
               7
100
AcDbCircle
 10
-7.7559796897138469
 20
10.472499816802298
 30
0.0
 40
0.1249999999999995
  0
CIRCLE
  5
92
100
AcDbEntity
  8
None
370
               5
390
0
  6
Continuous
 62
               7
100
AcDbCircle
 10
-7.7559796897138469
 20
9.9064998168022953
 30
0.0
 40
0.1250000000000218
  0
CIRCLE
  5
93
100
AcDbEntity
  8
None
370
               5
390
0
  6
Continuous
 62
               7
100
AcDbCircle
 10
-7.7559796897138469
 20
9.3404998168022644
 30
0.0
 40
0.1249999999999771
  0
CIRCLE
  5
94
100
AcDbEntity
  8
None
370
               5
390
0
  6
Continuous
 62
               7
100
AcDbCircle
 10
-7.7559796897138469
 20
8.7744998168022903
 30
0.0
 40
0.1250000000000218
  0
CIRCLE
  5
95
100
AcDbEntity
  8
None
370
               5
390
0
  6
Continuous
 62
               7
100
AcDbCircle
 10
-7.7559796897138469
 20
8.2084998168022594
 30
0.0
 40
0.1249999999999771
  0
CIRCLE
  5
96
100
AcDbEntity
  8
None
370
               5
390
0
  6
Continuous
 62
               7
100
AcDbCircle
 10
-7.7559796897138469
 20
7.6424998168022853
 30
0.0
 40
0.1250000000000218
  0
CIRCLE
  5
97
100
AcDbEntity
  8
None
370
               5
390
0
  6
Continuous
 62
               7
100
AcDbCircle
 10
-7.7559796897138469
 20
7.0764998168023112
 30
0.0
 40
0.1250000000000218
  0
CIRCLE
  5
98
100
AcDbEntity
  8
None
370
               5
390
0
  6
Continuous
 62
               7
100
AcDbCircle
 10
-7.4729796897138598
 20
12.453499816802292
 30
0.0
 40
0.1249999999999995
  0
CIRCLE
  5
99
100
AcDbEntity
  8
None
370
               5
390
0
  6
Continuous
 62
               7
100
AcDbCircle
 10
-7.4729796897138598
 20
11.88749981680229
 30
0.0
 40
0.1249999999999995
  0
CIRCLE
  5
9A
100
AcDbEntity
  8
None
370
               5
390
0
  6
Continuous
 62
               7
100
AcDbCircle
 10
-7.4729796897138598
 20
11.321499816802287
 30
0.0
 40
0.1249999999999995
  0
CIRCLE
  5
9B
100
AcDbEntity
  8
None
370
               5
390
0
  6
Continuous
 62
               7
100
AcDbCircle
 10
-7.4729796897138598
 20
10.755499816802285
 30
0.0
 40
0.1250000000000218
  0
CIRCLE
  5
9C
100
AcDbEntity
  8
None
370
               5
390
0
  6
Continuous
 62
               7
100
AcDbCircle
 10
-7.4729796897138598
 20
10.189499816802254
 30
0.0
 40
0.1249999999999771
  0
CIRCLE
  5
9D
100
AcDbEntity
  8
None
370
               5
390
0
  6
Continuous
 62
               7
100
AcDbCircle
 10
-7.4729796897138598
 20
9.6234998168022798
 30
0.0
 40
0.1250000000000218
  0
CIRCLE
  5
9E
100
AcDbEntity
  8
None
370
               5
390
0
  6
Continuous
 62
               7
100
AcDbCircle
 10
-7.4729796897138598
 20
9.0574998168023058
 30
0.0
 40
0.1250000000000218
  0
CIRCLE
  5
9F
100
AcDbEntity
  8
None
370
               5
390
0
  6
Continuous
 62
               7
100
AcDbCircle
 10
-7.4729796897138598
 20
8.4914998168022748
 30
0.0
 40
0.1249999999999771
  0
CIRCLE
  5
A0
100
AcDbEntity
  8
None
370
               5
390
0
  6
Continuous
 62
               7
100
AcDbCircle
 10
-7.4729796897138598
 20
7.9254998168023008
 30
0.0
 40
0.1250000000000218
  0
CIRCLE
  5
A1
100
AcDbEntity
  8
None
370
               5
390
0
  6
Continuous
 62
               7
100
AcDbCircle
 10
-7.4729796897138598
 20
7.3594998168022698
 30
0.0
 40
0.1249999999999771
  0
CIRCLE
  5
A2
100
AcDbEntity
  8
None
370
               5
390
0
  6
Continuous
 62
               7
100
AcDbCircle
 10
-7.4729796897138598
 20
6.7934998168022958
 30
0.0
 40
0.1250000000000218
  0
CIRCLE
  5
A3
100
AcDbEntity
  8
None
370
               5
390
0
  6
Continuous
 62
               7
100
AcDbCircle
 10
-7.1899796897138444
 20
12.736499816802308
 30
0.0
 40
0.1250000000000218
  0
CIRCLE
  5
A4
100
AcDbEntity
  8
None
370
               5
390
0
  6
Continuous
 62
               7
100
AcDbCircle
 10
-6.6239796897138419
 20
12.736499816802279
 30
0.0
 40
0.1250000000000218
  0
CIRCLE
  5
A5
100
AcDbEntity
  8
None
370
               5
390
0
  6
Continuous
 62
               7
100
AcDbCircle
 10
-6.0579796897138394
 20
12.736499816802279
 30
0.0
 40
0.1250000000000218
  0
CIRCLE
  5
A6
100
AcDbEntity
  8
None
370
               5
390
0
  6
Continuous
 62
               7
100
AcDbCircle
 10
-5.4919796897138369
 20
12.736499816802279
 30
0.0
 40
0.1250000000000218
  0
CIRCLE
  5
A7
100
AcDbEntity
  8
None
370
               5
390
0
  6
Continuous
 62
               7
100
AcDbCircle
 10
-4.9259796897138344
 20
12.736499816802279
 30
0.0
 40
0.1250000000000218
  0
CIRCLE
  5
A8
100
AcDbEntity
  8
None
370
               5
390
0
  6
Continuous
 62
               7
100
AcDbCircle
 10
-4.3599796897138603
 20
12.736499816802279
 30
0.0
 40
0.1250000000000218
  0
CIRCLE
  5
A9
100
AcDbEntity
  8
None
370
               5
390
0
  6
Continuous
 62
               7
100
AcDbCircle
 10
-3.7939796897138578
 20
12.736499816802279
 30
0.0
 40
0.1250000000000218
  0
CIRCLE
  5
AA
100
AcDbEntity
  8
None
370
               5
390
0
  6
Continuous
 62
               7
100
AcDbCircle
 10
-3.2279796897138553
 20
12.736499816802279
 30
0.0
 40
0.1250000000000218
  0
CIRCLE
  5
AB
100
AcDbEntity
  8
None
370
               5
390
0
  6
Continuous
 62
               7
100
AcDbCircle
 10
-2.6619796897138528
 20
12.736499816802279
 30
0.0
 40
0.1250000000000218
  0
CIRCLE
  5
AC
100
AcDbEntity
  8
None
370
               5
390
0
  6
Continuous
 62
               7
100
AcDbCircle
 10
-2.0959796897138503
 20
12.736499816802279
 30
0.0
 40
0.1250000000000218
  0
CIRCLE
  5
AD
100
AcDbEntity
  8
None
370
               5
390
0
  6
Continuous
 62
               7
100
AcDbCircle
 10
-1.5299796897138478
 20
12.736499816802279
 30
0.0
 40
0.1250000000000218
  0
CIRCLE
  5
AE
100
AcDbEntity
  8
None
370
               5
390
0
  6
Continuous
 62
               7
100
AcDbCircle
 10
-6.9069796897138573
 20
12.453499816802292
 30
0.0
 40
0.1249999999999995
  0
CIRCLE
  5
AF
100
AcDbEntity
  8
None
370
               5
390
0
  6
Continuous
 62
               7
100
AcDbCircle
 10
-6.3409796897138548
 20
12.453499816802264
 30
0.0
 40
0.1249999999999771
  0
CIRCLE
  5
B0
100
AcDbEntity
  8
None
370
               5
390
0
  6
Continuous
 62
               7
100
AcDbCircle
 10
-5.7749796897138523
 20
12.453499816802264
 30
0.0
 40
0.1249999999999771
  0
CIRCLE
  5
B1
100
AcDbEntity
  8
None
370
               5
390
0
  6
Continuous
 62
               7
100
AcDbCircle
 10
-5.2089796897138498
 20
12.453499816802264
 30
0.0
 40
0.1249999999999995
  0
CIRCLE
  5
B2
100
AcDbEntity
  8
None
370
               5
390
0
  6
Continuous
 62
               7
100
AcDbCircle
 10
-4.6429796897138473
 20
12.453499816802264
 30
0.0
 40
0.1249999999999995
  0
CIRCLE
  5
B3
100
AcDbEntity
  8
None
370
               5
390
0
  6
Continuous
 62
               7
100
AcDbCircle
 10
-4.0769796897138733
 20
12.453499816802264
 30
0.0
 40
0.1249999999999995
  0
CIRCLE
  5
B4
100
AcDbEntity
  8
None
370
               5
390
0
  6
Continuous
 62
               7
100
AcDbCircle
 10
-3.5109796897138708
 20
12.453499816802264
 30
0.0
 40
0.1249999999999995
  0
CIRCLE
  5
B5
100
AcDbEntity
  8
None
370
               5
390
0
  6
Continuous
 62
               7
100
AcDbCircle
 10
-2.9449796897138683
 20
12.453499816802264
 30
0.0
 40
0.1249999999999995
  0
CIRCLE
  5
B6
100
AcDbEntity
  8
None
370
               5
390
0
  6
Continuous
 62
               7
100
AcDbCircle
 10
-2.3789796897138658
 20
12.453499816802264
 30
0.0
 40
0.1249999999999995
  0
CIRCLE
  5
B7
100
AcDbEntity
  8
None
370
               5
390
0
  6
Continuous
 62
               7
100
AcDbCircle
 10
-1.8129796897138633
 20
12.453499816802264
 30
0.0
 40
0.1249999999999995
  0
CIRCLE
  5
B8
100
AcDbEntity
  8
None
370
               5
390
0
  6
Continuous
 62
               7
100
AcDbCircle
 10
-1.5299796897138478
 20
12.170499816802277
 30
0.0
 40
0.1250000000000218
  0
CIRCLE
  5
B9
100
AcDbEntity
  8
None
370
               5
390
0
  6
Continuous
 62
               7
100
AcDbCircle
 10
-1.5299796897138478
 20
11.604499816802274
 30
0.0
 40
0.1249999999999995
  0
CIRCLE
  5
BA
100
AcDbEntity
  8
None
370
               5
390
0
  6
Continuous
 62
               7
100
AcDbCircle
 10
-1.5299796897138478
 20
11.038499816802272
 30
0.0
 40
0.1249999999999995
  0
CIRCLE
  5
BB
100
AcDbEntity
  8
None
370
               5
390
0
  6
Continuous
 62
               7
100
AcDbCircle
 10
-1.5299796897138478
 20
10.472499816802269
 30
0.0
 40
0.1249999999999995
  0
CIRCLE
  5
BC
100
AcDbEntity
  8
None
370
               5
390
0
  6
Continuous
 62
               7
100
AcDbCircle
 10
-1.5299796897138478
 20
9.9064998168022669
 30
0.0
 40
0.1249999999999995
  0
CIRCLE
  5
BD
100
AcDbEntity
  8
None
370
               5
390
0
  6
Continuous
 62
               7
100
AcDbCircle
 10
-1.5299796897138478
 20
9.3404998168022644
 30
0.0
 40
0.1249999999999995
  0
CIRCLE
  5
BE
100
AcDbEntity
  8
None
370
               5
390
0
  6
Continuous
 62
               7
100
AcDbCircle
 10
-1.5299796897138478
 20
8.7744998168022619
 30
0.0
 40
0.1249999999999995
  0
CIRCLE
  5
BF
100
AcDbEntity
  8
None
370
               5
390
0
  6
Continuous
 62
               7
100
AcDbCircle
 10
-1.5299796897138478
 20
8.2084998168022594
 30
0.0
 40
0.1249999999999995
  0
CIRCLE
  5
C0
100
AcDbEntity
  8
None
370
               5
390
0
  6
Continuous
 62
               7
100
AcDbCircle
 10
-1.5299796897138478
 20
7.6424998168022853
 30
0.0
 40
0.1250000000000218
  0
CIRCLE
  5
C1
100
AcDbEntity
  8
None
370
               5
390
0
  6
Continuous
 62
               7
100
AcDbCircle
 10
-1.5299796897138478
 20
7.0764998168023112
 30
0.0
 40
0.1250000000000218
  0
CIRCLE
  5
C2
100
AcDbEntity
  8
None
370
               5
390
0
  6
Continuous
 62
               7
100
AcDbCircle
 10
-1.5299796897138478
 20
6.5104998168022803
 30
0.0
 40
0.1250000000000218
  0
CIRCLE
  5
C3
100
AcDbEntity
  8
None
370
               5
390
0
  6
Continuous
 62
               7
100
AcDbCircle
 10
-1.8129796897138633
 20
11.887499816802261
 30
0.0
 40
0.1249999999999995
  0
CIRCLE
  5
C4
100
AcDbEntity
  8
None
370
               5
390
0
  6
Continuous
 62
               7
100
AcDbCircle
 10
-1.8129796897138633
 20
11.321499816802259
 30
0.0
 40
0.1249999999999995
  0
CIRCLE
  5
C5
100
AcDbEntity
  8
None
370
               5
390
0
  6
Continuous
 62
               7
100
AcDbCircle
 10
-1.8129796897138633
 20
10.755499816802256
 30
0.0
 40
0.1249999999999995
  0
CIRCLE
  5
C6
100
AcDbEntity
  8
None
370
               5
390
0
  6
Continuous
 62
               7
100
AcDbCircle
 10
-1.8129796897138633
 20
10.189499816802254
 30
0.0
 40
0.1249999999999995
  0
CIRCLE
  5
C7
100
AcDbEntity
  8
None
370
               5
390
0
  6
Continuous
 62
               7
100
AcDbCircle
 10
-1.8129796897138633
 20
9.6234998168022798
 30
0.0
 40
0.1250000000000218
  0
CIRCLE
  5
C8
100
AcDbEntity
  8
None
370
               5
390
0
  6
Continuous
 62
               7
100
AcDbCircle
 10
-1.8129796897138633
 20
9.0574998168022773
 30
0.0
 40
0.1250000000000218
  0
CIRCLE
  5
C9
100
AcDbEntity
  8
None
370
               5
390
0
  6
Continuous
 62
               7
100
AcDbCircle
 10
-1.8129796897138633
 20
8.4914998168022748
 30
0.0
 40
0.1249999999999995
  0
CIRCLE
  5
CA
100
AcDbEntity
  8
None
370
               5
390
0
  6
Continuous
 62
               7
100
AcDbCircle
 10
-1.8129796897138633
 20
7.9254998168022723
 30
0.0
 40
0.1249999999999995
  0
CIRCLE
  5
CB
100
AcDbEntity
  8
None
370
               5
390
0
  6
Continuous
 62
               7
100
AcDbCircle
 10
-1.8129796897138633
 20
7.3594998168022698
 30
0.0
 40
0.1249999999999771
  0
CIRCLE
  5
CC
100
AcDbEntity
  8
None
370
               5
390
0
  6
Continuous
 62
               7
100
AcDbCircle
 10
-1.8129796897138633
 20
6.7934998168022958
 30
0.0
 40
0.1250000000000218
  0
CIRCLE
  5
CD
100
AcDbEntity
  8
None
370
               5
390
0
  6
Continuous
 62
               7
100
AcDbCircle
 10
-2.0959796897138503
 20
6.5104998168022803
 30
0.0
 40
0.1250000000000218
  0
CIRCLE
  5
CE
100
AcDbEntity
  8
None
370
               5
390
0
  6
Continuous
 62
               7
100
AcDbCircle
 10
-2.6619796897138528
 20
6.5104998168022803
 30
0.0
 40
0.1250000000000218
  0
CIRCLE
  5
CF
100
AcDbEntity
  8
None
370
               5
390
0
  6
Continuous
 62
               7
100
AcDbCircle
 10
-3.2279796897138553
 20
6.5104998168022803
 30
0.0
 40
0.1250000000000218
  0
CIRCLE
  5
D0
100
AcDbEntity
  8
None
370
               5
390
0
  6
Continuous
 62
               7
100
AcDbCircle
 10
-3.7939796897138578
 20
6.5104998168022803
 30
0.0
 40
0.1250000000000218
  0
CIRCLE
  5
D1
100
AcDbEntity
  8
None
370
               5
390
0
  6
Continuous
 62
               7
100
AcDbCircle
 10
-4.3599796897138603
 20
6.5104998168022803
 30
0.0
 40
0.1250000000000218
  0
CIRCLE
  5
D2
100
AcDbEntity
  8
None
370
               5
390
0
  6
Continuous
 62
               7
100
AcDbCircle
 10
-4.9259796897138344
 20
6.5104998168022803
 30
0.0
 40
0.1250000000000218
  0
CIRCLE
  5
D3
100
AcDbEntity
  8
None
370
               5
390
0
  6
Continuous
 62
               7
100
AcDbCircle
 10
-5.4919796897138369
 20
6.5104998168022803
 30
0.0
 40
0.1250000000000218
  0
CIRCLE
  5
D4
100
AcDbEntity
  8
None
370
               5
390
0
  6
Continuous
 62
               7
100
AcDbCircle
 10
-6.0579796897138394
 20
6.5104998168022803
 30
0.0
 40
0.1250000000000218
  0
CIRCLE
  5
D5
100
AcDbEntity
  8
None
370
               5
390
0
  6
Continuous
 62
               7
100
AcDbCircle
 10
-6.6239796897138419
 20
6.5104998168022803
 30
0.0
 40
0.1250000000000218
  0
CIRCLE
  5
D6
100
AcDbEntity
  8
None
370
               5
390
0
  6
Continuous
 62
               7
100
AcDbCircle
 10
-7.1899796897138444
 20
6.5104998168022803
 30
0.0
 40
0.1250000000000218
  0
CIRCLE
  5
D7
100
AcDbEntity
  8
None
370
               5
390
0
  6
Continuous
 62
               7
100
AcDbCircle
 10
-7.7559796897138469
 20
6.5104998168022803
 30
0.0
 40
0.1250000000000218
  0
CIRCLE
  5
D8
100
AcDbEntity
  8
None
370
               5
390
0
  6
Continuous
 62
               7
100
AcDbCircle
 10
-2.3789796897138658
 20
6.7934998168022958
 30
0.0
 40
0.1250000000000218
  0
CIRCLE
  5
D9
100
AcDbEntity
  8
None
370
               5
390
0
  6
Continuous
 62
               7
100
AcDbCircle
 10
-2.9449796897138683
 20
6.7934998168022958
 30
0.0
 40
0.1250000000000218
  0
CIRCLE
  5
DA
100
AcDbEntity
  8
None
370
               5
390
0
  6
Continuous
 62
               7
100
AcDbCircle
 10
-3.5109796897138708
 20
6.7934998168022958
 30
0.0
 40
0.1250000000000218
  0
CIRCLE
  5
DB
100
AcDbEntity
  8
None
370
               5
390
0
  6
Continuous
 62
               7
100
AcDbCircle
 10
-4.0769796897138733
 20
6.7934998168022958
 30
0.0
 40
0.1250000000000218
  0
CIRCLE
  5
DC
100
AcDbEntity
  8
None
370
               5
390
0
  6
Continuous
 62
               7
100
AcDbCircle
 10
-4.6429796897138758
 20
6.7934998168022958
 30
0.0
 40
0.1250000000000218
  0
CIRCLE
  5
DD
100
AcDbEntity
  8
None
370
               5
390
0
  6
Continuous
 62
               7
100
AcDbCircle
 10
-5.2089796897138498
 20
6.7934998168022958
 30
0.0
 40
0.1250000000000218
  0
CIRCLE
  5
DE
100
AcDbEntity
  8
None
370
               5
390
0
  6
Continuous
 62
               7
100
AcDbCircle
 10
-5.7749796897138523
 20
6.7934998168022958
 30
0.0
 40
0.1250000000000218
  0
CIRCLE
  5
DF
100
AcDbEntity
  8
None
370
               5
390
0
  6
Continuous
 62
               7
100
AcDbCircle
 10
-6.3409796897138548
 20
6.7934998168022958
 30
0.0
 40
0.1250000000000218
  0
CIRCLE
  5
E0
100
AcDbEntity
  8
None
370
               5
390
0
  6
Continuous
 62
               7
100
AcDbCircle
 10
-6.9069796897138573
 20
6.7934998168022958
 30
0.0
 40
0.1250000000000218
  0
INSERT
  5
E1
100
AcDbEntity
  8
Dimension
390
0
 62
               7
100
AcDbBlockReference
  2
Group-7
 10
0.0
 20
0.0
 30
0.0
  0
INSERT
  5
E2
100
AcDbEntity
  8
Dimension
390
0
 62
               7
100
AcDbBlockReference
  2
Group-8
 10
0.0
 20
0.0
 30
0.0
  0
INSERT
  5
E3
100
AcDbEntity
  8
Dimension
390
0
 62
               7
100
AcDbBlockReference
  2
Group-9
 10
0.0
 20
0.0
 30
0.0
  0
INSERT
  5
E4
100
AcDbEntity
  8
Dimension
390
0
 62
               7
100
AcDbBlockReference
  2
Group-10
 10
0.0
 20
0.0
 30
0.0
  0
INSERT
  5
E5
100
AcDbEntity
  8
Dimension
390
0
 62
               7
100
AcDbBlockReference
  2
Group-11
 10
0.0
 20
0.0
 30
0.0
  0
ENDBLK
  5
E6
100
AcDbEntity
  8
None
390
0
100
AcDbBlockEnd
  0
BLOCK
  5
E7
100
AcDbEntity
  8
None
390
0
100
AcDbBlockBegin
  2
Group-13
 70
               0
 10
0.0
 20
0.0
 30
0.0
  3
Group-13
  1

  0
INSERT
  5
E8
100
AcDbEntity
  8
None
390
0
 62
               7
100
AcDbBlockReference
  2
Group-12
 10
0.0
 20
0.0
 30
0.0
  0
POLYLINE
  5
E9
100
AcDbEntity
  8
None
370
               5
390
0
  6
Continuous
 62
               7
100
AcDb2dPolyline
 66
               1
 10
0.0
 20
0.0
 30
0.0
 70
               1
 75
               5
  0
VERTEX
  5
EA
100
AcDbEntity
  8
None
370
               5
390
0
  6
Continuous
 62
               7
100
AcDbVertex
100
AcDb2dVertex
 10
-7.1214796897138442
 20
9.0959998168023048
 30
0.0
  0
VERTEX
  5
EB
100
AcDbEntity
  8
None
370
               5
390
0
  6
Continuous
 62
               7
100
AcDbVertex
100
AcDb2dVertex
 10
-2.1644796897138505
 20
9.0959998168023048
 30
0.0
  0
VERTEX
  5
EC
100
AcDbEntity
  8
None
370
               5
390
0
  6
Continuous
 62
               7
100
AcDbVertex
100
AcDb2dVertex
 10
-2.1644796897138505
 20
7.144999816802283
 30
0.0
  0
VERTEX
  5
ED
100
AcDbEntity
  8
None
370
               5
390
0
  6
Continuous
 62
               7
100
AcDbVertex
100
AcDb2dVertex
 10
-7.1214796897138442
 20
7.144999816802283
 30
0.0
  0
SEQEND
  5
EE
100
AcDbEntity
  8
None
370
               5
390
0
  6
Continuous
 62
               7
  0
POLYLINE
  5
EF
100
AcDbEntity
  8
None
370
               5
390
0
  6
Continuous
 62
               7
100
AcDb2dPolyline
 66
               1
 10
0.0
 20
0.0
 30
0.0
 70
               1
 75
               5
  0
VERTEX
  5
F0
100
AcDbEntity
  8
None
370
               5
390
0
  6
Continuous
 62
               7
100
AcDbVertex
100
AcDb2dVertex
 10
-7.1214796897138442
 20
12.101999816802277
 30
0.0
  0
VERTEX
  5
F1
100
AcDbEntity
  8
None
370
               5
390
0
  6
Continuous
 62
               7
100
AcDbVertex
100
AcDb2dVertex
 10
-7.1214796897138442
 20
9.3459998168023048
 30
0.0
  0
VERTEX
  5
F2
100
AcDbEntity
  8
None
370
               5
390
0
  6
Continuous
 62
               7
100
AcDbVertex
100
AcDb2dVertex
 10
-2.1644796897138505
 20
9.3459998168023048
 30
0.0
  0
VERTEX
  5
F3
100
AcDbEntity
  8
None
370
               5
390
0
  6
Continuous
 62
               7
100
AcDbVertex
100
AcDb2dVertex
 10
-2.1644796897138505
 20
11.901999816802288
 30
0.0
  0
VERTEX
  5
F4
100
AcDbEntity
  8
None
370
               5
390
0
  6
Continuous
 62
               7
100
AcDbVertex
100
AcDb2dVertex
 10
-2.3644796897138392
 20
11.901999816802288
 30
0.0
  0
VERTEX
  5
F5
100
AcDbEntity
  8
None
370
               5
390
0
  6
Continuous
 62
               7
100
AcDbVertex
100
AcDb2dVertex
 10
-2.3644796897138392
 20
12.101999816802277
 30
0.0
  0
SEQEND
  5
F6
100
AcDbEntity
  8
None
370
               5
390
0
  6
Continuous
 62
               7
  0
ENDBLK
  5
F7
100
AcDbEntity
  8
None
390
0
100
AcDbBlockEnd
  0
BLOCK
  5
F8
100
AcDbEntity
  8
None
390
0
100
AcDbBlockBegin
  2
Group-14
 70
               0
 10
0.0
 20
0.0
 30
0.0
  3
Group-14
  1

  0
INSERT
  5
F9
100
AcDbEntity
  8
None
390
0
 62
               7
100
AcDbBlockReference
  2
Group-13
 10
0.0
 20
0.0
 30
0.0
  0
ENDBLK
  5
FA
100
AcDbEntity
  8
None
390
0
100
AcDbBlockEnd
  0
BLOCK
  5
FB
100
AcDbEntity
  8
None
390
0
100
AcDbBlockBegin
  2
Group-15
 70
               0
 10
0.0
 20
0.0
 30
0.0
  3
Group-15
  1

  0
INSERT
  5
FC
100
AcDbEntity
  8
None
390
0
 62
               7
100
AcDbBlockReference
  2
Group-1
 10
0.0
 20
0.0
 30
0.0
  0
INSERT
  5
FD
100
AcDbEntity
  8
None
390
0
 62
               7
100
AcDbBlockReference
  2
Group-2
 10
0.0
 20
0.0
 30
0.0
  0
INSERT
  5
FE
100
AcDbEntity
  8
None
390
0
 62
               7
100
AcDbBlockReference
  2
Group-3
 10
0.0
 20
0.0
 30
0.0
  0
INSERT
  5
FF
100
AcDbEntity
  8
None
390
0
 62
               7
100
AcDbBlockReference
  2
Group-4
 10
0.0
 20
0.0
 30
0.0
  0
POLYLINE
  5
100
100
AcDbEntity
  8
None
370
               9
390
0
  6
STYLE_12
 62
               7
100
AcDb2dPolyline
 66
               1
 10
0.0
 20
0.0
 30
0.0
 70
               1
 75
               5
  0
VERTEX
  5
101
100
AcDbEntity
  8
None
370
               9
390
0
  6
STYLE_12
 62
               7
100
AcDbVertex
100
AcDb2dVertex
 10
-11.005479689713859
 20
15.735999816802547
 30
0.0
  0
VERTEX
  5
102
100
AcDbEntity
  8
None
370
               9
390
0
  6
STYLE_12
 62
               7
100
AcDbVertex
100
AcDb2dVertex
 10
1.219520310286164
 20
15.735999816802547
 30
0.0
  0
VERTEX
  5
103
100
AcDbEntity
  8
None
370
               9
390
0
  6
STYLE_12
 62
               7
100
AcDbVertex
100
AcDb2dVertex
 10
1.219520310286164
 20
3.5109998168019274
 30
0.0
  0
VERTEX
  5
104
100
AcDbEntity
  8
None
370
               9
390
0
  6
STYLE_12
 62
               7
100
AcDbVertex
100
AcDb2dVertex
 10
-11.005479689713859
 20
3.5109998168019274
 30
0.0
  0
SEQEND
  5
105
100
AcDbEntity
  8
None
370
               9
390
0
  6
STYLE_12
 62
               7
  0
CIRCLE
  5
106
100
AcDbEntity
  8
None
370
               9
390
0
  6
Continuous
 62
               7
100
AcDbCircle
 10
-9.7554796897138587
 20
14.48599981680249
 30
0.0
 40
0.8500000000000227
  0
CIRCLE
  5
107
100
AcDbEntity
  8
None
370
               9
390
0
  6
Continuous
 62
               7
100
AcDbCircle
 10
-0.030479689713836
 20
4.7609998168019843
 30
0.0
 40
0.8500000000000227
  0
CIRCLE
  5
108
100
AcDbEntity
  8
None
370
               9
390
0
  6
Continuous
 62
               7
100
AcDbCircle
 10
-9.7554796897138871
 20
4.7609998168019843
 30
0.0
 40
0.8500000000000227
  0
CIRCLE
  5
109
100
AcDbEntity
  8
None
370
               9
390
0
  6
Continuous
 62
               7
100
AcDbCircle
 10
-0.030479689713836
 20
14.48599981680249
 30
0.0
 40
0.8500000000000227
  0
CIRCLE
  5
10A
100
AcDbEntity
  8
None
370
               9
390
0
  6
Continuous
 62
               7
100
AcDbCircle
 10
-0.030479689713836
 20
12.485999816802376
 30
0.0
 40
0.4249999999999545
  0
CIRCLE
  5
10B
100
AcDbEntity
  8
None
370
               9
390
0
  6
Continuous
 62
               7
100
AcDbCircle
 10
-9.7554796897138587
 20
7.7609998168021264
 30
0.0
 40
0.4250000000000114
  0
POLYLINE
  5
10C
100
AcDbEntity
  8
None
370
               5
390
0
  6
STYLE_12
 62
               5
100
AcDb2dPolyline
 66
               1
 10
0.0
 20
0.0
 30
0.0
 70
               1
 75
               5
  0
VERTEX
  5
10D
100
AcDbEntity
  8
None
370
               5
390
0
  6
STYLE_12
 62
               5
100
AcDbVertex
100
AcDb2dVertex
 10
-7.9429796897138587
 20
12.923499816802433
 30
0.0
  0
VERTEX
  5
10E
100
AcDbEntity
  8
None
370
               5
390
0
  6
STYLE_12
 62
               5
100
AcDbVertex
100
AcDb2dVertex
 10
-1.342979689713836
 20
12.923499816802433
 30
0.0
  0
VERTEX
  5
10F
100
AcDbEntity
  8
None
370
               5
390
0
  6
STYLE_12
 62
               5
100
AcDbVertex
100
AcDb2dVertex
 10
-1.342979689713836
 20
6.3234998168021264
 30
0.0
  0
VERTEX
  5
110
100
AcDbEntity
  8
None
370
               5
390
0
  6
STYLE_12
 62
               5
100
AcDbVertex
100
AcDb2dVertex
 10
-7.9429796897138587
 20
6.3234998168021264
 30
0.0
  0
SEQEND
  5
111
100
AcDbEntity
  8
None
370
               5
390
0
  6
STYLE_12
 62
               5
  0
INSERT
  5
112
100
AcDbEntity
  8
Dimension
390
0
 62
               5
100
AcDbBlockReference
  2
Group-5
 10
0.0
 20
0.0
 30
0.0
  0
INSERT
  5
113
100
AcDbEntity
  8
Dimension
390
0
 62
               7
100
AcDbBlockReference
  2
Group-6
 10
0.0
 20
0.0
 30
0.0
  0
INSERT
  5
114
100
AcDbEntity
  8
None
390
0
 62
               7
100
AcDbBlockReference
  2
Group-14
 10
0.0
 20
0.0
 30
0.0
  0
ENDBLK
  5
115
100
AcDbEntity
  8
None
390
0
100
AcDbBlockEnd
  0
ENDSEC
  0
SECTION
  2
ENTITIES
  0
INSERT
  5
116
100
AcDbEntity
  8
None
390
0
 62
               7
100
AcDbBlockReference
  2
Group-15
 10
4.8929796897138473
 20
-9.623499816802223
 30
0.0
  0
ENDSEC
  0
SECTION
  2
OBJECTS
  0
DICTIONARY
  5
19
100
AcDbDictionary
280
               0
281
               1
  3
ACAD_GROUP
350
1A
  3
ACAD_MLINESTYLE
350
1B
  3
ACAD_LAYOUT
350
1E
  3
ACAD_PLOTSETTINGS
350
22
  3
ACAD_PLOTSTYLENAME
350
1F
  0
DICTIONARY
  5
1A
102
{ACAD_REACTORS
330
19
102
}
100
AcDbDictionary
280
               0
281
               1
  0
DICTIONARY
  5
1B
102
{ACAD_REACTORS
330
19
102
}
100
AcDbDictionary
280
               0
281
               1
  3
Standard
350
1C
  0
MLINESTYLE
  5
1C
102
{ACAD_REACTORS
330
1B
102
}
100
AcDbMlineStyle
  2
Standard
 70
               0
  3

 62
               0
 51
90.0
 52
90.0
 71
               2
 49
0.5
 62
             256
  6
ByLayer
 49
-0.5
 62
             256
  6
ByLayer
  0
ACDBDICTIONARYWDFLT
  5
1F
102
{ACAD_REACTORS
330
19
102
}
100
AcDbDictionary
281
               1
  3
Normal
350
1D
100
AcDbDictionaryWithDefault
340
1D
  0
ACDBPLACEHOLDER
  5
1D
102
{ACAD_REACTORS
330
1F
102
}
  0
LAYOUT
  5
20
102
{ACAD_REACTORS
330
1E
102
}
100
AcDbPlotSettings
  1

  2

  4

  6

 40
0.0
 41
0.0
 42
0.0
 43
0.0
 44
0.0
 45
0.0
 46
0.0
 47
0.0
 48
0.0
 49
0.0
140
0.0
141
0.0
142
1.0
143
1.0
 70
            1024
 72
               0
 73
               0
 74
               0
  7

 75
               0
147
1.0
148
0.0
149
0.0
100
AcDbLayout
  1
Model
 70
               0
 71
               0
 10
0.0
 20
0.0
 11
0.0
 21
0.0
 12
0.0
 22
0.0
 32
0.0
 14
0.0
 24
0.0
 34
0.0
 15
0.0
 25
0.0
 35
0.0
146
0.0
 13
0.0
 23
0.0
 33
0.0
 16
0.0
 26
0.0
 36
0.0
 17
0.0
 27
0.0
 37
0.0
 76
               0
330
A
331
0
345
0
346
0
  0
LAYOUT
  5
21
102
{ACAD_REACTORS
330
1E
102
}
100
AcDbPlotSettings
  1

  2

  4

  6

 40
0.0
 41
0.0
 42
0.0
 43
0.0
 44
0.0
 45
0.0
 46
0.0
 47
0.0
 48
0.0
 49
0.0
140
0.0
141
0.0
142
1.0
143
1.0
 70
               0
 72
               0
 73
               0
 74
               0
  7

 75
               0
147
1.0
148
0.0
149
0.0
100
AcDbLayout
  1
Layout1
 70
               0
 71
               0
 10
0.0
 20
0.0
 11
0.0
 21
0.0
 12
0.0
 22
0.0
 32
0.0
 14
0.0
 24
0.0
 34
0.0
 15
0.0
 25
0.0
 35
0.0
146
0.0
 13
0.0
 23
0.0
 33
0.0
 16
0.0
 26
0.0
 36
0.0
 17
0.0
 27
0.0
 37
0.0
 76
               0
330
B
331
0
345
0
346
0
  0
DICTIONARY
  5
1E
102
{ACAD_REACTORS
330
19
102
}
100
AcDbDictionary
280
               0
281
               1
  3
Layout1
350
21
  3
Model
350
20
  0
DICTIONARY
  5
22
102
{ACAD_REACTORS
330
19
102
}
100
AcDbDictionary
280
               0
281
               1
  0
ENDSEC
  0
EOF
