  0
SECTION
  2
HEADER
  9
$ACADVER
  1
AC1014
  9
$ACADMAINTVER
 70
     9
  9
$DWGCODEPAGE
  3
ANSI_1252
  9
$INSBASE
 10
0.0
 20
0.0
 30
0.0
  9
$EXTMIN
 10
0.0
 20
0.0
 30
0.0
  9
$EXTMAX
 10
279.4
 20
215.9
 30
0.0
  9
$LIMMIN
 10
0.0
 20
0.0
  9
$LIMMAX
 10
279.4
 20
215.9
  9
$ORTHOMODE
 70
     0
  9
$REGENMODE
 70
     1
  9
$FILLMODE
 70
     1
  9
$QTEXTMODE
 70
     0
  9
$MIRRTEXT
 70
     1
  9
$DRAGMODE
 70
     2
  9
$LTSCALE
 40
1.0
  9
$OSMODE
 70
    37
  9
$ATTMODE
 70
     1
  9
$TEXTSIZE
 40
3.5277777778
  9
$TRACEWID
 40
1.0
  9
$TEXTSTYLE
  7
STANDARD
  9
$CLAYER
  8
0
  9
$CELTYPE
  6
BYLAYER
  9
$CECOLOR
 62
   256
  9
$CELTSCALE
 40
1.0
  9
$DELOBJ
 70
     1
  9
$DISPSILH
 70
     0
  9
$DIMSCALE
 40
1.0
  9
$DIMASZ
 40
3.175
  9
$DIMEXO
 40
1.27
  9
$DIMDLI
 40
3.75
  9
$DIMRND
 40
0.0
  9
$DIMDLE
 40
0.0
  9
$DIMEXE
 40
3.175
  9
$DIMTP
 40
0.0
  9
$DIMTM
 40
0.0
  9
$DIMTXT
 40
3.5277777778
  9
$DIMCEN
 40
2.5
  9
$DIMTSZ
 40
0.0
  9
$DIMTOL
 70
     0
  9
$DIMLIM
 70
     0
  9
$DIMTIH
 70
     1
  9
$DIMTOH
 70
     1
  9
$DIMSE1
 70
     0
  9
$DIMSE2
 70
     0
  9
$DIMTAD
 70
     0
  9
$DIMZIN
 70
     1
  9
$DIMBLK
  1

  9
$DIMASO
 70
     1
  9
$DIMSHO
 70
     1
  9
$DIMPOST
  1

  9
$DIMAPOST
  1

  9
$DIMALT
 70
     0
  9
$DIMALTD
 70
     3
  9
$DIMALTF
 40
0.0393700787
  9
$DIMLFAC
 40
0.25
  9
$DIMTOFL
 70
     1
  9
$DIMTVP
 40
0.0
  9
$DIMTIX
 70
     0
  9
$DIMSOXD
 70
     0
  9
$DIMSAH
 70
     0
  9
$DIMBLK1
  1

  9
$DIMBLK2
  1

  9
$DIMSTYLE
  2
ISO-25
  9
$DIMCLRD
 70
     0
  9
$DIMCLRE
 70
     0
  9
$DIMCLRT
 70
     0
  9
$DIMTFAC
 40
1.0
  9
$DIMGAP
 40
1.524
  9
$DIMJUST
 70
     0
  9
$DIMSD1
 70
     0
  9
$DIMSD2
 70
     0
  9
$DIMTOLJ
 70
     0
  9
$DIMTZIN
 70
     1
  9
$DIMALTZ
 70
     0
  9
$DIMALTTZ
 70
     0
  9
$DIMFIT
 70
     3
  9
$DIMUPT
 70
     0
  9
$DIMUNIT
 70
     2
  9
$DIMDEC
 70
     3
  9
$DIMTDEC
 70
     3
  9
$DIMALTU
 70
     2
  9
$DIMALTTD
 70
     3
  9
$DIMTXSTY
  7
STANDARD
  9
$DIMAUNIT
 70
     0
  9
$LUNITS
 70
     2
  9
$LUPREC
 70
     2
  9
$SKETCHINC
 40
1.0
  9
$FILLETRAD
 40
0.0
  9
$AUNITS
 70
     0
  9
$AUPREC
 70
     2
  9
$MENU
  1
.
  9
$ELEVATION
 40
0.0
  9
$PELEVATION
 40
0.0
  9
$THICKNESS
 40
0.0
  9
$LIMCHECK
 70
     0
  9
$CHAMFERA
 40
0.0
  9
$CHAMFERB
 40
0.0
  9
$CHAMFERC
 40
0.0
  9
$CHAMFERD
 40
0.0
  9
$SKPOLY
 70
     0
  9
$TDCREATE
 40
2460242.629788079
  9
$TDUPDATE
 40
2460242.629788403
  9
$TDINDWG
 40
0.0000000116
  9
$TDUSRTIMER
 40
0.0000000116
  9
$USRTIMER
 70
     1
  9
$ANGBASE
 50
0.0
  9
$ANGDIR
 70
     0
  9
$PDMODE
 70
     0
  9
$PDSIZE
 40
-1.0
  9
$PLINEWID
 40
0.0
  9
$COORDS
 70
     1
  9
$SPLFRAME
 70
     0
  9
$SPLINETYPE
 70
     6
  9
$SPLINESEGS
 70
     8
  9
$ATTDIA
 70
     0
  9
$ATTREQ
 70
     1
  9
$HANDLING
 70
     1
  9
$HANDSEED
  5
1DE
  9
$SURFTAB1
 70
     6
  9
$SURFTAB2
 70
     6
  9
$SURFTYPE
 70
     6
  9
$SURFU
 70
     6
  9
$SURFV
 70
     6
  9
$UCSNAME
  2

  9
$UCSORG
 10
0.0
 20
0.0
 30
0.0
  9
$UCSXDIR
 10
1.0
 20
0.0
 30
0.0
  9
$UCSYDIR
 10
0.0
 20
1.0
 30
0.0
  9
$PUCSNAME
  2

  9
$PUCSORG
 10
0.0
 20
0.0
 30
0.0
  9
$PUCSXDIR
 10
1.0
 20
0.0
 30
0.0
  9
$PUCSYDIR
 10
0.0
 20
1.0
 30
0.0
  9
$USERI1
 70
     0
  9
$USERI2
 70
     0
  9
$USERI3
 70
     0
  9
$USERI4
 70
     0
  9
$USERI5
 70
     0
  9
$USERR1
 40
0.0
  9
$USERR2
 40
0.0
  9
$USERR3
 40
0.0
  9
$USERR4
 40
0.0
  9
$USERR5
 40
0.0
  9
$WORLDVIEW
 70
     1
  9
$SHADEDGE
 70
     3
  9
$SHADEDIF
 70
    70
  9
$TILEMODE
 70
     1
  9
$MAXACTVP
 70
    64
  9
$PINSBASE
 10
0.0
 20
0.0
 30
0.0
  9
$PLIMCHECK
 70
     0
  9
$PEXTMIN
 10
1.0000000000E+20
 20
1.0000000000E+20
 30
1.0000000000E+20
  9
$PEXTMAX
 10
-1.0000000000E+20
 20
-1.0000000000E+20
 30
-1.0000000000E+20
  9
$PLIMMIN
 10
0.0
 20
0.0
  9
$PLIMMAX
 10
420.0
 20
297.0
  9
$UNITMODE
 70
     0
  9
$VISRETAIN
 70
     1
  9
$PLINEGEN
 70
     0
  9
$PSLTSCALE
 70
     1
  9
$TREEDEPTH
 70
  3020
  9
$PICKSTYLE
 70
     1
  9
$CMLSTYLE
  2
STANDARD
  9
$CMLJUST
 70
     0
  9
$CMLSCALE
 40
20.0
  9
$PROXYGRAPHICS
 70
     1
  9
$MEASUREMENT
 70
     1
  0
ENDSEC
  0
SECTION
  2
CLASSES
  0
CLASS
  1
ACDBDICTIONARYWDFLT
  2
AcDbDictionaryWithDefault
  3
ObjectDBX Classes
 90
        0
280
     0
281
     0
  0
CLASS
  1
VISUALSTYLE
  2
AcDbVisualStyle
  3
ObjectDBX Classes
 90
     4095
280
     0
281
     0
  0
CLASS
  1
MATERIAL
  2
AcDbMaterial
  3
ObjectDBX Classes
 90
     1153
280
     0
281
     0
  0
CLASS
  1
SCALE
  2
AcDbScale
  3
ObjectDBX Classes
 90
     1153
280
     0
281
     0
  0
CLASS
  1
TABLESTYLE
  2
AcDbTableStyle
  3
ObjectDBX Classes
 90
     4095
280
     0
281
     0
  0
CLASS
  1
MLEADERSTYLE
  2
AcDbMLeaderStyle
  3
ACDB_MLEADERSTYLE_CLASS
 90
     4095
280
     0
281
     0
  0
CLASS
  1
SUN
  2
AcDbSun
  3
SCENEOE
 90
     1153
280
     0
281
     0
  0
CLASS
  1
XRECORD
  2
AcDbXrecord
  3
ObjectDBX Classes
 90
        0
280
     0
281
     0
  0
CLASS
  1
LWPOLYLINE
  2
AcDbPolyline
  3
ObjectDBX Classes
 90
        0
280
     0
281
     1
  0
CLASS
  1
HATCH
  2
AcDbHatch
  3
ObjectDBX Classes
 90
        0
280
     0
281
     1
  0
ENDSEC
  0
SECTION
  2
TABLES
  0
TABLE
  2
VPORT
  5
8
330
0
100
AcDbSymbolTable
 70
     1
  0
VPORT
  5
29
330
8
100
AcDbSymbolTableRecord
100
AcDbViewportTableRecord
  2
*ACTIVE
 70
     0
 10
0.0
 20
0.0
 11
1.0
 21
1.0
 12
139.7
 22
107.95
 13
0.0
 23
0.0
 14
10.0
 24
10.0
 15
10.0
 25
10.0
 16
0.0
 26
0.0
 36
1.0
 17
0.0
 27
0.0
 37
0.0
 40
215.9
 41
1.2941176471
 42
50.0
 43
0.0
 44
0.0
 50
0.0
 51
0.0
 71
     0
 72
  2000
 73
     1
 74
     3
 75
     0
 76
     0
 77
     0
 78
     0
  0
ENDTAB
  0
TABLE
  2
LTYPE
  5
5
330
0
100
AcDbSymbolTable
 70
     6
  0
LTYPE
  5
14
330
5
100
AcDbSymbolTableRecord
100
AcDbLinetypeTableRecord
  2
BYBLOCK
 70
     0
  3

 72
    65
 73
     0
 40
0.0
  0
LTYPE
  5
15
330
5
100
AcDbSymbolTableRecord
100
AcDbLinetypeTableRecord
  2
BYLAYER
 70
     0
  3

 72
    65
 73
     0
 40
0.0
  0
LTYPE
  5
16
330
5
100
AcDbSymbolTableRecord
100
AcDbLinetypeTableRecord
  2
CONTINUOUS
 70
     0
  3
Solid line
 72
    65
 73
     0
 40
0.0
  0
LTYPE
  5
5E
330
5
100
AcDbSymbolTableRecord
100
AcDbLinetypeTableRecord
  2
HIDDEN
 70
     0
  3
Hidden __ __ __ __ __ __ __ __ __ __ __ __ __ __
 72
    65
 73
     2
 40
1.905
 49
1.27
 74
     0
 49
-0.635
 74
     0
  0
LTYPE
  5
5F
330
5
100
AcDbSymbolTableRecord
100
AcDbLinetypeTableRecord
  2
PHANTOM
 70
     0
  3
Phantom ______  __  __  ______  __  __  ______
 72
    65
 73
     6
 40
12.7
 49
6.35
 74
     0
 49
-1.27
 74
     0
 49
1.27
 74
     0
 49
-1.27
 74
     0
 49
1.27
 74
     0
 49
-1.27
 74
     0
  0
LTYPE
  5
60
330
5
100
AcDbSymbolTableRecord
100
AcDbLinetypeTableRecord
  2
CENTER
 70
     0
  3
Center ____ _ ____ _ ____ _ ____ _ ____ _ ____
 72
    65
 73
     4
 40
10.16
 49
6.35
 74
     0
 49
-1.27
 74
     0
 49
1.27
 74
     0
 49
-1.27
 74
     0
  0
LTYPE
  5
61
330
5
100
AcDbSymbolTableRecord
100
AcDbLinetypeTableRecord
  2
CENTERX2
 70
     0
  3
Center (2x) ________  __  ________  __  _____
 72
    65
 73
     4
 40
20.32
 49
12.7
 74
     0
 49
-2.54
 74
     0
 49
2.54
 74
     0
 49
-2.54
 74
     0
  0
LTYPE
  5
62
330
5
100
AcDbSymbolTableRecord
100
AcDbLinetypeTableRecord
  2
DOT2
 70
     0
  3
Dot (.5x) ........................................
 72
    65
 73
     2
 40
0.635
 49
0.0
 74
     0
 49
-0.635
 74
     0
  0
ENDTAB
  0
TABLE
  2
LAYER
  5
2
330
0
100
AcDbSymbolTable
 70
     9
  0
LAYER
  5
10
330
2
100
AcDbSymbolTableRecord
100
AcDbLayerTableRecord
  2
0
 70
     0
 62
     7
  6
CONTINUOUS
  0
LAYER
  5
63
330
2
100
AcDbSymbolTableRecord
100
AcDbLayerTableRecord
  2
FORMAT
 70
     0
 62
     7
  6
CONTINUOUS
  0
LAYER
  5
64
330
2
100
AcDbSymbolTableRecord
100
AcDbLayerTableRecord
  2
SLD-0
 70
     0
 62
  -179
  6
CONTINUOUS
  0
LAYER
  5
65
330
2
100
AcDbSymbolTableRecord
100
AcDbLayerTableRecord
  2
SLD-DEFPOINTS
 70
     0
 62
  -179
  6
CONTINUOUS
  0
LAYER
  5
66
330
2
100
AcDbSymbolTableRecord
100
AcDbLayerTableRecord
  2
NONE
 70
     0
 62
   179
  6
CONTINUOUS
  0
LAYER
  5
67
330
2
100
AcDbSymbolTableRecord
100
AcDbLayerTableRecord
  2
DIMENSION
 70
     0
 62
   179
  6
CONTINUOUS
  0
LAYER
  5
68
330
2
100
AcDbSymbolTableRecord
100
AcDbLayerTableRecord
  2
SOLID_LINES
 70
     0
 62
  -179
  6
CONTINUOUS
  0
LAYER
  5
69
330
2
100
AcDbSymbolTableRecord
100
AcDbLayerTableRecord
  2
PAGE_FRAME
 70
     0
 62
   179
  6
CONTINUOUS
  0
LAYER
  5
6A
330
2
100
AcDbSymbolTableRecord
100
AcDbLayerTableRecord
  2
LAYOUT
 70
     0
 62
   179
  6
CONTINUOUS
  0
ENDTAB
  0
TABLE
  2
STYLE
  5
3
330
0
100
AcDbSymbolTable
 70
     1
  0
STYLE
  5
11
330
3
100
AcDbSymbolTableRecord
100
AcDbTextStyleTableRecord
  2
STANDARD
 70
     0
 40
0.0
 41
1.0
 50
0.0
 71
     0
 42
3.5277777778
  3
txt
  4

  0
ENDTAB
  0
TABLE
  2
VIEW
  5
6
330
0
100
AcDbSymbolTable
 70
     0
  0
ENDTAB
  0
TABLE
  2
UCS
  5
7
330
0
100
AcDbSymbolTable
 70
     0
  0
ENDTAB
  0
TABLE
  2
APPID
  5
9
330
0
100
AcDbSymbolTable
 70
     1
  0
APPID
  5
12
330
9
100
AcDbSymbolTableRecord
100
AcDbRegAppTableRecord
  2
ACAD
 70
     0
  0
ENDTAB
  0
TABLE
  2
DIMSTYLE
  5
A
330
0
100
AcDbSymbolTable
 70
     1
  0
DIMSTYLE
105
27
330
A
100
AcDbSymbolTableRecord
100
AcDbDimStyleTableRecord
  2
ISO-25
 70
     0
  3

  4

  5

  6

  7

 40
1.0
 41
2.5
 42
0.625
 43
3.75
 44
1.25
 45
0.0
 46
0.0
 47
0.0
 48
0.0
140
2.5
141
2.5
142
0.0
143
0.0393700787
144
1.0
145
0.0
146
1.0
147
0.625
 71
     0
 72
     0
 73
     0
 74
     0
 75
     0
 76
     0
 77
     1
 78
     8
170
     0
171
     3
172
     1
173
     0
174
     0
175
     0
176
     0
177
     0
178
     0
270
     2
271
     2
272
     2
273
     2
274
     3
340
11
275
     0
280
     0
281
     0
282
     0
283
     0
284
     8
285
     0
286
     0
287
     3
288
     0
  0
ENDTAB
  0
TABLE
  2
BLOCK_RECORD
  5
1
330
0
100
AcDbSymbolTable
 70
     1
  0
BLOCK_RECORD
  5
1F
330
1
100
AcDbSymbolTableRecord
100
AcDbBlockTableRecord
  2
*MODEL_SPACE
  0
BLOCK_RECORD
  5
1B
330
1
100
AcDbSymbolTableRecord
100
AcDbBlockTableRecord
  2
*PAPER_SPACE
  0
BLOCK_RECORD
  5
23
330
1
100
AcDbSymbolTableRecord
100
AcDbBlockTableRecord
  2
*PAPER_SPACE0
  0
ENDTAB
  0
ENDSEC
  0
SECTION
  2
BLOCKS
  0
BLOCK
  5
20
330
1F
100
AcDbEntity
  8
0
100
AcDbBlockBegin
  2
*MODEL_SPACE
 70
     0
 10
0.0
 20
0.0
 30
0.0
  3
*MODEL_SPACE
  1

  0
ENDBLK
  5
21
330
1F
100
AcDbEntity
  8
0
100
AcDbBlockEnd
  0
BLOCK
  5
1C
330
1B
100
AcDbEntity
 67
     1
  8
0
100
AcDbBlockBegin
  2
*PAPER_SPACE
 70
     0
 10
0.0
 20
0.0
 30
0.0
  3
*PAPER_SPACE
  1

  0
ENDBLK
  5
1D
330
1B
100
AcDbEntity
 67
     1
  8
0
100
AcDbBlockEnd
  0
BLOCK
  5
24
330
23
100
AcDbEntity
  8
0
100
AcDbBlockBegin
  2
*PAPER_SPACE0
 70
     0
 10
0.0
 20
0.0
 30
0.0
  3
*PAPER_SPACE0
  1

  0
ENDBLK
  5
25
330
23
100
AcDbEntity
  8
0
100
AcDbBlockEnd
  0
ENDSEC
  0
SECTION
  2
ENTITIES
  0
ARC
  5
6B
330
1F
100
AcDbEntity
  8
0
  6
CONTINUOUS
 62
     9
100
AcDbCircle
 10
47.9423557951
 20
89.2075175202
 30
0.0
 40
8.000000000000014
100
AcDbArc
 50
270.0
 51
321.3178125465
  0
ARC
  5
6C
330
1F
100
AcDbEntity
  8
0
  6
CONTINUOUS
 62
     9
100
AcDbCircle
 10
47.9423557951
 20
89.2075175202
 30
0.0
 40
8.000000000000014
100
AcDbArc
 50
128.6821874535
 51
270.0
  0
ARC
  5
6D
330
1F
100
AcDbEntity
  8
0
  6
CONTINUOUS
 62
     9
100
AcDbCircle
 10
118.8423557951
 20
160.1075175202
 30
0.0
 40
8.000000000000016
100
AcDbArc
 50
308.6821874535
 51
141.3178125465
  0
ARC
  5
6E
330
1F
100
AcDbEntity
  8
0
  6
CONTINUOUS
 62
     9
100
AcDbCircle
 10
118.8423557951
 20
89.2075175202
 30
0.0
 40
7.999999999999987
100
AcDbArc
 50
270.0
 51
51.3178125465
  0
ARC
  5
6F
330
1F
100
AcDbEntity
  8
0
  6
CONTINUOUS
 62
     9
100
AcDbCircle
 10
118.8423557951
 20
89.2075175202
 30
0.0
 40
7.999999999999999
100
AcDbArc
 50
218.6821874535
 51
270.0
  0
ARC
  5
70
330
1F
100
AcDbEntity
  8
0
  6
CONTINUOUS
 62
     9
100
AcDbCircle
 10
47.9423557951
 20
160.1075175202
 30
0.0
 40
8.000000000000002
100
AcDbArc
 50
38.6821874535
 51
231.3178125465
  0
LINE
  5
71
330
1F
100
AcDbEntity
  8
0
  6
CONTINUOUS
 62
     9
100
AcDbLine
 10
113.1855015457
 20
165.7643717697
 30
0.0
 11
112.5286472962
 21
165.1075175202
 31
0.0
  0
LINE
  5
72
330
1F
100
AcDbEntity
  8
0
  6
CONTINUOUS
 62
     9
100
AcDbLine
 10
118.3645825394
 20
148.3160357655
 30
0.0
 11
120.4738375499
 21
150.425290776
 31
0.0
  0
LINE
  5
73
330
1F
100
AcDbEntity
  8
0
  6
CONTINUOUS
 62
     9
100
AcDbLine
 10
123.8423557951
 20
153.7938090212
 30
0.0
 11
124.4992100446
 21
154.4506632707
 31
0.0
  0
LINE
  5
74
330
1F
100
AcDbEntity
  8
0
  6
CONTINUOUS
 62
     9
100
AcDbLine
 10
124.4992100446
 20
94.8643717697
 30
0.0
 11
123.8423557951
 21
95.5212260192
 31
0.0
  0
LINE
  5
75
330
1F
100
AcDbEntity
  8
0
  6
CONTINUOUS
 62
     9
100
AcDbLine
 10
112.5286472962
 20
84.2075175202
 30
0.0
 11
113.1855015457
 21
83.5506632707
 31
0.0
  0
LINE
  5
76
330
1F
100
AcDbEntity
  8
0
  6
CONTINUOUS
 62
     9
100
AcDbLine
 10
53.5992100446
 20
83.5506632707
 30
0.0
 11
54.2560642941
 21
84.2075175202
 31
0.0
  0
LINE
  5
77
330
1F
100
AcDbEntity
  8
0
  6
CONTINUOUS
 62
     9
100
AcDbLine
 10
42.9423557951
 20
95.5212260192
 30
0.0
 11
42.2855015457
 21
94.8643717697
 31
0.0
  0
LINE
  5
78
330
1F
100
AcDbEntity
  8
0
  6
CONTINUOUS
 62
     9
100
AcDbLine
 10
54.2560642941
 20
165.1075175202
 30
0.0
 11
53.5992100446
 21
165.7643717697
 31
0.0
  0
LINE
  5
79
330
1F
100
AcDbEntity
  8
0
  6
CONTINUOUS
 62
     9
100
AcDbLine
 10
42.2855015457
 20
154.4506632707
 30
0.0
 11
42.9423557951
 21
153.7938090212
 31
0.0
  0
LINE
  5
7A
330
1F
100
AcDbEntity
  8
0
  6
CONTINUOUS
 62
     7
100
AcDbLine
 10
103.6923557951
 20
120.1575175202
 30
0.0
 11
103.6923557951
 21
119.1575175202
 31
0.0
  0
LINE
  5
7B
330
1F
100
AcDbEntity
  8
0
  6
CONTINUOUS
 62
     7
100
AcDbLine
 10
109.8923557951
 20
120.1575175202
 30
0.0
 11
103.6923557951
 21
120.1575175202
 31
0.0
  0
LINE
  5
7C
330
1F
100
AcDbEntity
  8
0
  6
CONTINUOUS
 62
     7
100
AcDbLine
 10
109.8923557951
 20
119.1575175202
 30
0.0
 11
109.8923557951
 21
120.1575175202
 31
0.0
  0
LINE
  5
7D
330
1F
100
AcDbEntity
  8
0
  6
CONTINUOUS
 62
     7
100
AcDbLine
 10
103.6923557951
 20
119.1575175202
 30
0.0
 11
109.8923557951
 21
119.1575175202
 31
0.0
  0
LINE
  5
7E
330
1F
100
AcDbEntity
  8
0
  6
CONTINUOUS
 62
     7
100
AcDbLine
 10
103.6923557951
 20
118.1575175202
 30
0.0
 11
103.6923557951
 21
117.1575175202
 31
0.0
  0
LINE
  5
7F
330
1F
100
AcDbEntity
  8
0
  6
CONTINUOUS
 62
     7
100
AcDbLine
 10
109.8923557951
 20
118.1575175202
 30
0.0
 11
103.6923557951
 21
118.1575175202
 31
0.0
  0
LINE
  5
80
330
1F
100
AcDbEntity
  8
0
  6
CONTINUOUS
 62
     7
100
AcDbLine
 10
109.8923557951
 20
117.1575175202
 30
0.0
 11
109.8923557951
 21
118.1575175202
 31
0.0
  0
LINE
  5
81
330
1F
100
AcDbEntity
  8
0
  6
CONTINUOUS
 62
     7
100
AcDbLine
 10
103.6923557951
 20
117.1575175202
 30
0.0
 11
109.8923557951
 21
117.1575175202
 31
0.0
  0
LINE
  5
82
330
1F
100
AcDbEntity
  8
0
  6
CONTINUOUS
 62
     7
100
AcDbLine
 10
103.6923557951
 20
116.1575175202
 30
0.0
 11
103.6923557951
 21
115.1575175202
 31
0.0
  0
LINE
  5
83
330
1F
100
AcDbEntity
  8
0
  6
CONTINUOUS
 62
     7
100
AcDbLine
 10
109.8923557951
 20
116.1575175202
 30
0.0
 11
103.6923557951
 21
116.1575175202
 31
0.0
  0
LINE
  5
84
330
1F
100
AcDbEntity
  8
0
  6
CONTINUOUS
 62
     7
100
AcDbLine
 10
109.8923557951
 20
115.1575175202
 30
0.0
 11
109.8923557951
 21
116.1575175202
 31
0.0
  0
LINE
  5
85
330
1F
100
AcDbEntity
  8
0
  6
CONTINUOUS
 62
     7
100
AcDbLine
 10
103.6923557951
 20
115.1575175202
 30
0.0
 11
109.8923557951
 21
115.1575175202
 31
0.0
  0
LINE
  5
86
330
1F
100
AcDbEntity
  8
0
  6
CONTINUOUS
 62
     7
100
AcDbLine
 10
103.6923557951
 20
114.1575175202
 30
0.0
 11
103.6923557951
 21
113.1575175202
 31
0.0
  0
LINE
  5
87
330
1F
100
AcDbEntity
  8
0
  6
CONTINUOUS
 62
     7
100
AcDbLine
 10
109.8923557951
 20
114.1575175202
 30
0.0
 11
103.6923557951
 21
114.1575175202
 31
0.0
  0
LINE
  5
88
330
1F
100
AcDbEntity
  8
0
  6
CONTINUOUS
 62
     7
100
AcDbLine
 10
109.8923557951
 20
113.1575175202
 30
0.0
 11
109.8923557951
 21
114.1575175202
 31
0.0
  0
LINE
  5
89
330
1F
100
AcDbEntity
  8
0
  6
CONTINUOUS
 62
     7
100
AcDbLine
 10
103.6923557951
 20
113.1575175202
 30
0.0
 11
109.8923557951
 21
113.1575175202
 31
0.0
  0
LINE
  5
8A
330
1F
100
AcDbEntity
  8
0
  6
CONTINUOUS
 62
     7
100
AcDbLine
 10
103.6923557951
 20
112.1575175202
 30
0.0
 11
103.6923557951
 21
111.1575175202
 31
0.0
  0
LINE
  5
8B
330
1F
100
AcDbEntity
  8
0
  6
CONTINUOUS
 62
     7
100
AcDbLine
 10
109.8923557951
 20
112.1575175202
 30
0.0
 11
103.6923557951
 21
112.1575175202
 31
0.0
  0
LINE
  5
8C
330
1F
100
AcDbEntity
  8
0
  6
CONTINUOUS
 62
     7
100
AcDbLine
 10
109.8923557951
 20
111.1575175202
 30
0.0
 11
109.8923557951
 21
112.1575175202
 31
0.0
  0
LINE
  5
8D
330
1F
100
AcDbEntity
  8
0
  6
CONTINUOUS
 62
     7
100
AcDbLine
 10
103.6923557951
 20
111.1575175202
 30
0.0
 11
109.8923557951
 21
111.1575175202
 31
0.0
  0
LINE
  5
8E
330
1F
100
AcDbEntity
  8
0
  6
CONTINUOUS
 62
     7
100
AcDbLine
 10
103.6923557951
 20
110.1575175202
 30
0.0
 11
103.6923557951
 21
109.1575175202
 31
0.0
  0
LINE
  5
8F
330
1F
100
AcDbEntity
  8
0
  6
CONTINUOUS
 62
     7
100
AcDbLine
 10
109.8923557951
 20
110.1575175202
 30
0.0
 11
103.6923557951
 21
110.1575175202
 31
0.0
  0
LINE
  5
90
330
1F
100
AcDbEntity
  8
0
  6
CONTINUOUS
 62
     7
100
AcDbLine
 10
109.8923557951
 20
109.1575175202
 30
0.0
 11
109.8923557951
 21
110.1575175202
 31
0.0
  0
LINE
  5
91
330
1F
100
AcDbEntity
  8
0
  6
CONTINUOUS
 62
     7
100
AcDbLine
 10
103.6923557951
 20
109.1575175202
 30
0.0
 11
109.8923557951
 21
109.1575175202
 31
0.0
  0
LINE
  5
92
330
1F
100
AcDbEntity
  8
0
  6
CONTINUOUS
 62
     7
100
AcDbLine
 10
99.8923557951
 20
105.3575175202
 30
0.0
 11
98.8923557951
 21
105.3575175202
 31
0.0
  0
LINE
  5
93
330
1F
100
AcDbEntity
  8
0
  6
CONTINUOUS
 62
     7
100
AcDbLine
 10
99.8923557951
 20
99.1575175202
 30
0.0
 11
99.8923557951
 21
105.3575175202
 31
0.0
  0
LINE
  5
94
330
1F
100
AcDbEntity
  8
0
  6
CONTINUOUS
 62
     7
100
AcDbLine
 10
98.8923557951
 20
99.1575175202
 30
0.0
 11
99.8923557951
 21
99.1575175202
 31
0.0
  0
LINE
  5
95
330
1F
100
AcDbEntity
  8
0
  6
CONTINUOUS
 62
     7
100
AcDbLine
 10
98.8923557951
 20
105.3575175202
 30
0.0
 11
98.8923557951
 21
99.1575175202
 31
0.0
  0
LINE
  5
96
330
1F
100
AcDbEntity
  8
0
  6
CONTINUOUS
 62
     7
100
AcDbLine
 10
97.8923557951
 20
105.3575175202
 30
0.0
 11
96.8923557951
 21
105.3575175202
 31
0.0
  0
LINE
  5
97
330
1F
100
AcDbEntity
  8
0
  6
CONTINUOUS
 62
     7
100
AcDbLine
 10
97.8923557951
 20
99.1575175202
 30
0.0
 11
97.8923557951
 21
105.3575175202
 31
0.0
  0
LINE
  5
98
330
1F
100
AcDbEntity
  8
0
  6
CONTINUOUS
 62
     7
100
AcDbLine
 10
96.8923557951
 20
99.1575175202
 30
0.0
 11
97.8923557951
 21
99.1575175202
 31
0.0
  0
LINE
  5
99
330
1F
100
AcDbEntity
  8
0
  6
CONTINUOUS
 62
     7
100
AcDbLine
 10
96.8923557951
 20
105.3575175202
 30
0.0
 11
96.8923557951
 21
99.1575175202
 31
0.0
  0
LINE
  5
9A
330
1F
100
AcDbEntity
  8
0
  6
CONTINUOUS
 62
     7
100
AcDbLine
 10
95.8923557951
 20
105.3575175202
 30
0.0
 11
94.8923557951
 21
105.3575175202
 31
0.0
  0
LINE
  5
9B
330
1F
100
AcDbEntity
  8
0
  6
CONTINUOUS
 62
     7
100
AcDbLine
 10
95.8923557951
 20
99.1575175202
 30
0.0
 11
95.8923557951
 21
105.3575175202
 31
0.0
  0
LINE
  5
9C
330
1F
100
AcDbEntity
  8
0
  6
CONTINUOUS
 62
     7
100
AcDbLine
 10
94.8923557951
 20
99.1575175202
 30
0.0
 11
95.8923557951
 21
99.1575175202
 31
0.0
  0
LINE
  5
9D
330
1F
100
AcDbEntity
  8
0
  6
CONTINUOUS
 62
     7
100
AcDbLine
 10
94.8923557951
 20
105.3575175202
 30
0.0
 11
94.8923557951
 21
99.1575175202
 31
0.0
  0
LINE
  5
9E
330
1F
100
AcDbEntity
  8
0
  6
CONTINUOUS
 62
     7
100
AcDbLine
 10
93.8923557951
 20
105.3575175202
 30
0.0
 11
92.8923557951
 21
105.3575175202
 31
0.0
  0
LINE
  5
9F
330
1F
100
AcDbEntity
  8
0
  6
CONTINUOUS
 62
     7
100
AcDbLine
 10
93.8923557951
 20
99.1575175202
 30
0.0
 11
93.8923557951
 21
105.3575175202
 31
0.0
  0
LINE
  5
A0
330
1F
100
AcDbEntity
  8
0
  6
CONTINUOUS
 62
     7
100
AcDbLine
 10
92.8923557951
 20
99.1575175202
 30
0.0
 11
93.8923557951
 21
99.1575175202
 31
0.0
  0
LINE
  5
A1
330
1F
100
AcDbEntity
  8
0
  6
CONTINUOUS
 62
     7
100
AcDbLine
 10
92.8923557951
 20
105.3575175202
 30
0.0
 11
92.8923557951
 21
99.1575175202
 31
0.0
  0
LINE
  5
A2
330
1F
100
AcDbEntity
  8
0
  6
CONTINUOUS
 62
     7
100
AcDbLine
 10
91.8923557951
 20
105.3575175202
 30
0.0
 11
90.8923557951
 21
105.3575175202
 31
0.0
  0
LINE
  5
A3
330
1F
100
AcDbEntity
  8
0
  6
CONTINUOUS
 62
     7
100
AcDbLine
 10
91.8923557951
 20
99.1575175202
 30
0.0
 11
91.8923557951
 21
105.3575175202
 31
0.0
  0
LINE
  5
A4
330
1F
100
AcDbEntity
  8
0
  6
CONTINUOUS
 62
     7
100
AcDbLine
 10
90.8923557951
 20
99.1575175202
 30
0.0
 11
91.8923557951
 21
99.1575175202
 31
0.0
  0
LINE
  5
A5
330
1F
100
AcDbEntity
  8
0
  6
CONTINUOUS
 62
     7
100
AcDbLine
 10
90.8923557951
 20
105.3575175202
 30
0.0
 11
90.8923557951
 21
99.1575175202
 31
0.0
  0
LINE
  5
A6
330
1F
100
AcDbEntity
  8
0
  6
CONTINUOUS
 62
     7
100
AcDbLine
 10
89.8923557951
 20
105.3575175202
 30
0.0
 11
88.8923557951
 21
105.3575175202
 31
0.0
  0
LINE
  5
A7
330
1F
100
AcDbEntity
  8
0
  6
CONTINUOUS
 62
     7
100
AcDbLine
 10
89.8923557951
 20
99.1575175202
 30
0.0
 11
89.8923557951
 21
105.3575175202
 31
0.0
  0
LINE
  5
A8
330
1F
100
AcDbEntity
  8
0
  6
CONTINUOUS
 62
     7
100
AcDbLine
 10
88.8923557951
 20
99.1575175202
 30
0.0
 11
89.8923557951
 21
99.1575175202
 31
0.0
  0
LINE
  5
A9
330
1F
100
AcDbEntity
  8
0
  6
CONTINUOUS
 62
     7
100
AcDbLine
 10
88.8923557951
 20
105.3575175202
 30
0.0
 11
88.8923557951
 21
99.1575175202
 31
0.0
  0
LINE
  5
AA
330
1F
100
AcDbEntity
  8
0
  6
CONTINUOUS
 62
     7
100
AcDbLine
 10
87.8923557951
 20
105.3575175202
 30
0.0
 11
86.8923557951
 21
105.3575175202
 31
0.0
  0
LINE
  5
AB
330
1F
100
AcDbEntity
  8
0
  6
CONTINUOUS
 62
     7
100
AcDbLine
 10
87.8923557951
 20
99.1575175202
 30
0.0
 11
87.8923557951
 21
105.3575175202
 31
0.0
  0
LINE
  5
AC
330
1F
100
AcDbEntity
  8
0
  6
CONTINUOUS
 62
     7
100
AcDbLine
 10
86.8923557951
 20
99.1575175202
 30
0.0
 11
87.8923557951
 21
99.1575175202
 31
0.0
  0
LINE
  5
AD
330
1F
100
AcDbEntity
  8
0
  6
CONTINUOUS
 62
     7
100
AcDbLine
 10
86.8923557951
 20
105.3575175202
 30
0.0
 11
86.8923557951
 21
99.1575175202
 31
0.0
  0
LINE
  5
AE
330
1F
100
AcDbEntity
  8
0
  6
CONTINUOUS
 62
     7
100
AcDbLine
 10
68.8923557951
 20
143.9575175202
 30
0.0
 11
69.8923557951
 21
143.9575175202
 31
0.0
  0
LINE
  5
AF
330
1F
100
AcDbEntity
  8
0
  6
CONTINUOUS
 62
     7
100
AcDbLine
 10
68.8923557951
 20
150.1575175202
 30
0.0
 11
68.8923557951
 21
143.9575175202
 31
0.0
  0
LINE
  5
B0
330
1F
100
AcDbEntity
  8
0
  6
CONTINUOUS
 62
     7
100
AcDbLine
 10
69.8923557951
 20
150.1575175202
 30
0.0
 11
68.8923557951
 21
150.1575175202
 31
0.0
  0
LINE
  5
B1
330
1F
100
AcDbEntity
  8
0
  6
CONTINUOUS
 62
     7
100
AcDbLine
 10
69.8923557951
 20
143.9575175202
 30
0.0
 11
69.8923557951
 21
150.1575175202
 31
0.0
  0
LINE
  5
B2
330
1F
100
AcDbEntity
  8
0
  6
CONTINUOUS
 62
     7
100
AcDbLine
 10
70.8923557951
 20
143.9575175202
 30
0.0
 11
71.8923557951
 21
143.9575175202
 31
0.0
  0
LINE
  5
B3
330
1F
100
AcDbEntity
  8
0
  6
CONTINUOUS
 62
     7
100
AcDbLine
 10
70.8923557951
 20
150.1575175202
 30
0.0
 11
70.8923557951
 21
143.9575175202
 31
0.0
  0
LINE
  5
B4
330
1F
100
AcDbEntity
  8
0
  6
CONTINUOUS
 62
     7
100
AcDbLine
 10
71.8923557951
 20
150.1575175202
 30
0.0
 11
70.8923557951
 21
150.1575175202
 31
0.0
  0
LINE
  5
B5
330
1F
100
AcDbEntity
  8
0
  6
CONTINUOUS
 62
     7
100
AcDbLine
 10
71.8923557951
 20
143.9575175202
 30
0.0
 11
71.8923557951
 21
150.1575175202
 31
0.0
  0
LINE
  5
B6
330
1F
100
AcDbEntity
  8
0
  6
CONTINUOUS
 62
     7
100
AcDbLine
 10
72.8923557951
 20
143.9575175202
 30
0.0
 11
73.8923557951
 21
143.9575175202
 31
0.0
  0
LINE
  5
B7
330
1F
100
AcDbEntity
  8
0
  6
CONTINUOUS
 62
     7
100
AcDbLine
 10
72.8923557951
 20
150.1575175202
 30
0.0
 11
72.8923557951
 21
143.9575175202
 31
0.0
  0
LINE
  5
B8
330
1F
100
AcDbEntity
  8
0
  6
CONTINUOUS
 62
     7
100
AcDbLine
 10
73.8923557951
 20
150.1575175202
 30
0.0
 11
72.8923557951
 21
150.1575175202
 31
0.0
  0
LINE
  5
B9
330
1F
100
AcDbEntity
  8
0
  6
CONTINUOUS
 62
     7
100
AcDbLine
 10
73.8923557951
 20
143.9575175202
 30
0.0
 11
73.8923557951
 21
150.1575175202
 31
0.0
  0
LINE
  5
BA
330
1F
100
AcDbEntity
  8
0
  6
CONTINUOUS
 62
     7
100
AcDbLine
 10
74.8923557951
 20
143.9575175202
 30
0.0
 11
75.8923557951
 21
143.9575175202
 31
0.0
  0
LINE
  5
BB
330
1F
100
AcDbEntity
  8
0
  6
CONTINUOUS
 62
     7
100
AcDbLine
 10
74.8923557951
 20
150.1575175202
 30
0.0
 11
74.8923557951
 21
143.9575175202
 31
0.0
  0
LINE
  5
BC
330
1F
100
AcDbEntity
  8
0
  6
CONTINUOUS
 62
     7
100
AcDbLine
 10
75.8923557951
 20
150.1575175202
 30
0.0
 11
74.8923557951
 21
150.1575175202
 31
0.0
  0
LINE
  5
BD
330
1F
100
AcDbEntity
  8
0
  6
CONTINUOUS
 62
     7
100
AcDbLine
 10
75.8923557951
 20
143.9575175202
 30
0.0
 11
75.8923557951
 21
150.1575175202
 31
0.0
  0
LINE
  5
BE
330
1F
100
AcDbEntity
  8
0
  6
CONTINUOUS
 62
     7
100
AcDbLine
 10
76.8923557951
 20
143.9575175202
 30
0.0
 11
77.8923557951
 21
143.9575175202
 31
0.0
  0
LINE
  5
BF
330
1F
100
AcDbEntity
  8
0
  6
CONTINUOUS
 62
     7
100
AcDbLine
 10
76.8923557951
 20
150.1575175202
 30
0.0
 11
76.8923557951
 21
143.9575175202
 31
0.0
  0
LINE
  5
C0
330
1F
100
AcDbEntity
  8
0
  6
CONTINUOUS
 62
     7
100
AcDbLine
 10
77.8923557951
 20
150.1575175202
 30
0.0
 11
76.8923557951
 21
150.1575175202
 31
0.0
  0
LINE
  5
C1
330
1F
100
AcDbEntity
  8
0
  6
CONTINUOUS
 62
     7
100
AcDbLine
 10
77.8923557951
 20
143.9575175202
 30
0.0
 11
77.8923557951
 21
150.1575175202
 31
0.0
  0
LINE
  5
C2
330
1F
100
AcDbEntity
  8
0
  6
CONTINUOUS
 62
     7
100
AcDbLine
 10
78.8923557951
 20
143.9575175202
 30
0.0
 11
79.8923557951
 21
143.9575175202
 31
0.0
  0
LINE
  5
C3
330
1F
100
AcDbEntity
  8
0
  6
CONTINUOUS
 62
     7
100
AcDbLine
 10
78.8923557951
 20
150.1575175202
 30
0.0
 11
78.8923557951
 21
143.9575175202
 31
0.0
  0
LINE
  5
C4
330
1F
100
AcDbEntity
  8
0
  6
CONTINUOUS
 62
     7
100
AcDbLine
 10
79.8923557951
 20
150.1575175202
 30
0.0
 11
78.8923557951
 21
150.1575175202
 31
0.0
  0
LINE
  5
C5
330
1F
100
AcDbEntity
  8
0
  6
CONTINUOUS
 62
     7
100
AcDbLine
 10
79.8923557951
 20
143.9575175202
 30
0.0
 11
79.8923557951
 21
150.1575175202
 31
0.0
  0
LINE
  5
C6
330
1F
100
AcDbEntity
  8
0
  6
CONTINUOUS
 62
     7
100
AcDbLine
 10
80.8923557951
 20
143.9575175202
 30
0.0
 11
81.8923557951
 21
143.9575175202
 31
0.0
  0
LINE
  5
C7
330
1F
100
AcDbEntity
  8
0
  6
CONTINUOUS
 62
     7
100
AcDbLine
 10
80.8923557951
 20
150.1575175202
 30
0.0
 11
80.8923557951
 21
143.9575175202
 31
0.0
  0
LINE
  5
C8
330
1F
100
AcDbEntity
  8
0
  6
CONTINUOUS
 62
     7
100
AcDbLine
 10
81.8923557951
 20
150.1575175202
 30
0.0
 11
80.8923557951
 21
150.1575175202
 31
0.0
  0
LINE
  5
C9
330
1F
100
AcDbEntity
  8
0
  6
CONTINUOUS
 62
     7
100
AcDbLine
 10
81.8923557951
 20
143.9575175202
 30
0.0
 11
81.8923557951
 21
150.1575175202
 31
0.0
  0
LINE
  5
CA
330
1F
100
AcDbEntity
  8
0
  6
CONTINUOUS
 62
     7
100
AcDbLine
 10
82.8923557951
 20
143.9575175202
 30
0.0
 11
83.8923557951
 21
143.9575175202
 31
0.0
  0
LINE
  5
CB
330
1F
100
AcDbEntity
  8
0
  6
CONTINUOUS
 62
     7
100
AcDbLine
 10
82.8923557951
 20
150.1575175202
 30
0.0
 11
82.8923557951
 21
143.9575175202
 31
0.0
  0
LINE
  5
CC
330
1F
100
AcDbEntity
  8
0
  6
CONTINUOUS
 62
     7
100
AcDbLine
 10
83.8923557951
 20
150.1575175202
 30
0.0
 11
82.8923557951
 21
150.1575175202
 31
0.0
  0
LINE
  5
CD
330
1F
100
AcDbEntity
  8
0
  6
CONTINUOUS
 62
     7
100
AcDbLine
 10
83.8923557951
 20
143.9575175202
 30
0.0
 11
83.8923557951
 21
150.1575175202
 31
0.0
  0
LINE
  5
CE
330
1F
100
AcDbEntity
  8
0
  6
CONTINUOUS
 62
     7
100
AcDbLine
 10
84.8923557951
 20
143.9575175202
 30
0.0
 11
85.8923557951
 21
143.9575175202
 31
0.0
  0
LINE
  5
CF
330
1F
100
AcDbEntity
  8
0
  6
CONTINUOUS
 62
     7
100
AcDbLine
 10
84.8923557951
 20
150.1575175202
 30
0.0
 11
84.8923557951
 21
143.9575175202
 31
0.0
  0
LINE
  5
D0
330
1F
100
AcDbEntity
  8
0
  6
CONTINUOUS
 62
     7
100
AcDbLine
 10
85.8923557951
 20
150.1575175202
 30
0.0
 11
84.8923557951
 21
150.1575175202
 31
0.0
  0
LINE
  5
D1
330
1F
100
AcDbEntity
  8
0
  6
CONTINUOUS
 62
     7
100
AcDbLine
 10
85.8923557951
 20
143.9575175202
 30
0.0
 11
85.8923557951
 21
150.1575175202
 31
0.0
  0
LINE
  5
D2
330
1F
100
AcDbEntity
  8
0
  6
CONTINUOUS
 62
     7
100
AcDbLine
 10
86.8923557951
 20
143.9575175202
 30
0.0
 11
87.8923557951
 21
143.9575175202
 31
0.0
  0
LINE
  5
D3
330
1F
100
AcDbEntity
  8
0
  6
CONTINUOUS
 62
     7
100
AcDbLine
 10
86.8923557951
 20
150.1575175202
 30
0.0
 11
86.8923557951
 21
143.9575175202
 31
0.0
  0
LINE
  5
D4
330
1F
100
AcDbEntity
  8
0
  6
CONTINUOUS
 62
     7
100
AcDbLine
 10
87.8923557951
 20
150.1575175202
 30
0.0
 11
86.8923557951
 21
150.1575175202
 31
0.0
  0
LINE
  5
D5
330
1F
100
AcDbEntity
  8
0
  6
CONTINUOUS
 62
     7
100
AcDbLine
 10
87.8923557951
 20
143.9575175202
 30
0.0
 11
87.8923557951
 21
150.1575175202
 31
0.0
  0
LINE
  5
D6
330
1F
100
AcDbEntity
  8
0
  6
CONTINUOUS
 62
     7
100
AcDbLine
 10
88.8923557951
 20
143.9575175202
 30
0.0
 11
89.8923557951
 21
143.9575175202
 31
0.0
  0
LINE
  5
D7
330
1F
100
AcDbEntity
  8
0
  6
CONTINUOUS
 62
     7
100
AcDbLine
 10
88.8923557951
 20
150.1575175202
 30
0.0
 11
88.8923557951
 21
143.9575175202
 31
0.0
  0
LINE
  5
D8
330
1F
100
AcDbEntity
  8
0
  6
CONTINUOUS
 62
     7
100
AcDbLine
 10
89.8923557951
 20
150.1575175202
 30
0.0
 11
88.8923557951
 21
150.1575175202
 31
0.0
  0
LINE
  5
D9
330
1F
100
AcDbEntity
  8
0
  6
CONTINUOUS
 62
     7
100
AcDbLine
 10
89.8923557951
 20
143.9575175202
 30
0.0
 11
89.8923557951
 21
150.1575175202
 31
0.0
  0
LINE
  5
DA
330
1F
100
AcDbEntity
  8
0
  6
CONTINUOUS
 62
     7
100
AcDbLine
 10
90.8923557951
 20
143.9575175202
 30
0.0
 11
91.8923557951
 21
143.9575175202
 31
0.0
  0
LINE
  5
DB
330
1F
100
AcDbEntity
  8
0
  6
CONTINUOUS
 62
     7
100
AcDbLine
 10
90.8923557951
 20
150.1575175202
 30
0.0
 11
90.8923557951
 21
143.9575175202
 31
0.0
  0
LINE
  5
DC
330
1F
100
AcDbEntity
  8
0
  6
CONTINUOUS
 62
     7
100
AcDbLine
 10
91.8923557951
 20
150.1575175202
 30
0.0
 11
90.8923557951
 21
150.1575175202
 31
0.0
  0
LINE
  5
DD
330
1F
100
AcDbEntity
  8
0
  6
CONTINUOUS
 62
     7
100
AcDbLine
 10
91.8923557951
 20
143.9575175202
 30
0.0
 11
91.8923557951
 21
150.1575175202
 31
0.0
  0
LINE
  5
DE
330
1F
100
AcDbEntity
  8
0
  6
CONTINUOUS
 62
     7
100
AcDbLine
 10
92.8923557951
 20
143.9575175202
 30
0.0
 11
93.8923557951
 21
143.9575175202
 31
0.0
  0
LINE
  5
DF
330
1F
100
AcDbEntity
  8
0
  6
CONTINUOUS
 62
     7
100
AcDbLine
 10
92.8923557951
 20
150.1575175202
 30
0.0
 11
92.8923557951
 21
143.9575175202
 31
0.0
  0
LINE
  5
E0
330
1F
100
AcDbEntity
  8
0
  6
CONTINUOUS
 62
     7
100
AcDbLine
 10
93.8923557951
 20
150.1575175202
 30
0.0
 11
92.8923557951
 21
150.1575175202
 31
0.0
  0
LINE
  5
E1
330
1F
100
AcDbEntity
  8
0
  6
CONTINUOUS
 62
     7
100
AcDbLine
 10
93.8923557951
 20
143.9575175202
 30
0.0
 11
93.8923557951
 21
150.1575175202
 31
0.0
  0
LINE
  5
E2
330
1F
100
AcDbEntity
  8
0
  6
CONTINUOUS
 62
     7
100
AcDbLine
 10
94.8923557951
 20
143.9575175202
 30
0.0
 11
95.8923557951
 21
143.9575175202
 31
0.0
  0
LINE
  5
E3
330
1F
100
AcDbEntity
  8
0
  6
CONTINUOUS
 62
     7
100
AcDbLine
 10
94.8923557951
 20
150.1575175202
 30
0.0
 11
94.8923557951
 21
143.9575175202
 31
0.0
  0
LINE
  5
E4
330
1F
100
AcDbEntity
  8
0
  6
CONTINUOUS
 62
     7
100
AcDbLine
 10
95.8923557951
 20
150.1575175202
 30
0.0
 11
94.8923557951
 21
150.1575175202
 31
0.0
  0
LINE
  5
E5
330
1F
100
AcDbEntity
  8
0
  6
CONTINUOUS
 62
     7
100
AcDbLine
 10
95.8923557951
 20
143.9575175202
 30
0.0
 11
95.8923557951
 21
150.1575175202
 31
0.0
  0
LINE
  5
E6
330
1F
100
AcDbEntity
  8
0
  6
CONTINUOUS
 62
     7
100
AcDbLine
 10
96.8923557951
 20
143.9575175202
 30
0.0
 11
97.8923557951
 21
143.9575175202
 31
0.0
  0
LINE
  5
E7
330
1F
100
AcDbEntity
  8
0
  6
CONTINUOUS
 62
     7
100
AcDbLine
 10
96.8923557951
 20
150.1575175202
 30
0.0
 11
96.8923557951
 21
143.9575175202
 31
0.0
  0
LINE
  5
E8
330
1F
100
AcDbEntity
  8
0
  6
CONTINUOUS
 62
     7
100
AcDbLine
 10
97.8923557951
 20
150.1575175202
 30
0.0
 11
96.8923557951
 21
150.1575175202
 31
0.0
  0
LINE
  5
E9
330
1F
100
AcDbEntity
  8
0
  6
CONTINUOUS
 62
     7
100
AcDbLine
 10
97.8923557951
 20
143.9575175202
 30
0.0
 11
97.8923557951
 21
150.1575175202
 31
0.0
  0
LINE
  5
EA
330
1F
100
AcDbEntity
  8
0
  6
CONTINUOUS
 62
     7
100
AcDbLine
 10
98.8923557951
 20
143.9575175202
 30
0.0
 11
99.8923557951
 21
143.9575175202
 31
0.0
  0
LINE
  5
EB
330
1F
100
AcDbEntity
  8
0
  6
CONTINUOUS
 62
     7
100
AcDbLine
 10
98.8923557951
 20
150.1575175202
 30
0.0
 11
98.8923557951
 21
143.9575175202
 31
0.0
  0
LINE
  5
EC
330
1F
100
AcDbEntity
  8
0
  6
CONTINUOUS
 62
     7
100
AcDbLine
 10
99.8923557951
 20
150.1575175202
 30
0.0
 11
98.8923557951
 21
150.1575175202
 31
0.0
  0
LINE
  5
ED
330
1F
100
AcDbEntity
  8
0
  6
CONTINUOUS
 62
     7
100
AcDbLine
 10
99.8923557951
 20
143.9575175202
 30
0.0
 11
99.8923557951
 21
150.1575175202
 31
0.0
  0
LINE
  5
EE
330
1F
100
AcDbEntity
  8
0
  6
CONTINUOUS
 62
     7
100
AcDbLine
 10
103.6923557951
 20
140.1575175202
 30
0.0
 11
103.6923557951
 21
139.1575175202
 31
0.0
  0
LINE
  5
EF
330
1F
100
AcDbEntity
  8
0
  6
CONTINUOUS
 62
     7
100
AcDbLine
 10
109.8923557951
 20
140.1575175202
 30
0.0
 11
103.6923557951
 21
140.1575175202
 31
0.0
  0
LINE
  5
F0
330
1F
100
AcDbEntity
  8
0
  6
CONTINUOUS
 62
     7
100
AcDbLine
 10
109.8923557951
 20
139.1575175202
 30
0.0
 11
109.8923557951
 21
140.1575175202
 31
0.0
  0
LINE
  5
F1
330
1F
100
AcDbEntity
  8
0
  6
CONTINUOUS
 62
     7
100
AcDbLine
 10
103.6923557951
 20
139.1575175202
 30
0.0
 11
109.8923557951
 21
139.1575175202
 31
0.0
  0
LINE
  5
F2
330
1F
100
AcDbEntity
  8
0
  6
CONTINUOUS
 62
     7
100
AcDbLine
 10
103.6923557951
 20
138.1575175202
 30
0.0
 11
103.6923557951
 21
137.1575175202
 31
0.0
  0
LINE
  5
F3
330
1F
100
AcDbEntity
  8
0
  6
CONTINUOUS
 62
     7
100
AcDbLine
 10
109.8923557951
 20
138.1575175202
 30
0.0
 11
103.6923557951
 21
138.1575175202
 31
0.0
  0
LINE
  5
F4
330
1F
100
AcDbEntity
  8
0
  6
CONTINUOUS
 62
     7
100
AcDbLine
 10
109.8923557951
 20
137.1575175202
 30
0.0
 11
109.8923557951
 21
138.1575175202
 31
0.0
  0
LINE
  5
F5
330
1F
100
AcDbEntity
  8
0
  6
CONTINUOUS
 62
     7
100
AcDbLine
 10
103.6923557951
 20
137.1575175202
 30
0.0
 11
109.8923557951
 21
137.1575175202
 31
0.0
  0
LINE
  5
F6
330
1F
100
AcDbEntity
  8
0
  6
CONTINUOUS
 62
     7
100
AcDbLine
 10
103.6923557951
 20
136.1575175202
 30
0.0
 11
103.6923557951
 21
135.1575175202
 31
0.0
  0
LINE
  5
F7
330
1F
100
AcDbEntity
  8
0
  6
CONTINUOUS
 62
     7
100
AcDbLine
 10
109.8923557951
 20
136.1575175202
 30
0.0
 11
103.6923557951
 21
136.1575175202
 31
0.0
  0
LINE
  5
F8
330
1F
100
AcDbEntity
  8
0
  6
CONTINUOUS
 62
     7
100
AcDbLine
 10
109.8923557951
 20
135.1575175202
 30
0.0
 11
109.8923557951
 21
136.1575175202
 31
0.0
  0
LINE
  5
F9
330
1F
100
AcDbEntity
  8
0
  6
CONTINUOUS
 62
     7
100
AcDbLine
 10
103.6923557951
 20
135.1575175202
 30
0.0
 11
109.8923557951
 21
135.1575175202
 31
0.0
  0
LINE
  5
FA
330
1F
100
AcDbEntity
  8
0
  6
CONTINUOUS
 62
     7
100
AcDbLine
 10
103.6923557951
 20
134.1575175202
 30
0.0
 11
103.6923557951
 21
133.1575175202
 31
0.0
  0
LINE
  5
FB
330
1F
100
AcDbEntity
  8
0
  6
CONTINUOUS
 62
     7
100
AcDbLine
 10
109.8923557951
 20
134.1575175202
 30
0.0
 11
103.6923557951
 21
134.1575175202
 31
0.0
  0
LINE
  5
FC
330
1F
100
AcDbEntity
  8
0
  6
CONTINUOUS
 62
     7
100
AcDbLine
 10
109.8923557951
 20
133.1575175202
 30
0.0
 11
109.8923557951
 21
134.1575175202
 31
0.0
  0
LINE
  5
FD
330
1F
100
AcDbEntity
  8
0
  6
CONTINUOUS
 62
     7
100
AcDbLine
 10
103.6923557951
 20
133.1575175202
 30
0.0
 11
109.8923557951
 21
133.1575175202
 31
0.0
  0
LINE
  5
FE
330
1F
100
AcDbEntity
  8
0
  6
CONTINUOUS
 62
     7
100
AcDbLine
 10
103.6923557951
 20
132.1575175202
 30
0.0
 11
103.6923557951
 21
131.1575175202
 31
0.0
  0
LINE
  5
FF
330
1F
100
AcDbEntity
  8
0
  6
CONTINUOUS
 62
     7
100
AcDbLine
 10
109.8923557951
 20
132.1575175202
 30
0.0
 11
103.6923557951
 21
132.1575175202
 31
0.0
  0
LINE
  5
100
330
1F
100
AcDbEntity
  8
0
  6
CONTINUOUS
 62
     7
100
AcDbLine
 10
109.8923557951
 20
131.1575175202
 30
0.0
 11
109.8923557951
 21
132.1575175202
 31
0.0
  0
LINE
  5
101
330
1F
100
AcDbEntity
  8
0
  6
CONTINUOUS
 62
     7
100
AcDbLine
 10
103.6923557951
 20
131.1575175202
 30
0.0
 11
109.8923557951
 21
131.1575175202
 31
0.0
  0
LINE
  5
102
330
1F
100
AcDbEntity
  8
0
  6
CONTINUOUS
 62
     7
100
AcDbLine
 10
103.6923557951
 20
130.1575175202
 30
0.0
 11
103.6923557951
 21
129.1575175202
 31
0.0
  0
LINE
  5
103
330
1F
100
AcDbEntity
  8
0
  6
CONTINUOUS
 62
     7
100
AcDbLine
 10
109.8923557951
 20
130.1575175202
 30
0.0
 11
103.6923557951
 21
130.1575175202
 31
0.0
  0
LINE
  5
104
330
1F
100
AcDbEntity
  8
0
  6
CONTINUOUS
 62
     7
100
AcDbLine
 10
109.8923557951
 20
129.1575175202
 30
0.0
 11
109.8923557951
 21
130.1575175202
 31
0.0
  0
LINE
  5
105
330
1F
100
AcDbEntity
  8
0
  6
CONTINUOUS
 62
     7
100
AcDbLine
 10
103.6923557951
 20
129.1575175202
 30
0.0
 11
109.8923557951
 21
129.1575175202
 31
0.0
  0
LINE
  5
106
330
1F
100
AcDbEntity
  8
0
  6
CONTINUOUS
 62
     7
100
AcDbLine
 10
103.6923557951
 20
128.1575175202
 30
0.0
 11
103.6923557951
 21
127.1575175202
 31
0.0
  0
LINE
  5
107
330
1F
100
AcDbEntity
  8
0
  6
CONTINUOUS
 62
     7
100
AcDbLine
 10
109.8923557951
 20
128.1575175202
 30
0.0
 11
103.6923557951
 21
128.1575175202
 31
0.0
  0
LINE
  5
108
330
1F
100
AcDbEntity
  8
0
  6
CONTINUOUS
 62
     7
100
AcDbLine
 10
109.8923557951
 20
127.1575175202
 30
0.0
 11
109.8923557951
 21
128.1575175202
 31
0.0
  0
LINE
  5
109
330
1F
100
AcDbEntity
  8
0
  6
CONTINUOUS
 62
     7
100
AcDbLine
 10
103.6923557951
 20
127.1575175202
 30
0.0
 11
109.8923557951
 21
127.1575175202
 31
0.0
  0
LINE
  5
10A
330
1F
100
AcDbEntity
  8
0
  6
CONTINUOUS
 62
     7
100
AcDbLine
 10
103.6923557951
 20
126.1575175202
 30
0.0
 11
103.6923557951
 21
125.1575175202
 31
0.0
  0
LINE
  5
10B
330
1F
100
AcDbEntity
  8
0
  6
CONTINUOUS
 62
     7
100
AcDbLine
 10
109.8923557951
 20
126.1575175202
 30
0.0
 11
103.6923557951
 21
126.1575175202
 31
0.0
  0
LINE
  5
10C
330
1F
100
AcDbEntity
  8
0
  6
CONTINUOUS
 62
     7
100
AcDbLine
 10
109.8923557951
 20
125.1575175202
 30
0.0
 11
109.8923557951
 21
126.1575175202
 31
0.0
  0
LINE
  5
10D
330
1F
100
AcDbEntity
  8
0
  6
CONTINUOUS
 62
     7
100
AcDbLine
 10
103.6923557951
 20
125.1575175202
 30
0.0
 11
109.8923557951
 21
125.1575175202
 31
0.0
  0
LINE
  5
10E
330
1F
100
AcDbEntity
  8
0
  6
CONTINUOUS
 62
     7
100
AcDbLine
 10
103.6923557951
 20
124.1575175202
 30
0.0
 11
103.6923557951
 21
123.1575175202
 31
0.0
  0
LINE
  5
10F
330
1F
100
AcDbEntity
  8
0
  6
CONTINUOUS
 62
     7
100
AcDbLine
 10
109.8923557951
 20
124.1575175202
 30
0.0
 11
103.6923557951
 21
124.1575175202
 31
0.0
  0
LINE
  5
110
330
1F
100
AcDbEntity
  8
0
  6
CONTINUOUS
 62
     7
100
AcDbLine
 10
109.8923557951
 20
123.1575175202
 30
0.0
 11
109.8923557951
 21
124.1575175202
 31
0.0
  0
LINE
  5
111
330
1F
100
AcDbEntity
  8
0
  6
CONTINUOUS
 62
     7
100
AcDbLine
 10
103.6923557951
 20
123.1575175202
 30
0.0
 11
109.8923557951
 21
123.1575175202
 31
0.0
  0
LINE
  5
112
330
1F
100
AcDbEntity
  8
0
  6
CONTINUOUS
 62
     7
100
AcDbLine
 10
103.6923557951
 20
122.1575175202
 30
0.0
 11
103.6923557951
 21
121.1575175202
 31
0.0
  0
LINE
  5
113
330
1F
100
AcDbEntity
  8
0
  6
CONTINUOUS
 62
     7
100
AcDbLine
 10
109.8923557951
 20
122.1575175202
 30
0.0
 11
103.6923557951
 21
122.1575175202
 31
0.0
  0
LINE
  5
114
330
1F
100
AcDbEntity
  8
0
  6
CONTINUOUS
 62
     7
100
AcDbLine
 10
109.8923557951
 20
121.1575175202
 30
0.0
 11
109.8923557951
 21
122.1575175202
 31
0.0
  0
LINE
  5
115
330
1F
100
AcDbEntity
  8
0
  6
CONTINUOUS
 62
     7
100
AcDbLine
 10
103.6923557951
 20
121.1575175202
 30
0.0
 11
109.8923557951
 21
121.1575175202
 31
0.0
  0
LINE
  5
116
330
1F
100
AcDbEntity
  8
0
  6
CONTINUOUS
 62
     7
100
AcDbLine
 10
70.8923557951
 20
99.1575175202
 30
0.0
 11
71.8923557951
 21
99.1575175202
 31
0.0
  0
LINE
  5
117
330
1F
100
AcDbEntity
  8
0
  6
CONTINUOUS
 62
     7
100
AcDbLine
 10
70.8923557951
 20
105.3575175202
 30
0.0
 11
70.8923557951
 21
99.1575175202
 31
0.0
  0
LINE
  5
118
330
1F
100
AcDbEntity
  8
0
  6
CONTINUOUS
 62
     7
100
AcDbLine
 10
71.8923557951
 20
105.3575175202
 30
0.0
 11
70.8923557951
 21
105.3575175202
 31
0.0
  0
LINE
  5
119
330
1F
100
AcDbEntity
  8
0
  6
CONTINUOUS
 62
     7
100
AcDbLine
 10
71.8923557951
 20
99.1575175202
 30
0.0
 11
71.8923557951
 21
105.3575175202
 31
0.0
  0
LINE
  5
11A
330
1F
100
AcDbEntity
  8
0
  6
CONTINUOUS
 62
     7
100
AcDbLine
 10
69.8923557951
 20
105.3575175202
 30
0.0
 11
68.8923557951
 21
105.3575175202
 31
0.0
  0
LINE
  5
11B
330
1F
100
AcDbEntity
  8
0
  6
CONTINUOUS
 62
     7
100
AcDbLine
 10
69.8923557951
 20
99.1575175202
 30
0.0
 11
69.8923557951
 21
105.3575175202
 31
0.0
  0
LINE
  5
11C
330
1F
100
AcDbEntity
  8
0
  6
CONTINUOUS
 62
     7
100
AcDbLine
 10
68.8923557951
 20
99.1575175202
 30
0.0
 11
69.8923557951
 21
99.1575175202
 31
0.0
  0
LINE
  5
11D
330
1F
100
AcDbEntity
  8
0
  6
CONTINUOUS
 62
     7
100
AcDbLine
 10
68.8923557951
 20
105.3575175202
 30
0.0
 11
68.8923557951
 21
99.1575175202
 31
0.0
  0
LINE
  5
11E
330
1F
100
AcDbEntity
  8
0
  6
CONTINUOUS
 62
     7
100
AcDbLine
 10
65.0923557951
 20
109.1575175202
 30
0.0
 11
65.0923557951
 21
110.1575175202
 31
0.0
  0
LINE
  5
11F
330
1F
100
AcDbEntity
  8
0
  6
CONTINUOUS
 62
     7
100
AcDbLine
 10
58.8923557951
 20
109.1575175202
 30
0.0
 11
65.0923557951
 21
109.1575175202
 31
0.0
  0
LINE
  5
120
330
1F
100
AcDbEntity
  8
0
  6
CONTINUOUS
 62
     7
100
AcDbLine
 10
58.8923557951
 20
110.1575175202
 30
0.0
 11
58.8923557951
 21
109.1575175202
 31
0.0
  0
LINE
  5
121
330
1F
100
AcDbEntity
  8
0
  6
CONTINUOUS
 62
     7
100
AcDbLine
 10
65.0923557951
 20
110.1575175202
 30
0.0
 11
58.8923557951
 21
110.1575175202
 31
0.0
  0
LINE
  5
122
330
1F
100
AcDbEntity
  8
0
  6
CONTINUOUS
 62
     7
100
AcDbLine
 10
65.0923557951
 20
111.1575175202
 30
0.0
 11
65.0923557951
 21
112.1575175202
 31
0.0
  0
LINE
  5
123
330
1F
100
AcDbEntity
  8
0
  6
CONTINUOUS
 62
     7
100
AcDbLine
 10
58.8923557951
 20
111.1575175202
 30
0.0
 11
65.0923557951
 21
111.1575175202
 31
0.0
  0
LINE
  5
124
330
1F
100
AcDbEntity
  8
0
  6
CONTINUOUS
 62
     7
100
AcDbLine
 10
58.8923557951
 20
112.1575175202
 30
0.0
 11
58.8923557951
 21
111.1575175202
 31
0.0
  0
LINE
  5
125
330
1F
100
AcDbEntity
  8
0
  6
CONTINUOUS
 62
     7
100
AcDbLine
 10
65.0923557951
 20
112.1575175202
 30
0.0
 11
58.8923557951
 21
112.1575175202
 31
0.0
  0
LINE
  5
126
330
1F
100
AcDbEntity
  8
0
  6
CONTINUOUS
 62
     7
100
AcDbLine
 10
65.0923557951
 20
113.1575175202
 30
0.0
 11
65.0923557951
 21
114.1575175202
 31
0.0
  0
LINE
  5
127
330
1F
100
AcDbEntity
  8
0
  6
CONTINUOUS
 62
     7
100
AcDbLine
 10
58.8923557951
 20
113.1575175202
 30
0.0
 11
65.0923557951
 21
113.1575175202
 31
0.0
  0
LINE
  5
128
330
1F
100
AcDbEntity
  8
0
  6
CONTINUOUS
 62
     7
100
AcDbLine
 10
58.8923557951
 20
114.1575175202
 30
0.0
 11
58.8923557951
 21
113.1575175202
 31
0.0
  0
LINE
  5
129
330
1F
100
AcDbEntity
  8
0
  6
CONTINUOUS
 62
     7
100
AcDbLine
 10
65.0923557951
 20
114.1575175202
 30
0.0
 11
58.8923557951
 21
114.1575175202
 31
0.0
  0
LINE
  5
12A
330
1F
100
AcDbEntity
  8
0
  6
CONTINUOUS
 62
     7
100
AcDbLine
 10
65.0923557951
 20
115.1575175202
 30
0.0
 11
65.0923557951
 21
116.1575175202
 31
0.0
  0
LINE
  5
12B
330
1F
100
AcDbEntity
  8
0
  6
CONTINUOUS
 62
     7
100
AcDbLine
 10
58.8923557951
 20
115.1575175202
 30
0.0
 11
65.0923557951
 21
115.1575175202
 31
0.0
  0
LINE
  5
12C
330
1F
100
AcDbEntity
  8
0
  6
CONTINUOUS
 62
     7
100
AcDbLine
 10
58.8923557951
 20
116.1575175202
 30
0.0
 11
58.8923557951
 21
115.1575175202
 31
0.0
  0
LINE
  5
12D
330
1F
100
AcDbEntity
  8
0
  6
CONTINUOUS
 62
     7
100
AcDbLine
 10
65.0923557951
 20
116.1575175202
 30
0.0
 11
58.8923557951
 21
116.1575175202
 31
0.0
  0
LINE
  5
12E
330
1F
100
AcDbEntity
  8
0
  6
CONTINUOUS
 62
     7
100
AcDbLine
 10
65.0923557951
 20
117.1575175202
 30
0.0
 11
65.0923557951
 21
118.1575175202
 31
0.0
  0
LINE
  5
12F
330
1F
100
AcDbEntity
  8
0
  6
CONTINUOUS
 62
     7
100
AcDbLine
 10
58.8923557951
 20
117.1575175202
 30
0.0
 11
65.0923557951
 21
117.1575175202
 31
0.0
  0
LINE
  5
130
330
1F
100
AcDbEntity
  8
0
  6
CONTINUOUS
 62
     7
100
AcDbLine
 10
58.8923557951
 20
118.1575175202
 30
0.0
 11
58.8923557951
 21
117.1575175202
 31
0.0
  0
LINE
  5
131
330
1F
100
AcDbEntity
  8
0
  6
CONTINUOUS
 62
     7
100
AcDbLine
 10
65.0923557951
 20
118.1575175202
 30
0.0
 11
58.8923557951
 21
118.1575175202
 31
0.0
  0
LINE
  5
132
330
1F
100
AcDbEntity
  8
0
  6
CONTINUOUS
 62
     7
100
AcDbLine
 10
65.0923557951
 20
119.1575175202
 30
0.0
 11
65.0923557951
 21
120.1575175202
 31
0.0
  0
LINE
  5
133
330
1F
100
AcDbEntity
  8
0
  6
CONTINUOUS
 62
     7
100
AcDbLine
 10
58.8923557951
 20
119.1575175202
 30
0.0
 11
65.0923557951
 21
119.1575175202
 31
0.0
  0
LINE
  5
134
330
1F
100
AcDbEntity
  8
0
  6
CONTINUOUS
 62
     7
100
AcDbLine
 10
58.8923557951
 20
120.1575175202
 30
0.0
 11
58.8923557951
 21
119.1575175202
 31
0.0
  0
LINE
  5
135
330
1F
100
AcDbEntity
  8
0
  6
CONTINUOUS
 62
     7
100
AcDbLine
 10
65.0923557951
 20
120.1575175202
 30
0.0
 11
58.8923557951
 21
120.1575175202
 31
0.0
  0
LINE
  5
136
330
1F
100
AcDbEntity
  8
0
  6
CONTINUOUS
 62
     7
100
AcDbLine
 10
65.0923557951
 20
121.1575175202
 30
0.0
 11
65.0923557951
 21
122.1575175202
 31
0.0
  0
LINE
  5
137
330
1F
100
AcDbEntity
  8
0
  6
CONTINUOUS
 62
     7
100
AcDbLine
 10
58.8923557951
 20
121.1575175202
 30
0.0
 11
65.0923557951
 21
121.1575175202
 31
0.0
  0
LINE
  5
138
330
1F
100
AcDbEntity
  8
0
  6
CONTINUOUS
 62
     7
100
AcDbLine
 10
58.8923557951
 20
122.1575175202
 30
0.0
 11
58.8923557951
 21
121.1575175202
 31
0.0
  0
LINE
  5
139
330
1F
100
AcDbEntity
  8
0
  6
CONTINUOUS
 62
     7
100
AcDbLine
 10
65.0923557951
 20
122.1575175202
 30
0.0
 11
58.8923557951
 21
122.1575175202
 31
0.0
  0
LINE
  5
13A
330
1F
100
AcDbEntity
  8
0
  6
CONTINUOUS
 62
     7
100
AcDbLine
 10
65.0923557951
 20
123.1575175202
 30
0.0
 11
65.0923557951
 21
124.1575175202
 31
0.0
  0
LINE
  5
13B
330
1F
100
AcDbEntity
  8
0
  6
CONTINUOUS
 62
     7
100
AcDbLine
 10
58.8923557951
 20
123.1575175202
 30
0.0
 11
65.0923557951
 21
123.1575175202
 31
0.0
  0
LINE
  5
13C
330
1F
100
AcDbEntity
  8
0
  6
CONTINUOUS
 62
     7
100
AcDbLine
 10
58.8923557951
 20
124.1575175202
 30
0.0
 11
58.8923557951
 21
123.1575175202
 31
0.0
  0
LINE
  5
13D
330
1F
100
AcDbEntity
  8
0
  6
CONTINUOUS
 62
     7
100
AcDbLine
 10
65.0923557951
 20
124.1575175202
 30
0.0
 11
58.8923557951
 21
124.1575175202
 31
0.0
  0
LINE
  5
13E
330
1F
100
AcDbEntity
  8
0
  6
CONTINUOUS
 62
     7
100
AcDbLine
 10
65.0923557951
 20
125.1575175202
 30
0.0
 11
65.0923557951
 21
126.1575175202
 31
0.0
  0
LINE
  5
13F
330
1F
100
AcDbEntity
  8
0
  6
CONTINUOUS
 62
     7
100
AcDbLine
 10
58.8923557951
 20
125.1575175202
 30
0.0
 11
65.0923557951
 21
125.1575175202
 31
0.0
  0
LINE
  5
140
330
1F
100
AcDbEntity
  8
0
  6
CONTINUOUS
 62
     7
100
AcDbLine
 10
58.8923557951
 20
126.1575175202
 30
0.0
 11
58.8923557951
 21
125.1575175202
 31
0.0
  0
LINE
  5
141
330
1F
100
AcDbEntity
  8
0
  6
CONTINUOUS
 62
     7
100
AcDbLine
 10
65.0923557951
 20
126.1575175202
 30
0.0
 11
58.8923557951
 21
126.1575175202
 31
0.0
  0
LINE
  5
142
330
1F
100
AcDbEntity
  8
0
  6
CONTINUOUS
 62
     7
100
AcDbLine
 10
65.0923557951
 20
127.1575175202
 30
0.0
 11
65.0923557951
 21
128.1575175202
 31
0.0
  0
LINE
  5
143
330
1F
100
AcDbEntity
  8
0
  6
CONTINUOUS
 62
     7
100
AcDbLine
 10
58.8923557951
 20
127.1575175202
 30
0.0
 11
65.0923557951
 21
127.1575175202
 31
0.0
  0
LINE
  5
144
330
1F
100
AcDbEntity
  8
0
  6
CONTINUOUS
 62
     7
100
AcDbLine
 10
58.8923557951
 20
128.1575175202
 30
0.0
 11
58.8923557951
 21
127.1575175202
 31
0.0
  0
LINE
  5
145
330
1F
100
AcDbEntity
  8
0
  6
CONTINUOUS
 62
     7
100
AcDbLine
 10
65.0923557951
 20
128.1575175202
 30
0.0
 11
58.8923557951
 21
128.1575175202
 31
0.0
  0
LINE
  5
146
330
1F
100
AcDbEntity
  8
0
  6
CONTINUOUS
 62
     7
100
AcDbLine
 10
85.8923557951
 20
105.3575175202
 30
0.0
 11
84.8923557951
 21
105.3575175202
 31
0.0
  0
LINE
  5
147
330
1F
100
AcDbEntity
  8
0
  6
CONTINUOUS
 62
     7
100
AcDbLine
 10
85.8923557951
 20
99.1575175202
 30
0.0
 11
85.8923557951
 21
105.3575175202
 31
0.0
  0
LINE
  5
148
330
1F
100
AcDbEntity
  8
0
  6
CONTINUOUS
 62
     7
100
AcDbLine
 10
84.8923557951
 20
99.1575175202
 30
0.0
 11
85.8923557951
 21
99.1575175202
 31
0.0
  0
LINE
  5
149
330
1F
100
AcDbEntity
  8
0
  6
CONTINUOUS
 62
     7
100
AcDbLine
 10
84.8923557951
 20
105.3575175202
 30
0.0
 11
84.8923557951
 21
99.1575175202
 31
0.0
  0
LINE
  5
14A
330
1F
100
AcDbEntity
  8
0
  6
CONTINUOUS
 62
     7
100
AcDbLine
 10
83.8923557951
 20
105.3575175202
 30
0.0
 11
82.8923557951
 21
105.3575175202
 31
0.0
  0
LINE
  5
14B
330
1F
100
AcDbEntity
  8
0
  6
CONTINUOUS
 62
     7
100
AcDbLine
 10
83.8923557951
 20
99.1575175202
 30
0.0
 11
83.8923557951
 21
105.3575175202
 31
0.0
  0
LINE
  5
14C
330
1F
100
AcDbEntity
  8
0
  6
CONTINUOUS
 62
     7
100
AcDbLine
 10
82.8923557951
 20
99.1575175202
 30
0.0
 11
83.8923557951
 21
99.1575175202
 31
0.0
  0
LINE
  5
14D
330
1F
100
AcDbEntity
  8
0
  6
CONTINUOUS
 62
     7
100
AcDbLine
 10
82.8923557951
 20
105.3575175202
 30
0.0
 11
82.8923557951
 21
99.1575175202
 31
0.0
  0
LINE
  5
14E
330
1F
100
AcDbEntity
  8
0
  6
CONTINUOUS
 62
     7
100
AcDbLine
 10
81.8923557951
 20
105.3575175202
 30
0.0
 11
80.8923557951
 21
105.3575175202
 31
0.0
  0
LINE
  5
14F
330
1F
100
AcDbEntity
  8
0
  6
CONTINUOUS
 62
     7
100
AcDbLine
 10
81.8923557951
 20
99.1575175202
 30
0.0
 11
81.8923557951
 21
105.3575175202
 31
0.0
  0
LINE
  5
150
330
1F
100
AcDbEntity
  8
0
  6
CONTINUOUS
 62
     7
100
AcDbLine
 10
80.8923557951
 20
99.1575175202
 30
0.0
 11
81.8923557951
 21
99.1575175202
 31
0.0
  0
LINE
  5
151
330
1F
100
AcDbEntity
  8
0
  6
CONTINUOUS
 62
     7
100
AcDbLine
 10
80.8923557951
 20
105.3575175202
 30
0.0
 11
80.8923557951
 21
99.1575175202
 31
0.0
  0
LINE
  5
152
330
1F
100
AcDbEntity
  8
0
  6
CONTINUOUS
 62
     7
100
AcDbLine
 10
79.8923557951
 20
105.3575175202
 30
0.0
 11
78.8923557951
 21
105.3575175202
 31
0.0
  0
LINE
  5
153
330
1F
100
AcDbEntity
  8
0
  6
CONTINUOUS
 62
     7
100
AcDbLine
 10
79.8923557951
 20
99.1575175202
 30
0.0
 11
79.8923557951
 21
105.3575175202
 31
0.0
  0
LINE
  5
154
330
1F
100
AcDbEntity
  8
0
  6
CONTINUOUS
 62
     7
100
AcDbLine
 10
78.8923557951
 20
99.1575175202
 30
0.0
 11
79.8923557951
 21
99.1575175202
 31
0.0
  0
LINE
  5
155
330
1F
100
AcDbEntity
  8
0
  6
CONTINUOUS
 62
     7
100
AcDbLine
 10
78.8923557951
 20
105.3575175202
 30
0.0
 11
78.8923557951
 21
99.1575175202
 31
0.0
  0
LINE
  5
156
330
1F
100
AcDbEntity
  8
0
  6
CONTINUOUS
 62
     7
100
AcDbLine
 10
77.8923557951
 20
105.3575175202
 30
0.0
 11
76.8923557951
 21
105.3575175202
 31
0.0
  0
LINE
  5
157
330
1F
100
AcDbEntity
  8
0
  6
CONTINUOUS
 62
     7
100
AcDbLine
 10
77.8923557951
 20
99.1575175202
 30
0.0
 11
77.8923557951
 21
105.3575175202
 31
0.0
  0
LINE
  5
158
330
1F
100
AcDbEntity
  8
0
  6
CONTINUOUS
 62
     7
100
AcDbLine
 10
76.8923557951
 20
99.1575175202
 30
0.0
 11
77.8923557951
 21
99.1575175202
 31
0.0
  0
LINE
  5
159
330
1F
100
AcDbEntity
  8
0
  6
CONTINUOUS
 62
     7
100
AcDbLine
 10
76.8923557951
 20
105.3575175202
 30
0.0
 11
76.8923557951
 21
99.1575175202
 31
0.0
  0
LINE
  5
15A
330
1F
100
AcDbEntity
  8
0
  6
CONTINUOUS
 62
     7
100
AcDbLine
 10
75.8923557951
 20
105.3575175202
 30
0.0
 11
74.8923557951
 21
105.3575175202
 31
0.0
  0
LINE
  5
15B
330
1F
100
AcDbEntity
  8
0
  6
CONTINUOUS
 62
     7
100
AcDbLine
 10
75.8923557951
 20
99.1575175202
 30
0.0
 11
75.8923557951
 21
105.3575175202
 31
0.0
  0
LINE
  5
15C
330
1F
100
AcDbEntity
  8
0
  6
CONTINUOUS
 62
     7
100
AcDbLine
 10
74.8923557951
 20
99.1575175202
 30
0.0
 11
75.8923557951
 21
99.1575175202
 31
0.0
  0
LINE
  5
15D
330
1F
100
AcDbEntity
  8
0
  6
CONTINUOUS
 62
     7
100
AcDbLine
 10
74.8923557951
 20
105.3575175202
 30
0.0
 11
74.8923557951
 21
99.1575175202
 31
0.0
  0
LINE
  5
15E
330
1F
100
AcDbEntity
  8
0
  6
CONTINUOUS
 62
     7
100
AcDbLine
 10
73.8923557951
 20
105.3575175202
 30
0.0
 11
72.8923557951
 21
105.3575175202
 31
0.0
  0
LINE
  5
15F
330
1F
100
AcDbEntity
  8
0
  6
CONTINUOUS
 62
     7
100
AcDbLine
 10
73.8923557951
 20
99.1575175202
 30
0.0
 11
73.8923557951
 21
105.3575175202
 31
0.0
  0
LINE
  5
160
330
1F
100
AcDbEntity
  8
0
  6
CONTINUOUS
 62
     7
100
AcDbLine
 10
72.8923557951
 20
99.1575175202
 30
0.0
 11
73.8923557951
 21
99.1575175202
 31
0.0
  0
LINE
  5
161
330
1F
100
AcDbEntity
  8
0
  6
CONTINUOUS
 62
     7
100
AcDbLine
 10
72.8923557951
 20
105.3575175202
 30
0.0
 11
72.8923557951
 21
99.1575175202
 31
0.0
  0
LINE
  5
162
330
1F
100
AcDbEntity
  8
0
  6
CONTINUOUS
 62
     7
100
AcDbLine
 10
65.0923557951
 20
135.1575175202
 30
0.0
 11
65.0923557951
 21
136.1575175202
 31
0.0
  0
LINE
  5
163
330
1F
100
AcDbEntity
  8
0
  6
CONTINUOUS
 62
     7
100
AcDbLine
 10
58.8923557951
 20
135.1575175202
 30
0.0
 11
65.0923557951
 21
135.1575175202
 31
0.0
  0
LINE
  5
164
330
1F
100
AcDbEntity
  8
0
  6
CONTINUOUS
 62
     7
100
AcDbLine
 10
58.8923557951
 20
136.1575175202
 30
0.0
 11
58.8923557951
 21
135.1575175202
 31
0.0
  0
LINE
  5
165
330
1F
100
AcDbEntity
  8
0
  6
CONTINUOUS
 62
     7
100
AcDbLine
 10
65.0923557951
 20
136.1575175202
 30
0.0
 11
58.8923557951
 21
136.1575175202
 31
0.0
  0
LINE
  5
166
330
1F
100
AcDbEntity
  8
0
  6
CONTINUOUS
 62
     7
100
AcDbLine
 10
65.0923557951
 20
137.1575175202
 30
0.0
 11
65.0923557951
 21
138.1575175202
 31
0.0
  0
LINE
  5
167
330
1F
100
AcDbEntity
  8
0
  6
CONTINUOUS
 62
     7
100
AcDbLine
 10
58.8923557951
 20
137.1575175202
 30
0.0
 11
65.0923557951
 21
137.1575175202
 31
0.0
  0
LINE
  5
168
330
1F
100
AcDbEntity
  8
0
  6
CONTINUOUS
 62
     7
100
AcDbLine
 10
58.8923557951
 20
138.1575175202
 30
0.0
 11
58.8923557951
 21
137.1575175202
 31
0.0
  0
LINE
  5
169
330
1F
100
AcDbEntity
  8
0
  6
CONTINUOUS
 62
     7
100
AcDbLine
 10
65.0923557951
 20
138.1575175202
 30
0.0
 11
58.8923557951
 21
138.1575175202
 31
0.0
  0
LINE
  5
16A
330
1F
100
AcDbEntity
  8
0
  6
CONTINUOUS
 62
     7
100
AcDbLine
 10
65.0923557951
 20
129.1575175202
 30
0.0
 11
65.0923557951
 21
130.1575175202
 31
0.0
  0
LINE
  5
16B
330
1F
100
AcDbEntity
  8
0
  6
CONTINUOUS
 62
     7
100
AcDbLine
 10
58.8923557951
 20
129.1575175202
 30
0.0
 11
65.0923557951
 21
129.1575175202
 31
0.0
  0
LINE
  5
16C
330
1F
100
AcDbEntity
  8
0
  6
CONTINUOUS
 62
     7
100
AcDbLine
 10
58.8923557951
 20
130.1575175202
 30
0.0
 11
58.8923557951
 21
129.1575175202
 31
0.0
  0
LINE
  5
16D
330
1F
100
AcDbEntity
  8
0
  6
CONTINUOUS
 62
     7
100
AcDbLine
 10
65.0923557951
 20
130.1575175202
 30
0.0
 11
58.8923557951
 21
130.1575175202
 31
0.0
  0
LINE
  5
16E
330
1F
100
AcDbEntity
  8
0
  6
CONTINUOUS
 62
     7
100
AcDbLine
 10
65.0923557951
 20
131.1575175202
 30
0.0
 11
65.0923557951
 21
132.1575175202
 31
0.0
  0
LINE
  5
16F
330
1F
100
AcDbEntity
  8
0
  6
CONTINUOUS
 62
     7
100
AcDbLine
 10
58.8923557951
 20
131.1575175202
 30
0.0
 11
65.0923557951
 21
131.1575175202
 31
0.0
  0
LINE
  5
170
330
1F
100
AcDbEntity
  8
0
  6
CONTINUOUS
 62
     7
100
AcDbLine
 10
58.8923557951
 20
132.1575175202
 30
0.0
 11
58.8923557951
 21
131.1575175202
 31
0.0
  0
LINE
  5
171
330
1F
100
AcDbEntity
  8
0
  6
CONTINUOUS
 62
     7
100
AcDbLine
 10
65.0923557951
 20
132.1575175202
 30
0.0
 11
58.8923557951
 21
132.1575175202
 31
0.0
  0
LINE
  5
172
330
1F
100
AcDbEntity
  8
0
  6
CONTINUOUS
 62
     7
100
AcDbLine
 10
65.0923557951
 20
133.1575175202
 30
0.0
 11
65.0923557951
 21
134.1575175202
 31
0.0
  0
LINE
  5
173
330
1F
100
AcDbEntity
  8
0
  6
CONTINUOUS
 62
     7
100
AcDbLine
 10
58.8923557951
 20
133.1575175202
 30
0.0
 11
65.0923557951
 21
133.1575175202
 31
0.0
  0
LINE
  5
174
330
1F
100
AcDbEntity
  8
0
  6
CONTINUOUS
 62
     7
100
AcDbLine
 10
58.8923557951
 20
134.1575175202
 30
0.0
 11
58.8923557951
 21
133.1575175202
 31
0.0
  0
LINE
  5
175
330
1F
100
AcDbEntity
  8
0
  6
CONTINUOUS
 62
     7
100
AcDbLine
 10
65.0923557951
 20
134.1575175202
 30
0.0
 11
58.8923557951
 21
134.1575175202
 31
0.0
  0
LINE
  5
176
330
1F
100
AcDbEntity
  8
0
  6
CONTINUOUS
 62
     7
100
AcDbLine
 10
65.0923557951
 20
139.1575175202
 30
0.0
 11
65.0923557951
 21
140.1575175202
 31
0.0
  0
LINE
  5
177
330
1F
100
AcDbEntity
  8
0
  6
CONTINUOUS
 62
     7
100
AcDbLine
 10
58.8923557951
 20
139.1575175202
 30
0.0
 11
65.0923557951
 21
139.1575175202
 31
0.0
  0
LINE
  5
178
330
1F
100
AcDbEntity
  8
0
  6
CONTINUOUS
 62
     7
100
AcDbLine
 10
58.8923557951
 20
140.1575175202
 30
0.0
 11
58.8923557951
 21
139.1575175202
 31
0.0
  0
LINE
  5
179
330
1F
100
AcDbEntity
  8
0
  6
CONTINUOUS
 62
     7
100
AcDbLine
 10
65.0923557951
 20
140.1575175202
 30
0.0
 11
58.8923557951
 21
140.1575175202
 31
0.0
  0
LINE
  5
17A
330
1F
100
AcDbEntity
  8
0
  6
CONTINUOUS
 62
     7
100
AcDbLine
 10
94.9923557951
 20
114.0575175202
 30
0.0
 11
94.9923557951
 21
135.2575175202
 31
0.0
  0
LINE
  5
17B
330
1F
100
AcDbEntity
  8
0
  6
CONTINUOUS
 62
     7
100
AcDbLine
 10
73.7923557951
 20
114.0575175202
 30
0.0
 11
94.9923557951
 21
114.0575175202
 31
0.0
  0
LINE
  5
17C
330
1F
100
AcDbEntity
  8
0
  6
CONTINUOUS
 62
     7
100
AcDbLine
 10
73.7923557951
 20
135.2575175202
 30
0.0
 11
73.7923557951
 21
114.0575175202
 31
0.0
  0
LINE
  5
17D
330
1F
100
AcDbEntity
  8
0
  6
CONTINUOUS
 62
     7
100
AcDbLine
 10
94.9923557951
 20
135.2575175202
 30
0.0
 11
73.7923557951
 21
135.2575175202
 31
0.0
  0
LINE
  5
17E
330
1F
100
AcDbEntity
  8
0
  6
CONTINUOUS
 62
     7
100
AcDbLine
 10
123.8423557951
 20
165.1075175202
 30
0.0
 11
42.9423557951
 21
165.1075175202
 31
0.0
  0
LINE
  5
17F
330
1F
100
AcDbEntity
  8
0
  6
CONTINUOUS
 62
     7
100
AcDbLine
 10
123.8423557951
 20
84.2075175202
 30
0.0
 11
123.8423557951
 21
165.1075175202
 31
0.0
  0
LINE
  5
180
330
1F
100
AcDbEntity
  8
0
  6
CONTINUOUS
 62
     7
100
AcDbLine
 10
42.9423557951
 20
84.2075175202
 30
0.0
 11
123.8423557951
 21
84.2075175202
 31
0.0
  0
LINE
  5
181
330
1F
100
AcDbEntity
  8
0
  6
CONTINUOUS
 62
     7
100
AcDbLine
 10
42.9423557951
 20
165.1075175202
 30
0.0
 11
42.9423557951
 21
84.2075175202
 31
0.0
  0
CIRCLE
  5
182
330
1F
100
AcDbEntity
  8
0
  6
CONTINUOUS
 62
     7
100
AcDbCircle
 10
118.8423557951
 20
149.9475175202
 30
0.0
 40
1.69999999999996
  0
CIRCLE
  5
183
330
1F
100
AcDbEntity
  8
0
  6
CONTINUOUS
 62
     7
100
AcDbCircle
 10
47.9423557951
 20
160.1075175202
 30
0.0
 40
3.399999999999949
  0
CIRCLE
  5
184
330
1F
100
AcDbEntity
  8
0
  6
CONTINUOUS
 62
     7
100
AcDbCircle
 10
118.8423557951
 20
160.1075175202
 30
0.0
 40
3.399999999999949
  0
CIRCLE
  5
185
330
1F
100
AcDbEntity
  8
0
  6
CONTINUOUS
 62
     7
100
AcDbCircle
 10
118.8423557951
 20
89.2075175202
 30
0.0
 40
3.399999999999935
  0
CIRCLE
  5
186
330
1F
100
AcDbEntity
  8
0
  6
CONTINUOUS
 62
     7
100
AcDbCircle
 10
47.9423557951
 20
89.2075175202
 30
0.0
 40
3.399999999999935
  0
CIRCLE
  5
187
330
1F
100
AcDbEntity
  8
0
  6
CONTINUOUS
 62
     7
100
AcDbCircle
 10
47.9423557951
 20
109.5275175202
 30
0.0
 40
1.699999999999946
  0
ARC
  5
188
330
1F
100
AcDbEntity
  8
0
  6
HIDDEN
 62
     9
100
AcDbCircle
 10
47.9423557951
 20
89.2075175202
 30
0.0
 40
8.0
100
AcDbArc
 50
321.3178125465
 51
128.6821874535
  0
CIRCLE
  5
189
330
1F
100
AcDbEntity
  8
0
  6
HIDDEN
 62
     9
100
AcDbCircle
 10
47.9423557951
 20
89.2075175202
 30
0.0
 40
3.900000000000006
  0
CIRCLE
  5
18A
330
1F
100
AcDbEntity
  8
0
  6
HIDDEN
 62
     9
100
AcDbCircle
 10
83.3923557951
 20
124.6575175202
 30
0.0
 40
3.900000000000006
  0
CIRCLE
  5
18B
330
1F
100
AcDbEntity
  8
0
  6
HIDDEN
 62
     9
100
AcDbCircle
 10
83.3923557951
 20
124.6575175202
 30
0.0
 40
8.000000000000014
  0
CIRCLE
  5
18C
330
1F
100
AcDbEntity
  8
0
  6
HIDDEN
 62
     9
100
AcDbCircle
 10
118.8423557951
 20
160.1075175202
 30
0.0
 40
3.899999999999977
  0
ARC
  5
18D
330
1F
100
AcDbEntity
  8
0
  6
HIDDEN
 62
     9
100
AcDbCircle
 10
118.8423557951
 20
160.1075175202
 30
0.0
 40
7.99999999999998
100
AcDbArc
 50
270.0
 51
308.6821874535
  0
ARC
  5
18E
330
1F
100
AcDbEntity
  8
0
  6
HIDDEN
 62
     9
100
AcDbCircle
 10
118.8423557951
 20
160.1075175202
 30
0.0
 40
8.000000000000016
100
AcDbArc
 50
141.3178125465
 51
270.0
  0
ARC
  5
18F
330
1F
100
AcDbEntity
  8
0
  6
HIDDEN
 62
     9
100
AcDbCircle
 10
118.8423557951
 20
89.2075175202
 30
0.0
 40
7.999999999999999
100
AcDbArc
 50
51.3178125465
 51
218.6821874535
  0
CIRCLE
  5
190
330
1F
100
AcDbEntity
  8
0
  6
HIDDEN
 62
     9
100
AcDbCircle
 10
118.8423557951
 20
89.2075175202
 30
0.0
 40
3.899999999999991
  0
ARC
  5
191
330
1F
100
AcDbEntity
  8
0
  6
HIDDEN
 62
     9
100
AcDbCircle
 10
47.9423557951
 20
160.1075175202
 30
0.0
 40
8.0
100
AcDbArc
 50
270.0
 51
38.6821874535
  0
ARC
  5
192
330
1F
100
AcDbEntity
  8
0
  6
HIDDEN
 62
     9
100
AcDbCircle
 10
47.9423557951
 20
160.1075175202
 30
0.0
 40
8.000000000000002
100
AcDbArc
 50
231.3178125465
 51
270.0
  0
CIRCLE
  5
193
330
1F
100
AcDbEntity
  8
0
  6
HIDDEN
 62
     9
100
AcDbCircle
 10
47.9423557951
 20
160.1075175202
 30
0.0
 40
3.900000000000034
  0
ARC
  5
194
330
1F
100
AcDbEntity
  8
0
  6
HIDDEN
 62
     9
100
AcDbCircle
 10
83.3923557951
 20
147.2849345182
 30
0.0
 40
8.000000000000014
100
AcDbArc
 50
225.0
 51
315.0
  0
LINE
  5
195
330
1F
100
AcDbEntity
  8
0
  6
HIDDEN
 62
     9
100
AcDbLine
 10
112.5286472962
 20
165.1075175202
 30
0.0
 11
89.0492100446
 21
141.6280802687
 31
0.0
  0
LINE
  5
196
330
1F
100
AcDbEntity
  8
0
  6
HIDDEN
 62
     9
100
AcDbLine
 10
100.3629185436
 20
130.3143717697
 30
0.0
 11
118.3645825394
 21
148.3160357655
 31
0.0
  0
LINE
  5
197
330
1F
100
AcDbEntity
  8
0
  6
HIDDEN
 62
     9
100
AcDbLine
 10
120.4738375499
 20
150.425290776
 30
0.0
 11
123.8423557951
 21
153.7938090212
 31
0.0
  0
ARC
  5
198
330
1F
100
AcDbEntity
  8
0
  6
HIDDEN
 62
     9
100
AcDbCircle
 10
106.0197727931
 20
124.6575175202
 30
0.0
 40
8.000000000000004
100
AcDbArc
 50
135.0
 51
225.0
  0
LINE
  5
199
330
1F
100
AcDbEntity
  8
0
  6
HIDDEN
 62
     9
100
AcDbLine
 10
123.8423557951
 20
95.5212260192
 30
0.0
 11
100.3629185436
 21
119.0006632707
 31
0.0
  0
LINE
  5
19A
330
1F
100
AcDbEntity
  8
0
  6
HIDDEN
 62
     9
100
AcDbLine
 10
89.0492100446
 20
107.6869547717
 30
0.0
 11
112.5286472962
 21
84.2075175202
 31
0.0
  0
ARC
  5
19B
330
1F
100
AcDbEntity
  8
0
  6
HIDDEN
 62
     9
100
AcDbCircle
 10
83.3923557951
 20
102.0301005222
 30
0.0
 40
8.000000000000004
100
AcDbArc
 50
45.0
 51
135.0
  0
LINE
  5
19C
330
1F
100
AcDbEntity
  8
0
  6
HIDDEN
 62
     9
100
AcDbLine
 10
54.2560642941
 20
84.2075175202
 30
0.0
 11
77.7355015457
 21
107.6869547717
 31
0.0
  0
LINE
  5
19D
330
1F
100
AcDbEntity
  8
0
  6
HIDDEN
 62
     9
100
AcDbLine
 10
66.4217930467
 20
119.0006632707
 30
0.0
 11
42.9423557951
 21
95.5212260192
 31
0.0
  0
ARC
  5
19E
330
1F
100
AcDbEntity
  8
0
  6
HIDDEN
 62
     9
100
AcDbCircle
 10
60.7649387972
 20
124.6575175202
 30
0.0
 40
7.999999999999999
100
AcDbArc
 50
315.0
 51
45.0
  0
LINE
  5
19F
330
1F
100
AcDbEntity
  8
0
  6
HIDDEN
 62
     9
100
AcDbLine
 10
77.7355015457
 20
141.6280802687
 30
0.0
 11
54.2560642941
 21
165.1075175202
 31
0.0
  0
LINE
  5
1A0
330
1F
100
AcDbEntity
  8
0
  6
HIDDEN
 62
     9
100
AcDbLine
 10
42.9423557951
 20
153.7938090212
 30
0.0
 11
66.4217930467
 21
130.3143717697
 31
0.0
  0
CIRCLE
  5
1A1
330
1F
100
AcDbEntity
  8
0
  6
HIDDEN
 62
     9
100
AcDbCircle
 10
47.9423557951
 20
89.2075175202
 30
0.0
 40
5.199999999999989
  0
CIRCLE
  5
1A2
330
1F
100
AcDbEntity
  8
0
  6
HIDDEN
 62
     9
100
AcDbCircle
 10
118.8423557951
 20
89.2075175202
 30
0.0
 40
5.200000000000003
  0
CIRCLE
  5
1A3
330
1F
100
AcDbEntity
  8
0
  6
HIDDEN
 62
     9
100
AcDbCircle
 10
118.8423557951
 20
160.1075175202
 30
0.0
 40
5.200000000000017
  0
CIRCLE
  5
1A4
330
1F
100
AcDbEntity
  8
0
  6
HIDDEN
 62
     9
100
AcDbCircle
 10
47.9423557951
 20
160.1075175202
 30
0.0
 40
5.200000000000017
  0
LINE
  5
1A5
330
1F
100
AcDbEntity
  8
LAYOUT
  6
PHANTOM
 62
     9
100
AcDbLine
 10
37.3923557951
 20
194.6575175202
 30
0.0
 11
62.3923557951
 21
194.6575175202
 31
0.0
  0
LINE
  5
1A6
330
1F
100
AcDbEntity
  8
LAYOUT
  6
PHANTOM
 62
     9
100
AcDbLine
 10
62.3923557951
 20
194.6575175202
 30
0.0
 11
62.3923557951
 21
175.8575175202
 31
0.0
  0
LINE
  5
1A7
330
1F
100
AcDbEntity
  8
LAYOUT
  6
PHANTOM
 62
     9
100
AcDbLine
 10
65.5923557951
 20
172.6575175202
 30
0.0
 11
103.1923557951
 21
172.6575175202
 31
0.0
  0
LINE
  5
1A8
330
1F
100
AcDbEntity
  8
LAYOUT
  6
PHANTOM
 62
     9
100
AcDbLine
 10
106.3923557951
 20
175.8575175202
 30
0.0
 11
106.3923557951
 21
194.6575175202
 31
0.0
  0
LINE
  5
1A9
330
1F
100
AcDbEntity
  8
LAYOUT
  6
PHANTOM
 62
     9
100
AcDbLine
 10
106.3923557951
 20
194.6575175202
 30
0.0
 11
131.3923557951
 21
194.6575175202
 31
0.0
  0
LINE
  5
1AA
330
1F
100
AcDbEntity
  8
LAYOUT
  6
PHANTOM
 62
     9
100
AcDbLine
 10
131.3923557951
 20
194.6575175202
 30
0.0
 11
131.3923557951
 21
54.6575175202
 31
0.0
  0
LINE
  5
1AB
330
1F
100
AcDbEntity
  8
LAYOUT
  6
PHANTOM
 62
     9
100
AcDbLine
 10
131.3923557951
 20
54.6575175202
 30
0.0
 11
106.3923557951
 21
54.6575175202
 31
0.0
  0
LINE
  5
1AC
330
1F
100
AcDbEntity
  8
LAYOUT
  6
PHANTOM
 62
     9
100
AcDbLine
 10
106.3923557951
 20
54.6575175202
 30
0.0
 11
106.3923557951
 21
73.4575175202
 31
0.0
  0
LINE
  5
1AD
330
1F
100
AcDbEntity
  8
LAYOUT
  6
PHANTOM
 62
     9
100
AcDbLine
 10
103.1923557951
 20
76.6575175202
 30
0.0
 11
65.5923557951
 21
76.6575175202
 31
0.0
  0
LINE
  5
1AE
330
1F
100
AcDbEntity
  8
LAYOUT
  6
PHANTOM
 62
     9
100
AcDbLine
 10
62.3923557951
 20
73.4575175202
 30
0.0
 11
62.3923557951
 21
54.6575175202
 31
0.0
  0
LINE
  5
1AF
330
1F
100
AcDbEntity
  8
LAYOUT
  6
PHANTOM
 62
     9
100
AcDbLine
 10
62.3923557951
 20
54.6575175202
 30
0.0
 11
37.3923557951
 21
54.6575175202
 31
0.0
  0
LINE
  5
1B0
330
1F
100
AcDbEntity
  8
LAYOUT
  6
PHANTOM
 62
     9
100
AcDbLine
 10
37.3923557951
 20
54.6575175202
 30
0.0
 11
37.3923557951
 21
194.6575175202
 31
0.0
  0
LINE
  5
1B1
330
1F
100
AcDbEntity
  8
LAYOUT
  6
PHANTOM
 62
     9
100
AcDbLine
 10
66.4452049615
 20
194.6585423745
 30
0.0
 11
102.2357656728
 21
194.6585423745
 31
0.0
  0
LINE
  5
1B2
330
1F
100
AcDbEntity
  8
LAYOUT
  6
PHANTOM
 62
     9
100
AcDbLine
 10
102.2357656728
 20
194.6585423745
 30
0.0
 11
102.2357656728
 21
173.2575175202
 31
0.0
  0
LINE
  5
1B3
330
1F
100
AcDbEntity
  8
LAYOUT
  6
PHANTOM
 62
     9
100
AcDbLine
 10
102.2357656728
 20
173.2575175202
 30
0.0
 11
66.4452049615
 21
173.2575175202
 31
0.0
  0
LINE
  5
1B4
330
1F
100
AcDbEntity
  8
LAYOUT
  6
PHANTOM
 62
     9
100
AcDbLine
 10
66.4452049615
 20
173.2575175202
 30
0.0
 11
66.4452049615
 21
194.6585423745
 31
0.0
  0
LINE
  5
1B5
330
1F
100
AcDbEntity
  8
LAYOUT
  6
PHANTOM
 62
     9
100
AcDbLine
 10
66.3923557951
 20
76.0585423745
 30
0.0
 11
66.3923557951
 21
54.6575175202
 31
0.0
  0
LINE
  5
1B6
330
1F
100
AcDbEntity
  8
LAYOUT
  6
PHANTOM
 62
     9
100
AcDbLine
 10
66.3923557951
 20
54.6575175202
 30
0.0
 11
102.1829165065
 21
54.6575175202
 31
0.0
  0
LINE
  5
1B7
330
1F
100
AcDbEntity
  8
LAYOUT
  6
PHANTOM
 62
     9
100
AcDbLine
 10
102.1829165065
 20
54.6575175202
 30
0.0
 11
102.1829165065
 21
76.0585423745
 31
0.0
  0
LINE
  5
1B8
330
1F
100
AcDbEntity
  8
LAYOUT
  6
PHANTOM
 62
     9
100
AcDbLine
 10
102.1829165065
 20
76.0585423745
 30
0.0
 11
66.3923557951
 21
76.0585423745
 31
0.0
  0
LINE
  5
1B9
330
1F
100
AcDbEntity
  8
LAYOUT
 62
     9
100
AcDbLine
 10
62.3923557951
 20
70.6575175202
 30
0.0
 11
66.3923557951
 21
70.6575175202
 31
0.0
  0
LINE
  5
1BA
330
1F
100
AcDbEntity
  8
LAYOUT
 62
     9
100
AcDbLine
 10
62.3923557951
 20
70.6575175202
 30
0.0
 11
62.3923557951
 21
62.6575175202
 31
0.0
  0
LINE
  5
1BB
330
1F
100
AcDbEntity
  8
LAYOUT
 62
     9
100
AcDbLine
 10
62.3923557951
 20
62.6575175202
 30
0.0
 11
66.3923557951
 21
62.6575175202
 31
0.0
  0
LINE
  5
1BC
330
1F
100
AcDbEntity
  8
LAYOUT
 62
     9
100
AcDbLine
 10
66.3923557951
 20
70.6575175202
 30
0.0
 11
66.3923557951
 21
62.6575175202
 31
0.0
  0
LINE
  5
1BD
330
1F
100
AcDbEntity
  8
LAYOUT
 62
     9
100
AcDbLine
 10
106.3923557951
 20
70.6575175202
 30
0.0
 11
102.1829165065
 21
70.6575175202
 31
0.0
  0
LINE
  5
1BE
330
1F
100
AcDbEntity
  8
LAYOUT
 62
     9
100
AcDbLine
 10
106.3923557951
 20
70.6575175202
 30
0.0
 11
106.3923557951
 21
62.6575175202
 31
0.0
  0
LINE
  5
1BF
330
1F
100
AcDbEntity
  8
LAYOUT
 62
     9
100
AcDbLine
 10
106.3923557951
 20
62.6575175202
 30
0.0
 11
102.1829165065
 21
62.6575175202
 31
0.0
  0
LINE
  5
1C0
330
1F
100
AcDbEntity
  8
LAYOUT
 62
     9
100
AcDbLine
 10
102.1829165065
 20
70.6575175202
 30
0.0
 11
102.1829165065
 21
62.6575175202
 31
0.0
  0
LINE
  5
1C1
330
1F
100
AcDbEntity
  8
LAYOUT
 62
     9
100
AcDbLine
 10
106.3923557951
 20
186.859941502
 30
0.0
 11
102.2357656728
 21
186.859941502
 31
0.0
  0
LINE
  5
1C2
330
1F
100
AcDbEntity
  8
LAYOUT
 62
     9
100
AcDbLine
 10
106.3923557951
 20
186.859941502
 30
0.0
 11
106.3923557951
 21
178.6575175202
 31
0.0
  0
LINE
  5
1C3
330
1F
100
AcDbEntity
  8
LAYOUT
 62
     9
100
AcDbLine
 10
106.3923557951
 20
178.6575175202
 30
0.0
 11
102.2357656728
 21
178.6575175202
 31
0.0
  0
LINE
  5
1C4
330
1F
100
AcDbEntity
  8
LAYOUT
 62
     9
100
AcDbLine
 10
102.2357656728
 20
186.859941502
 30
0.0
 11
102.2357656728
 21
178.6575175202
 31
0.0
  0
LINE
  5
1C5
330
1F
100
AcDbEntity
  8
LAYOUT
 62
     9
100
AcDbLine
 10
62.3923557951
 20
186.6575175202
 30
0.0
 11
66.4452049615
 21
186.6575175202
 31
0.0
  0
LINE
  5
1C6
330
1F
100
AcDbEntity
  8
LAYOUT
 62
     9
100
AcDbLine
 10
62.3923557951
 20
186.6575175202
 30
0.0
 11
62.3923557951
 21
178.6575175202
 31
0.0
  0
LINE
  5
1C7
330
1F
100
AcDbEntity
  8
LAYOUT
 62
     9
100
AcDbLine
 10
62.3923557951
 20
178.6575175202
 30
0.0
 11
66.4452049615
 21
178.6575175202
 31
0.0
  0
LINE
  5
1C8
330
1F
100
AcDbEntity
  8
LAYOUT
 62
     9
100
AcDbLine
 10
66.4452049615
 20
186.6575175202
 30
0.0
 11
66.4452049615
 21
178.6575175202
 31
0.0
  0
LINE
  5
1C9
330
1F
100
AcDbEntity
  8
LAYOUT
  6
PHANTOM
 62
     9
100
AcDbLine
 10
37.3923557951
 20
190.6575175202
 30
0.0
 11
30.4178338972
 21
190.6575175202
 31
0.0
  0
LINE
  5
1CA
330
1F
100
AcDbEntity
  8
LAYOUT
  6
PHANTOM
 62
     9
100
AcDbLine
 10
37.3923557951
 20
190.6575175202
 30
0.0
 11
37.3923557951
 21
174.6575175202
 31
0.0
  0
LINE
  5
1CB
330
1F
100
AcDbEntity
  8
LAYOUT
  6
PHANTOM
 62
     9
100
AcDbLine
 10
37.3923557951
 20
174.6575175202
 30
0.0
 11
30.4178338972
 21
174.6575175202
 31
0.0
  0
LINE
  5
1CC
330
1F
100
AcDbEntity
  8
LAYOUT
  6
PHANTOM
 62
     9
100
AcDbLine
 10
30.4178338972
 20
190.6575175202
 30
0.0
 11
30.4178338972
 21
174.6575175202
 31
0.0
  0
LINE
  5
1CD
330
1F
100
AcDbEntity
  8
LAYOUT
  6
PHANTOM
 62
     9
100
AcDbLine
 10
131.3923557951
 20
191.6575175202
 30
0.0
 11
138.7192427383
 21
191.6575175202
 31
0.0
  0
LINE
  5
1CE
330
1F
100
AcDbEntity
  8
LAYOUT
  6
PHANTOM
 62
     9
100
AcDbLine
 10
131.3923557951
 20
191.6575175202
 30
0.0
 11
131.3923557951
 21
173.6575175202
 31
0.0
  0
LINE
  5
1CF
330
1F
100
AcDbEntity
  8
LAYOUT
  6
PHANTOM
 62
     9
100
AcDbLine
 10
131.3923557951
 20
173.6575175202
 30
0.0
 11
138.7192427383
 21
173.6575175202
 31
0.0
  0
LINE
  5
1D0
330
1F
100
AcDbEntity
  8
LAYOUT
  6
PHANTOM
 62
     9
100
AcDbLine
 10
138.7192427383
 20
191.6575175202
 30
0.0
 11
138.7192427383
 21
173.6575175202
 31
0.0
  0
LINE
  5
1D1
330
1F
100
AcDbEntity
  8
LAYOUT
  6
PHANTOM
 62
     9
100
AcDbLine
 10
131.3923557951
 20
75.6575175202
 30
0.0
 11
138.3923557951
 21
75.6575175202
 31
0.0
  0
LINE
  5
1D2
330
1F
100
AcDbEntity
  8
LAYOUT
  6
PHANTOM
 62
     9
100
AcDbLine
 10
131.3923557951
 20
75.6575175202
 30
0.0
 11
131.3923557951
 21
57.6575175202
 31
0.0
  0
LINE
  5
1D3
330
1F
100
AcDbEntity
  8
LAYOUT
  6
PHANTOM
 62
     9
100
AcDbLine
 10
131.3923557951
 20
57.6575175202
 30
0.0
 11
138.3923557951
 21
57.6575175202
 31
0.0
  0
LINE
  5
1D4
330
1F
100
AcDbEntity
  8
LAYOUT
  6
PHANTOM
 62
     9
100
AcDbLine
 10
138.3923557951
 20
75.6575175202
 30
0.0
 11
138.3923557951
 21
57.6575175202
 31
0.0
  0
LINE
  5
1D5
330
1F
100
AcDbEntity
  8
LAYOUT
  6
PHANTOM
 62
     9
100
AcDbLine
 10
37.3923557951
 20
74.6523980357
 30
0.0
 11
30.4178338972
 21
74.6523980357
 31
0.0
  0
LINE
  5
1D6
330
1F
100
AcDbEntity
  8
LAYOUT
  6
PHANTOM
 62
     9
100
AcDbLine
 10
37.3923557951
 20
74.6523980357
 30
0.0
 11
37.3923557951
 21
58.6210035252
 31
0.0
  0
LINE
  5
1D7
330
1F
100
AcDbEntity
  8
LAYOUT
  6
PHANTOM
 62
     9
100
AcDbLine
 10
37.3923557951
 20
58.6210035252
 30
0.0
 11
30.4178338972
 21
58.6210035252
 31
0.0
  0
LINE
  5
1D8
330
1F
100
AcDbEntity
  8
LAYOUT
  6
PHANTOM
 62
     9
100
AcDbLine
 10
30.4178338972
 20
74.6523980357
 30
0.0
 11
30.4178338972
 21
58.6210035252
 31
0.0
  0
ARC
  5
1D9
330
1F
100
AcDbEntity
  8
LAYOUT
  6
PHANTOM
 62
     9
100
AcDbCircle
 10
65.5923557951
 20
175.8575175202
 30
0.0
 40
3.200000000000017
100
AcDbArc
 50
180.0
 51
270.0
  0
ARC
  5
1DA
330
1F
100
AcDbEntity
  8
LAYOUT
  6
PHANTOM
 62
     9
100
AcDbCircle
 10
103.1923557951
 20
175.8575175202
 30
0.0
 40
3.199999999999989
100
AcDbArc
 50
270.0
 51
0.0
  0
ARC
  5
1DB
330
1F
100
AcDbEntity
  8
LAYOUT
  6
PHANTOM
 62
     9
100
AcDbCircle
 10
103.1923557951
 20
73.4575175202
 30
0.0
 40
3.200000000000017
100
AcDbArc
 50
0.0
 51
90.0
  0
ARC
  5
1DC
330
1F
100
AcDbEntity
  8
LAYOUT
  6
PHANTOM
 62
     9
100
AcDbCircle
 10
65.5923557951
 20
73.4575175202
 30
0.0
 40
3.199999999999989
100
AcDbArc
 50
90.0
 51
180.0
  0
ENDSEC
  0
SECTION
  2
OBJECTS
  0
DICTIONARY
  5
C
330
0
100
AcDbDictionary
  3
ACAD_GROUP
350
D
  3
ACAD_MLINESTYLE
350
17
  3
ACAD_SCALELIST
350
47
  3
DWGPROPS
350
1DD
  0
DICTIONARY
  5
D
102
{ACAD_REACTORS
330
C
102
}
330
C
100
AcDbDictionary
  0
DICTIONARY
  5
17
102
{ACAD_REACTORS
330
C
102
}
330
C
100
AcDbDictionary
  3
STANDARD
350
18
  0
DICTIONARY
  5
47
102
{ACAD_REACTORS
330
C
102
}
330
C
100
AcDbDictionary
  0
XRECORD
  5
1DD
102
{ACAD_REACTORS
330
C
102
}
330
C
100
AcDbXrecord
  1
DWGPROPS COOKIE
  2

  3

  4

  6

  7

  8
mindy
  9

300
=
301
=
302
=
303
=
304
=
305
=
306
=
307
=
308
=
309
=
 40
0.0
 41
2460242.838121412
 42
2460242.838121736
  1

 90
        0
  0
MLINESTYLE
  5
18
102
{ACAD_REACTORS
330
17
102
}
330
17
100
AcDbMlineStyle
  2
Standard
 70
     0
  3

 62
   256
 51
90.0
 52
90.0
 71
     2
 49
0.5
 62
   256
  6
BYLAYER
 49
-0.5
 62
   256
  6
BYLAYER
  0
ENDSEC
  0
EOF
