  0
SECTION
  2
HEADER
  9
$ACADVER
  1
AC1014
  9
$ACADMAINTVER
 70
     9
  9
$DWGCODEPAGE
  3
ANSI_1252
  9
$INSBASE
 10
0.0
 20
0.0
 30
0.0
  9
$EXTMIN
 10
0.0
 20
0.0
 30
0.0
  9
$EXTMAX
 10
279.4
 20
215.9
 30
0.0
  9
$LIMMIN
 10
0.0
 20
0.0
  9
$LIMMAX
 10
279.4
 20
215.9
  9
$ORTHOMODE
 70
     0
  9
$REGENMODE
 70
     1
  9
$FILLMODE
 70
     1
  9
$QTEXTMODE
 70
     0
  9
$MIRRTEXT
 70
     1
  9
$DRAGMODE
 70
     2
  9
$LTSCALE
 40
1.0
  9
$OSMODE
 70
    37
  9
$ATTMODE
 70
     1
  9
$TEXTSIZE
 40
3.5277777778
  9
$TRACEWID
 40
1.0
  9
$TEXTSTYLE
  7
STANDARD
  9
$CLAYER
  8
0
  9
$CELTYPE
  6
BYLAYER
  9
$CECOLOR
 62
   256
  9
$CELTSCALE
 40
1.0
  9
$DELOBJ
 70
     1
  9
$DISPSILH
 70
     0
  9
$DIMSCALE
 40
1.0
  9
$DIMASZ
 40
3.302
  9
$DIMEXO
 40
1.27
  9
$DIMDLI
 40
3.75
  9
$DIMRND
 40
0.0
  9
$DIMDLE
 40
0.0
  9
$DIMEXE
 40
3.175
  9
$DIMTP
 40
0.0
  9
$DIMTM
 40
0.0
  9
$DIMTXT
 40
3.175
  9
$DIMCEN
 40
2.5
  9
$DIMTSZ
 40
0.0
  9
$DIMTOL
 70
     0
  9
$DIMLIM
 70
     0
  9
$DIMTIH
 70
     1
  9
$DIMTOH
 70
     1
  9
$DIMSE1
 70
     0
  9
$DIMSE2
 70
     0
  9
$DIMTAD
 70
     0
  9
$DIMZIN
 70
     1
  9
$DIMBLK
  1

  9
$DIMASO
 70
     1
  9
$DIMSHO
 70
     1
  9
$DIMPOST
  1

  9
$DIMAPOST
  1

  9
$DIMALT
 70
     0
  9
$DIMALTD
 70
     3
  9
$DIMALTF
 40
0.0393700787
  9
$DIMLFAC
 40
0.3333333333
  9
$DIMTOFL
 70
     1
  9
$DIMTVP
 40
0.0
  9
$DIMTIX
 70
     0
  9
$DIMSOXD
 70
     0
  9
$DIMSAH
 70
     0
  9
$DIMBLK1
  1

  9
$DIMBLK2
  1

  9
$DIMSTYLE
  2
ISO-25
  9
$DIMCLRD
 70
     0
  9
$DIMCLRE
 70
     0
  9
$DIMCLRT
 70
     0
  9
$DIMTFAC
 40
1.0
  9
$DIMGAP
 40
1.524
  9
$DIMJUST
 70
     0
  9
$DIMSD1
 70
     0
  9
$DIMSD2
 70
     0
  9
$DIMTOLJ
 70
     0
  9
$DIMTZIN
 70
     1
  9
$DIMALTZ
 70
     0
  9
$DIMALTTZ
 70
     0
  9
$DIMFIT
 70
     3
  9
$DIMUPT
 70
     0
  9
$DIMUNIT
 70
     2
  9
$DIMDEC
 70
     3
  9
$DIMTDEC
 70
     3
  9
$DIMALTU
 70
     2
  9
$DIMALTTD
 70
     3
  9
$DIMTXSTY
  7
STANDARD
  9
$DIMAUNIT
 70
     0
  9
$LUNITS
 70
     2
  9
$LUPREC
 70
     6
  9
$SKETCHINC
 40
1.0
  9
$FILLETRAD
 40
0.0
  9
$AUNITS
 70
     0
  9
$AUPREC
 70
     0
  9
$MENU
  1
.
  9
$ELEVATION
 40
0.0
  9
$PELEVATION
 40
0.0
  9
$THICKNESS
 40
0.0
  9
$LIMCHECK
 70
     0
  9
$CHAMFERA
 40
0.0
  9
$CHAMFERB
 40
0.0
  9
$CHAMFERC
 40
0.0
  9
$CHAMFERD
 40
0.0
  9
$SKPOLY
 70
     0
  9
$TDCREATE
 40
2460174.482212431
  9
$TDUPDATE
 40
2460174.482212871
  9
$TDINDWG
 40
0.0000000116
  9
$TDUSRTIMER
 40
0.0000000116
  9
$USRTIMER
 70
     1
  9
$ANGBASE
 50
0.0
  9
$ANGDIR
 70
     0
  9
$PDMODE
 70
     0
  9
$PDSIZE
 40
-1.0
  9
$PLINEWID
 40
0.0
  9
$COORDS
 70
     1
  9
$SPLFRAME
 70
     0
  9
$SPLINETYPE
 70
     6
  9
$SPLINESEGS
 70
     8
  9
$ATTDIA
 70
     0
  9
$ATTREQ
 70
     1
  9
$HANDLING
 70
     1
  9
$HANDSEED
  5
1EB
  9
$SURFTAB1
 70
     6
  9
$SURFTAB2
 70
     6
  9
$SURFTYPE
 70
     6
  9
$SURFU
 70
     6
  9
$SURFV
 70
     6
  9
$UCSNAME
  2

  9
$UCSORG
 10
0.0
 20
0.0
 30
0.0
  9
$UCSXDIR
 10
1.0
 20
0.0
 30
0.0
  9
$UCSYDIR
 10
0.0
 20
1.0
 30
0.0
  9
$PUCSNAME
  2

  9
$PUCSORG
 10
0.0
 20
0.0
 30
0.0
  9
$PUCSXDIR
 10
1.0
 20
0.0
 30
0.0
  9
$PUCSYDIR
 10
0.0
 20
1.0
 30
0.0
  9
$USERI1
 70
     0
  9
$USERI2
 70
     0
  9
$USERI3
 70
     0
  9
$USERI4
 70
     0
  9
$USERI5
 70
     0
  9
$USERR1
 40
0.0
  9
$USERR2
 40
0.0
  9
$USERR3
 40
0.0
  9
$USERR4
 40
0.0
  9
$USERR5
 40
0.0
  9
$WORLDVIEW
 70
     1
  9
$SHADEDGE
 70
     3
  9
$SHADEDIF
 70
    70
  9
$TILEMODE
 70
     1
  9
$MAXACTVP
 70
    64
  9
$PINSBASE
 10
0.0
 20
0.0
 30
0.0
  9
$PLIMCHECK
 70
     0
  9
$PEXTMIN
 10
1.0000000000E+20
 20
1.0000000000E+20
 30
1.0000000000E+20
  9
$PEXTMAX
 10
-1.0000000000E+20
 20
-1.0000000000E+20
 30
-1.0000000000E+20
  9
$PLIMMIN
 10
0.0
 20
0.0
  9
$PLIMMAX
 10
420.0
 20
297.0
  9
$UNITMODE
 70
     0
  9
$VISRETAIN
 70
     1
  9
$PLINEGEN
 70
     0
  9
$PSLTSCALE
 70
     1
  9
$TREEDEPTH
 70
  3020
  9
$PICKSTYLE
 70
     1
  9
$CMLSTYLE
  2
STANDARD
  9
$CMLJUST
 70
     0
  9
$CMLSCALE
 40
20.0
  9
$PROXYGRAPHICS
 70
     1
  9
$MEASUREMENT
 70
     1
  0
ENDSEC
  0
SECTION
  2
CLASSES
  0
CLASS
  1
ACDBDICTIONARYWDFLT
  2
AcDbDictionaryWithDefault
  3
ObjectDBX Classes
 90
        0
280
     0
281
     0
  0
CLASS
  1
VISUALSTYLE
  2
AcDbVisualStyle
  3
ObjectDBX Classes
 90
     4095
280
     0
281
     0
  0
CLASS
  1
MATERIAL
  2
AcDbMaterial
  3
ObjectDBX Classes
 90
     1153
280
     0
281
     0
  0
CLASS
  1
SCALE
  2
AcDbScale
  3
ObjectDBX Classes
 90
     1153
280
     0
281
     0
  0
CLASS
  1
TABLESTYLE
  2
AcDbTableStyle
  3
ObjectDBX Classes
 90
     4095
280
     0
281
     0
  0
CLASS
  1
MLEADERSTYLE
  2
AcDbMLeaderStyle
  3
ACDB_MLEADERSTYLE_CLASS
 90
     4095
280
     0
281
     0
  0
CLASS
  1
SUN
  2
AcDbSun
  3
SCENEOE
 90
     1153
280
     0
281
     0
  0
CLASS
  1
XRECORD
  2
AcDbXrecord
  3
ObjectDBX Classes
 90
        0
280
     0
281
     0
  0
CLASS
  1
LWPOLYLINE
  2
AcDbPolyline
  3
ObjectDBX Classes
 90
        0
280
     0
281
     1
  0
CLASS
  1
HATCH
  2
AcDbHatch
  3
ObjectDBX Classes
 90
        0
280
     0
281
     1
  0
ENDSEC
  0
SECTION
  2
TABLES
  0
TABLE
  2
VPORT
  5
8
330
0
100
AcDbSymbolTable
 70
     1
  0
VPORT
  5
29
330
8
100
AcDbSymbolTableRecord
100
AcDbViewportTableRecord
  2
*ACTIVE
 70
     0
 10
0.0
 20
0.0
 11
1.0
 21
1.0
 12
139.7
 22
107.95
 13
0.0
 23
0.0
 14
10.0
 24
10.0
 15
10.0
 25
10.0
 16
0.0
 26
0.0
 36
1.0
 17
0.0
 27
0.0
 37
0.0
 40
215.9
 41
1.2941176471
 42
50.0
 43
0.0
 44
0.0
 50
0.0
 51
0.0
 71
     0
 72
  2000
 73
     1
 74
     3
 75
     0
 76
     0
 77
     0
 78
     0
  0
ENDTAB
  0
TABLE
  2
LTYPE
  5
5
330
0
100
AcDbSymbolTable
 70
     6
  0
LTYPE
  5
14
330
5
100
AcDbSymbolTableRecord
100
AcDbLinetypeTableRecord
  2
BYBLOCK
 70
     0
  3

 72
    65
 73
     0
 40
0.0
  0
LTYPE
  5
15
330
5
100
AcDbSymbolTableRecord
100
AcDbLinetypeTableRecord
  2
BYLAYER
 70
     0
  3

 72
    65
 73
     0
 40
0.0
  0
LTYPE
  5
16
330
5
100
AcDbSymbolTableRecord
100
AcDbLinetypeTableRecord
  2
CONTINUOUS
 70
     0
  3
Solid line
 72
    65
 73
     0
 40
0.0
  0
LTYPE
  5
5E
330
5
100
AcDbSymbolTableRecord
100
AcDbLinetypeTableRecord
  2
HIDDEN
 70
     0
  3
Hidden __ __ __ __ __ __ __ __ __ __ __ __ __ __
 72
    65
 73
     2
 40
1.905
 49
1.27
 74
     0
 49
-0.635
 74
     0
  0
LTYPE
  5
5F
330
5
100
AcDbSymbolTableRecord
100
AcDbLinetypeTableRecord
  2
PHANTOM
 70
     0
  3
Phantom ______  __  __  ______  __  __  ______
 72
    65
 73
     6
 40
12.7
 49
6.35
 74
     0
 49
-1.27
 74
     0
 49
1.27
 74
     0
 49
-1.27
 74
     0
 49
1.27
 74
     0
 49
-1.27
 74
     0
  0
LTYPE
  5
60
330
5
100
AcDbSymbolTableRecord
100
AcDbLinetypeTableRecord
  2
CENTER
 70
     0
  3
Center ____ _ ____ _ ____ _ ____ _ ____ _ ____
 72
    65
 73
     4
 40
10.16
 49
6.35
 74
     0
 49
-1.27
 74
     0
 49
1.27
 74
     0
 49
-1.27
 74
     0
  0
LTYPE
  5
61
330
5
100
AcDbSymbolTableRecord
100
AcDbLinetypeTableRecord
  2
CENTERX2
 70
     0
  3
Center (2x) ________  __  ________  __  _____
 72
    65
 73
     4
 40
20.32
 49
12.7
 74
     0
 49
-2.54
 74
     0
 49
2.54
 74
     0
 49
-2.54
 74
     0
  0
LTYPE
  5
62
330
5
100
AcDbSymbolTableRecord
100
AcDbLinetypeTableRecord
  2
DOT2
 70
     0
  3
Dot (.5x) ........................................
 72
    65
 73
     2
 40
0.635
 49
0.0
 74
     0
 49
-0.635
 74
     0
  0
ENDTAB
  0
TABLE
  2
LAYER
  5
2
330
0
100
AcDbSymbolTable
 70
     9
  0
LAYER
  5
10
330
2
100
AcDbSymbolTableRecord
100
AcDbLayerTableRecord
  2
0
 70
     0
 62
     7
  6
CONTINUOUS
  0
LAYER
  5
63
330
2
100
AcDbSymbolTableRecord
100
AcDbLayerTableRecord
  2
FORMAT
 70
     0
 62
     7
  6
CONTINUOUS
  0
LAYER
  5
64
330
2
100
AcDbSymbolTableRecord
100
AcDbLayerTableRecord
  2
SLD-0
 70
     0
 62
  -179
  6
CONTINUOUS
  0
LAYER
  5
65
330
2
100
AcDbSymbolTableRecord
100
AcDbLayerTableRecord
  2
SLD-DEFPOINTS
 70
     0
 62
  -179
  6
CONTINUOUS
  0
LAYER
  5
66
330
2
100
AcDbSymbolTableRecord
100
AcDbLayerTableRecord
  2
NONE
 70
     0
 62
   179
  6
CONTINUOUS
  0
LAYER
  5
67
330
2
100
AcDbSymbolTableRecord
100
AcDbLayerTableRecord
  2
DIMENSION
 70
     0
 62
   179
  6
CONTINUOUS
  0
LAYER
  5
68
330
2
100
AcDbSymbolTableRecord
100
AcDbLayerTableRecord
  2
SOLID_LINES
 70
     0
 62
  -179
  6
CONTINUOUS
  0
LAYER
  5
69
330
2
100
AcDbSymbolTableRecord
100
AcDbLayerTableRecord
  2
PAGE_FRAME
 70
     0
 62
   179
  6
CONTINUOUS
  0
LAYER
  5
6A
330
2
100
AcDbSymbolTableRecord
100
AcDbLayerTableRecord
  2
LAYOUT
 70
     0
 62
   179
  6
CONTINUOUS
  0
ENDTAB
  0
TABLE
  2
STYLE
  5
3
330
0
100
AcDbSymbolTable
 70
     1
  0
STYLE
  5
11
330
3
100
AcDbSymbolTableRecord
100
AcDbTextStyleTableRecord
  2
STANDARD
 70
     0
 40
0.0
 41
1.0
 50
0.0
 71
     0
 42
3.5277777778
  3
txt
  4

  0
ENDTAB
  0
TABLE
  2
VIEW
  5
6
330
0
100
AcDbSymbolTable
 70
     0
  0
ENDTAB
  0
TABLE
  2
UCS
  5
7
330
0
100
AcDbSymbolTable
 70
     0
  0
ENDTAB
  0
TABLE
  2
APPID
  5
9
330
0
100
AcDbSymbolTable
 70
     1
  0
APPID
  5
12
330
9
100
AcDbSymbolTableRecord
100
AcDbRegAppTableRecord
  2
ACAD
 70
     0
  0
ENDTAB
  0
TABLE
  2
DIMSTYLE
  5
A
330
0
100
AcDbSymbolTable
 70
     1
  0
DIMSTYLE
105
27
330
A
100
AcDbSymbolTableRecord
100
AcDbDimStyleTableRecord
  2
ISO-25
 70
     0
  3

  4

  5

  6

  7

 40
1.0
 41
2.5
 42
0.625
 43
3.75
 44
1.25
 45
0.0
 46
0.0
 47
0.0
 48
0.0
140
2.5
141
2.5
142
0.0
143
0.0393700787
144
1.0
145
0.0
146
1.0
147
0.625
 71
     0
 72
     0
 73
     0
 74
     0
 75
     0
 76
     0
 77
     1
 78
     8
170
     0
171
     3
172
     1
173
     0
174
     0
175
     0
176
     0
177
     0
178
     0
270
     2
271
     2
272
     2
273
     2
274
     3
340
11
275
     0
280
     0
281
     0
282
     0
283
     0
284
     8
285
     0
286
     0
287
     3
288
     0
  0
ENDTAB
  0
TABLE
  2
BLOCK_RECORD
  5
1
330
0
100
AcDbSymbolTable
 70
     1
  0
BLOCK_RECORD
  5
1F
330
1
100
AcDbSymbolTableRecord
100
AcDbBlockTableRecord
  2
*MODEL_SPACE
  0
BLOCK_RECORD
  5
1B
330
1
100
AcDbSymbolTableRecord
100
AcDbBlockTableRecord
  2
*PAPER_SPACE
  0
BLOCK_RECORD
  5
23
330
1
100
AcDbSymbolTableRecord
100
AcDbBlockTableRecord
  2
*PAPER_SPACE0
  0
ENDTAB
  0
ENDSEC
  0
SECTION
  2
BLOCKS
  0
BLOCK
  5
20
330
1F
100
AcDbEntity
  8
0
100
AcDbBlockBegin
  2
*MODEL_SPACE
 70
     0
 10
0.0
 20
0.0
 30
0.0
  3
*MODEL_SPACE
  1

  0
ENDBLK
  5
21
330
1F
100
AcDbEntity
  8
0
100
AcDbBlockEnd
  0
BLOCK
  5
1C
330
1B
100
AcDbEntity
 67
     1
  8
0
100
AcDbBlockBegin
  2
*PAPER_SPACE
 70
     0
 10
0.0
 20
0.0
 30
0.0
  3
*PAPER_SPACE
  1

  0
ENDBLK
  5
1D
330
1B
100
AcDbEntity
 67
     1
  8
0
100
AcDbBlockEnd
  0
BLOCK
  5
24
330
23
100
AcDbEntity
  8
0
100
AcDbBlockBegin
  2
*PAPER_SPACE0
 70
     0
 10
0.0
 20
0.0
 30
0.0
  3
*PAPER_SPACE0
  1

  0
ENDBLK
  5
25
330
23
100
AcDbEntity
  8
0
100
AcDbBlockEnd
  0
ENDSEC
  0
SECTION
  2
ENTITIES
  0
LINE
  5
6B
330
1F
100
AcDbEntity
  8
0
  6
CONTINUOUS
 62
     7
100
AcDbLine
 10
160.6208882724
 20
180.5102286287
 30
0.0
 11
44.4458882724
 21
180.5102286287
 31
0.0
  0
LINE
  5
6C
330
1F
100
AcDbEntity
  8
0
  6
CONTINUOUS
 62
     7
100
AcDbLine
 10
160.6208882724
 20
64.3352286287
 30
0.0
 11
160.6208882724
 21
180.5102286287
 31
0.0
  0
LINE
  5
6D
330
1F
100
AcDbEntity
  8
0
  6
CONTINUOUS
 62
     7
100
AcDbLine
 10
44.4458882724
 20
64.3352286287
 30
0.0
 11
160.6208882724
 21
64.3352286287
 31
0.0
  0
LINE
  5
6E
330
1F
100
AcDbEntity
  8
0
  6
CONTINUOUS
 62
     7
100
AcDbLine
 10
44.4458882724
 20
180.5102286287
 30
0.0
 11
44.4458882724
 21
64.3352286287
 31
0.0
  0
LINE
  5
6F
330
1F
100
AcDbEntity
  8
0
  6
CONTINUOUS
 62
     7
100
AcDbLine
 10
59.2337882724
 20
153.8552286287
 30
0.0
 11
59.2337882724
 21
151.9502286287
 31
0.0
  0
LINE
  5
70
330
1F
100
AcDbEntity
  8
0
  6
CONTINUOUS
 62
     7
100
AcDbLine
 10
63.6533882724
 20
153.8552286287
 30
0.0
 11
59.2337882724
 21
153.8552286287
 31
0.0
  0
LINE
  5
71
330
1F
100
AcDbEntity
  8
0
  6
CONTINUOUS
 62
     7
100
AcDbLine
 10
63.6533882724
 20
151.9502286287
 30
0.0
 11
63.6533882724
 21
153.8552286287
 31
0.0
  0
LINE
  5
72
330
1F
100
AcDbEntity
  8
0
  6
CONTINUOUS
 62
     7
100
AcDbLine
 10
59.2337882724
 20
151.9502286287
 30
0.0
 11
63.6533882724
 21
151.9502286287
 31
0.0
  0
LINE
  5
73
330
1F
100
AcDbEntity
  8
0
  6
CONTINUOUS
 62
     7
100
AcDbLine
 10
59.2337882724
 20
157.6652286287
 30
0.0
 11
59.2337882724
 21
155.7602286287
 31
0.0
  0
LINE
  5
74
330
1F
100
AcDbEntity
  8
0
  6
CONTINUOUS
 62
     7
100
AcDbLine
 10
63.6533882724
 20
157.6652286287
 30
0.0
 11
59.2337882724
 21
157.6652286287
 31
0.0
  0
LINE
  5
75
330
1F
100
AcDbEntity
  8
0
  6
CONTINUOUS
 62
     7
100
AcDbLine
 10
63.6533882724
 20
155.7602286287
 30
0.0
 11
63.6533882724
 21
157.6652286287
 31
0.0
  0
LINE
  5
76
330
1F
100
AcDbEntity
  8
0
  6
CONTINUOUS
 62
     7
100
AcDbLine
 10
59.2337882724
 20
155.7602286287
 30
0.0
 11
63.6533882724
 21
155.7602286287
 31
0.0
  0
LINE
  5
77
330
1F
100
AcDbEntity
  8
0
  6
CONTINUOUS
 62
     7
100
AcDbLine
 10
59.2337882724
 20
161.4752286287
 30
0.0
 11
59.2337882724
 21
159.5702286287
 31
0.0
  0
LINE
  5
78
330
1F
100
AcDbEntity
  8
0
  6
CONTINUOUS
 62
     7
100
AcDbLine
 10
63.6533882724
 20
161.4752286287
 30
0.0
 11
59.2337882724
 21
161.4752286287
 31
0.0
  0
LINE
  5
79
330
1F
100
AcDbEntity
  8
0
  6
CONTINUOUS
 62
     7
100
AcDbLine
 10
63.6533882724
 20
159.5702286287
 30
0.0
 11
63.6533882724
 21
161.4752286287
 31
0.0
  0
LINE
  5
7A
330
1F
100
AcDbEntity
  8
0
  6
CONTINUOUS
 62
     7
100
AcDbLine
 10
59.2337882724
 20
159.5702286287
 30
0.0
 11
63.6533882724
 21
159.5702286287
 31
0.0
  0
LINE
  5
7B
330
1F
100
AcDbEntity
  8
0
  6
CONTINUOUS
 62
     7
100
AcDbLine
 10
140.8058882724
 20
77.9981286287
 30
0.0
 11
142.7108882724
 21
77.9981286287
 31
0.0
  0
LINE
  5
7C
330
1F
100
AcDbEntity
  8
0
  6
CONTINUOUS
 62
     7
100
AcDbLine
 10
140.8058882724
 20
82.4177286287
 30
0.0
 11
140.8058882724
 21
77.9981286287
 31
0.0
  0
LINE
  5
7D
330
1F
100
AcDbEntity
  8
0
  6
CONTINUOUS
 62
     7
100
AcDbLine
 10
142.7108882724
 20
82.4177286287
 30
0.0
 11
140.8058882724
 21
82.4177286287
 31
0.0
  0
LINE
  5
7E
330
1F
100
AcDbEntity
  8
0
  6
CONTINUOUS
 62
     7
100
AcDbLine
 10
142.7108882724
 20
77.9981286287
 30
0.0
 11
142.7108882724
 21
82.4177286287
 31
0.0
  0
LINE
  5
7F
330
1F
100
AcDbEntity
  8
0
  6
CONTINUOUS
 62
     7
100
AcDbLine
 10
136.9958882724
 20
77.9981286287
 30
0.0
 11
138.9008882724
 21
77.9981286287
 31
0.0
  0
LINE
  5
80
330
1F
100
AcDbEntity
  8
0
  6
CONTINUOUS
 62
     7
100
AcDbLine
 10
136.9958882724
 20
82.4177286287
 30
0.0
 11
136.9958882724
 21
77.9981286287
 31
0.0
  0
LINE
  5
81
330
1F
100
AcDbEntity
  8
0
  6
CONTINUOUS
 62
     7
100
AcDbLine
 10
138.9008882724
 20
82.4177286287
 30
0.0
 11
136.9958882724
 21
82.4177286287
 31
0.0
  0
LINE
  5
82
330
1F
100
AcDbEntity
  8
0
  6
CONTINUOUS
 62
     7
100
AcDbLine
 10
138.9008882724
 20
77.9981286287
 30
0.0
 11
138.9008882724
 21
82.4177286287
 31
0.0
  0
LINE
  5
83
330
1F
100
AcDbEntity
  8
0
  6
CONTINUOUS
 62
     7
100
AcDbLine
 10
133.1858882724
 20
77.9981286287
 30
0.0
 11
135.0908882724
 21
77.9981286287
 31
0.0
  0
LINE
  5
84
330
1F
100
AcDbEntity
  8
0
  6
CONTINUOUS
 62
     7
100
AcDbLine
 10
133.1858882724
 20
82.4177286287
 30
0.0
 11
133.1858882724
 21
77.9981286287
 31
0.0
  0
LINE
  5
85
330
1F
100
AcDbEntity
  8
0
  6
CONTINUOUS
 62
     7
100
AcDbLine
 10
135.0908882724
 20
82.4177286287
 30
0.0
 11
133.1858882724
 21
82.4177286287
 31
0.0
  0
LINE
  5
86
330
1F
100
AcDbEntity
  8
0
  6
CONTINUOUS
 62
     7
100
AcDbLine
 10
135.0908882724
 20
77.9981286287
 30
0.0
 11
135.0908882724
 21
82.4177286287
 31
0.0
  0
LINE
  5
87
330
1F
100
AcDbEntity
  8
0
  6
CONTINUOUS
 62
     7
100
AcDbLine
 10
129.3758882724
 20
77.9981286287
 30
0.0
 11
131.2808882724
 21
77.9981286287
 31
0.0
  0
LINE
  5
88
330
1F
100
AcDbEntity
  8
0
  6
CONTINUOUS
 62
     7
100
AcDbLine
 10
129.3758882724
 20
82.4177286287
 30
0.0
 11
129.3758882724
 21
77.9981286287
 31
0.0
  0
LINE
  5
89
330
1F
100
AcDbEntity
  8
0
  6
CONTINUOUS
 62
     7
100
AcDbLine
 10
131.2808882724
 20
82.4177286287
 30
0.0
 11
129.3758882724
 21
82.4177286287
 31
0.0
  0
LINE
  5
8A
330
1F
100
AcDbEntity
  8
0
  6
CONTINUOUS
 62
     7
100
AcDbLine
 10
131.2808882724
 20
77.9981286287
 30
0.0
 11
131.2808882724
 21
82.4177286287
 31
0.0
  0
LINE
  5
8B
330
1F
100
AcDbEntity
  8
0
  6
CONTINUOUS
 62
     7
100
AcDbLine
 10
125.5658882724
 20
77.9981286287
 30
0.0
 11
127.4708882724
 21
77.9981286287
 31
0.0
  0
LINE
  5
8C
330
1F
100
AcDbEntity
  8
0
  6
CONTINUOUS
 62
     7
100
AcDbLine
 10
125.5658882724
 20
82.4177286287
 30
0.0
 11
125.5658882724
 21
77.9981286287
 31
0.0
  0
LINE
  5
8D
330
1F
100
AcDbEntity
  8
0
  6
CONTINUOUS
 62
     7
100
AcDbLine
 10
127.4708882724
 20
82.4177286287
 30
0.0
 11
125.5658882724
 21
82.4177286287
 31
0.0
  0
LINE
  5
8E
330
1F
100
AcDbEntity
  8
0
  6
CONTINUOUS
 62
     7
100
AcDbLine
 10
127.4708882724
 20
77.9981286287
 30
0.0
 11
127.4708882724
 21
82.4177286287
 31
0.0
  0
LINE
  5
8F
330
1F
100
AcDbEntity
  8
0
  6
CONTINUOUS
 62
     7
100
AcDbLine
 10
121.7558882724
 20
77.9981286287
 30
0.0
 11
123.6608882724
 21
77.9981286287
 31
0.0
  0
LINE
  5
90
330
1F
100
AcDbEntity
  8
0
  6
CONTINUOUS
 62
     7
100
AcDbLine
 10
121.7558882724
 20
82.4177286287
 30
0.0
 11
121.7558882724
 21
77.9981286287
 31
0.0
  0
LINE
  5
91
330
1F
100
AcDbEntity
  8
0
  6
CONTINUOUS
 62
     7
100
AcDbLine
 10
123.6608882724
 20
82.4177286287
 30
0.0
 11
121.7558882724
 21
82.4177286287
 31
0.0
  0
LINE
  5
92
330
1F
100
AcDbEntity
  8
0
  6
CONTINUOUS
 62
     7
100
AcDbLine
 10
123.6608882724
 20
77.9981286287
 30
0.0
 11
123.6608882724
 21
82.4177286287
 31
0.0
  0
LINE
  5
93
330
1F
100
AcDbEntity
  8
0
  6
CONTINUOUS
 62
     7
100
AcDbLine
 10
142.7108882724
 20
166.8473286287
 30
0.0
 11
140.8058882724
 21
166.8473286287
 31
0.0
  0
LINE
  5
94
330
1F
100
AcDbEntity
  8
0
  6
CONTINUOUS
 62
     7
100
AcDbLine
 10
142.7108882724
 20
162.4277286287
 30
0.0
 11
142.7108882724
 21
166.8473286287
 31
0.0
  0
LINE
  5
95
330
1F
100
AcDbEntity
  8
0
  6
CONTINUOUS
 62
     7
100
AcDbLine
 10
140.8058882724
 20
162.4277286287
 30
0.0
 11
142.7108882724
 21
162.4277286287
 31
0.0
  0
LINE
  5
96
330
1F
100
AcDbEntity
  8
0
  6
CONTINUOUS
 62
     7
100
AcDbLine
 10
140.8058882724
 20
166.8473286287
 30
0.0
 11
140.8058882724
 21
162.4277286287
 31
0.0
  0
LINE
  5
97
330
1F
100
AcDbEntity
  8
0
  6
CONTINUOUS
 62
     7
100
AcDbLine
 10
138.9008882724
 20
166.8473286287
 30
0.0
 11
136.9958882724
 21
166.8473286287
 31
0.0
  0
LINE
  5
98
330
1F
100
AcDbEntity
  8
0
  6
CONTINUOUS
 62
     7
100
AcDbLine
 10
138.9008882724
 20
162.4277286287
 30
0.0
 11
138.9008882724
 21
166.8473286287
 31
0.0
  0
LINE
  5
99
330
1F
100
AcDbEntity
  8
0
  6
CONTINUOUS
 62
     7
100
AcDbLine
 10
136.9958882724
 20
162.4277286287
 30
0.0
 11
138.9008882724
 21
162.4277286287
 31
0.0
  0
LINE
  5
9A
330
1F
100
AcDbEntity
  8
0
  6
CONTINUOUS
 62
     7
100
AcDbLine
 10
136.9958882724
 20
166.8473286287
 30
0.0
 11
136.9958882724
 21
162.4277286287
 31
0.0
  0
LINE
  5
9B
330
1F
100
AcDbEntity
  8
0
  6
CONTINUOUS
 62
     7
100
AcDbLine
 10
135.0908882724
 20
166.8473286287
 30
0.0
 11
133.1858882724
 21
166.8473286287
 31
0.0
  0
LINE
  5
9C
330
1F
100
AcDbEntity
  8
0
  6
CONTINUOUS
 62
     7
100
AcDbLine
 10
135.0908882724
 20
162.4277286287
 30
0.0
 11
135.0908882724
 21
166.8473286287
 31
0.0
  0
LINE
  5
9D
330
1F
100
AcDbEntity
  8
0
  6
CONTINUOUS
 62
     7
100
AcDbLine
 10
133.1858882724
 20
162.4277286287
 30
0.0
 11
135.0908882724
 21
162.4277286287
 31
0.0
  0
LINE
  5
9E
330
1F
100
AcDbEntity
  8
0
  6
CONTINUOUS
 62
     7
100
AcDbLine
 10
133.1858882724
 20
166.8473286287
 30
0.0
 11
133.1858882724
 21
162.4277286287
 31
0.0
  0
LINE
  5
9F
330
1F
100
AcDbEntity
  8
0
  6
CONTINUOUS
 62
     7
100
AcDbLine
 10
131.2808882724
 20
166.8473286287
 30
0.0
 11
129.3758882724
 21
166.8473286287
 31
0.0
  0
LINE
  5
A0
330
1F
100
AcDbEntity
  8
0
  6
CONTINUOUS
 62
     7
100
AcDbLine
 10
131.2808882724
 20
162.4277286287
 30
0.0
 11
131.2808882724
 21
166.8473286287
 31
0.0
  0
LINE
  5
A1
330
1F
100
AcDbEntity
  8
0
  6
CONTINUOUS
 62
     7
100
AcDbLine
 10
129.3758882724
 20
162.4277286287
 30
0.0
 11
131.2808882724
 21
162.4277286287
 31
0.0
  0
LINE
  5
A2
330
1F
100
AcDbEntity
  8
0
  6
CONTINUOUS
 62
     7
100
AcDbLine
 10
129.3758882724
 20
166.8473286287
 30
0.0
 11
129.3758882724
 21
162.4277286287
 31
0.0
  0
LINE
  5
A3
330
1F
100
AcDbEntity
  8
0
  6
CONTINUOUS
 62
     7
100
AcDbLine
 10
127.4708882724
 20
166.8473286287
 30
0.0
 11
125.5658882724
 21
166.8473286287
 31
0.0
  0
LINE
  5
A4
330
1F
100
AcDbEntity
  8
0
  6
CONTINUOUS
 62
     7
100
AcDbLine
 10
127.4708882724
 20
162.4277286287
 30
0.0
 11
127.4708882724
 21
166.8473286287
 31
0.0
  0
LINE
  5
A5
330
1F
100
AcDbEntity
  8
0
  6
CONTINUOUS
 62
     7
100
AcDbLine
 10
125.5658882724
 20
162.4277286287
 30
0.0
 11
127.4708882724
 21
162.4277286287
 31
0.0
  0
LINE
  5
A6
330
1F
100
AcDbEntity
  8
0
  6
CONTINUOUS
 62
     7
100
AcDbLine
 10
125.5658882724
 20
166.8473286287
 30
0.0
 11
125.5658882724
 21
162.4277286287
 31
0.0
  0
LINE
  5
A7
330
1F
100
AcDbEntity
  8
0
  6
CONTINUOUS
 62
     7
100
AcDbLine
 10
123.6608882724
 20
166.8473286287
 30
0.0
 11
121.7558882724
 21
166.8473286287
 31
0.0
  0
LINE
  5
A8
330
1F
100
AcDbEntity
  8
0
  6
CONTINUOUS
 62
     7
100
AcDbLine
 10
123.6608882724
 20
162.4277286287
 30
0.0
 11
123.6608882724
 21
166.8473286287
 31
0.0
  0
LINE
  5
A9
330
1F
100
AcDbEntity
  8
0
  6
CONTINUOUS
 62
     7
100
AcDbLine
 10
121.7558882724
 20
162.4277286287
 30
0.0
 11
123.6608882724
 21
162.4277286287
 31
0.0
  0
LINE
  5
AA
330
1F
100
AcDbEntity
  8
0
  6
CONTINUOUS
 62
     7
100
AcDbLine
 10
121.7558882724
 20
166.8473286287
 30
0.0
 11
121.7558882724
 21
162.4277286287
 31
0.0
  0
LINE
  5
AB
330
1F
100
AcDbEntity
  8
0
  6
CONTINUOUS
 62
     7
100
AcDbLine
 10
119.8508882724
 20
166.8473286287
 30
0.0
 11
117.9458882724
 21
166.8473286287
 31
0.0
  0
LINE
  5
AC
330
1F
100
AcDbEntity
  8
0
  6
CONTINUOUS
 62
     7
100
AcDbLine
 10
119.8508882724
 20
162.4277286287
 30
0.0
 11
119.8508882724
 21
166.8473286287
 31
0.0
  0
LINE
  5
AD
330
1F
100
AcDbEntity
  8
0
  6
CONTINUOUS
 62
     7
100
AcDbLine
 10
117.9458882724
 20
162.4277286287
 30
0.0
 11
119.8508882724
 21
162.4277286287
 31
0.0
  0
LINE
  5
AE
330
1F
100
AcDbEntity
  8
0
  6
CONTINUOUS
 62
     7
100
AcDbLine
 10
117.9458882724
 20
166.8473286287
 30
0.0
 11
117.9458882724
 21
162.4277286287
 31
0.0
  0
LINE
  5
AF
330
1F
100
AcDbEntity
  8
0
  6
CONTINUOUS
 62
     7
100
AcDbLine
 10
116.0408882724
 20
166.8473286287
 30
0.0
 11
114.1358882724
 21
166.8473286287
 31
0.0
  0
LINE
  5
B0
330
1F
100
AcDbEntity
  8
0
  6
CONTINUOUS
 62
     7
100
AcDbLine
 10
116.0408882724
 20
162.4277286287
 30
0.0
 11
116.0408882724
 21
166.8473286287
 31
0.0
  0
LINE
  5
B1
330
1F
100
AcDbEntity
  8
0
  6
CONTINUOUS
 62
     7
100
AcDbLine
 10
114.1358882724
 20
162.4277286287
 30
0.0
 11
116.0408882724
 21
162.4277286287
 31
0.0
  0
LINE
  5
B2
330
1F
100
AcDbEntity
  8
0
  6
CONTINUOUS
 62
     7
100
AcDbLine
 10
114.1358882724
 20
166.8473286287
 30
0.0
 11
114.1358882724
 21
162.4277286287
 31
0.0
  0
LINE
  5
B3
330
1F
100
AcDbEntity
  8
0
  6
CONTINUOUS
 62
     7
100
AcDbLine
 10
112.2308882724
 20
166.8473286287
 30
0.0
 11
110.3258882724
 21
166.8473286287
 31
0.0
  0
LINE
  5
B4
330
1F
100
AcDbEntity
  8
0
  6
CONTINUOUS
 62
     7
100
AcDbLine
 10
112.2308882724
 20
162.4277286287
 30
0.0
 11
112.2308882724
 21
166.8473286287
 31
0.0
  0
LINE
  5
B5
330
1F
100
AcDbEntity
  8
0
  6
CONTINUOUS
 62
     7
100
AcDbLine
 10
110.3258882724
 20
162.4277286287
 30
0.0
 11
112.2308882724
 21
162.4277286287
 31
0.0
  0
LINE
  5
B6
330
1F
100
AcDbEntity
  8
0
  6
CONTINUOUS
 62
     7
100
AcDbLine
 10
110.3258882724
 20
166.8473286287
 30
0.0
 11
110.3258882724
 21
162.4277286287
 31
0.0
  0
LINE
  5
B7
330
1F
100
AcDbEntity
  8
0
  6
CONTINUOUS
 62
     7
100
AcDbLine
 10
108.4208882724
 20
166.8473286287
 30
0.0
 11
106.5158882724
 21
166.8473286287
 31
0.0
  0
LINE
  5
B8
330
1F
100
AcDbEntity
  8
0
  6
CONTINUOUS
 62
     7
100
AcDbLine
 10
108.4208882724
 20
162.4277286287
 30
0.0
 11
108.4208882724
 21
166.8473286287
 31
0.0
  0
LINE
  5
B9
330
1F
100
AcDbEntity
  8
0
  6
CONTINUOUS
 62
     7
100
AcDbLine
 10
106.5158882724
 20
162.4277286287
 30
0.0
 11
108.4208882724
 21
162.4277286287
 31
0.0
  0
LINE
  5
BA
330
1F
100
AcDbEntity
  8
0
  6
CONTINUOUS
 62
     7
100
AcDbLine
 10
106.5158882724
 20
166.8473286287
 30
0.0
 11
106.5158882724
 21
162.4277286287
 31
0.0
  0
LINE
  5
BB
330
1F
100
AcDbEntity
  8
0
  6
CONTINUOUS
 62
     7
100
AcDbLine
 10
104.6108882724
 20
166.8473286287
 30
0.0
 11
102.7058882724
 21
166.8473286287
 31
0.0
  0
LINE
  5
BC
330
1F
100
AcDbEntity
  8
0
  6
CONTINUOUS
 62
     7
100
AcDbLine
 10
104.6108882724
 20
160.0277286287
 30
0.0
 11
104.6108882724
 21
166.8473286287
 31
0.0
  0
LINE
  5
BD
330
1F
100
AcDbEntity
  8
0
  6
CONTINUOUS
 62
     7
100
AcDbLine
 10
102.7058882724
 20
160.0277286287
 30
0.0
 11
104.6108882724
 21
160.0277286287
 31
0.0
  0
LINE
  5
BE
330
1F
100
AcDbEntity
  8
0
  6
CONTINUOUS
 62
     7
100
AcDbLine
 10
102.7058882724
 20
166.8473286287
 30
0.0
 11
102.7058882724
 21
160.0277286287
 31
0.0
  0
LINE
  5
BF
330
1F
100
AcDbEntity
  8
0
  6
CONTINUOUS
 62
     7
100
AcDbLine
 10
100.8008882724
 20
166.8473286287
 30
0.0
 11
98.8958882724
 21
166.8473286287
 31
0.0
  0
LINE
  5
C0
330
1F
100
AcDbEntity
  8
0
  6
CONTINUOUS
 62
     7
100
AcDbLine
 10
100.8008882724
 20
162.4277286287
 30
0.0
 11
100.8008882724
 21
166.8473286287
 31
0.0
  0
LINE
  5
C1
330
1F
100
AcDbEntity
  8
0
  6
CONTINUOUS
 62
     7
100
AcDbLine
 10
98.8958882724
 20
162.4277286287
 30
0.0
 11
100.8008882724
 21
162.4277286287
 31
0.0
  0
LINE
  5
C2
330
1F
100
AcDbEntity
  8
0
  6
CONTINUOUS
 62
     7
100
AcDbLine
 10
98.8958882724
 20
166.8473286287
 30
0.0
 11
98.8958882724
 21
162.4277286287
 31
0.0
  0
LINE
  5
C3
330
1F
100
AcDbEntity
  8
0
  6
CONTINUOUS
 62
     7
100
AcDbLine
 10
96.9908882724
 20
166.8473286287
 30
0.0
 11
95.0858882724
 21
166.8473286287
 31
0.0
  0
LINE
  5
C4
330
1F
100
AcDbEntity
  8
0
  6
CONTINUOUS
 62
     7
100
AcDbLine
 10
96.9908882724
 20
162.4277286287
 30
0.0
 11
96.9908882724
 21
166.8473286287
 31
0.0
  0
LINE
  5
C5
330
1F
100
AcDbEntity
  8
0
  6
CONTINUOUS
 62
     7
100
AcDbLine
 10
95.0858882724
 20
162.4277286287
 30
0.0
 11
96.9908882724
 21
162.4277286287
 31
0.0
  0
LINE
  5
C6
330
1F
100
AcDbEntity
  8
0
  6
CONTINUOUS
 62
     7
100
AcDbLine
 10
95.0858882724
 20
166.8473286287
 30
0.0
 11
95.0858882724
 21
162.4277286287
 31
0.0
  0
LINE
  5
C7
330
1F
100
AcDbEntity
  8
0
  6
CONTINUOUS
 62
     7
100
AcDbLine
 10
93.1808882724
 20
166.8473286287
 30
0.0
 11
91.2758882724
 21
166.8473286287
 31
0.0
  0
LINE
  5
C8
330
1F
100
AcDbEntity
  8
0
  6
CONTINUOUS
 62
     7
100
AcDbLine
 10
93.1808882724
 20
162.4277286287
 30
0.0
 11
93.1808882724
 21
166.8473286287
 31
0.0
  0
LINE
  5
C9
330
1F
100
AcDbEntity
  8
0
  6
CONTINUOUS
 62
     7
100
AcDbLine
 10
91.2758882724
 20
162.4277286287
 30
0.0
 11
93.1808882724
 21
162.4277286287
 31
0.0
  0
LINE
  5
CA
330
1F
100
AcDbEntity
  8
0
  6
CONTINUOUS
 62
     7
100
AcDbLine
 10
91.2758882724
 20
166.8473286287
 30
0.0
 11
91.2758882724
 21
162.4277286287
 31
0.0
  0
LINE
  5
CB
330
1F
100
AcDbEntity
  8
0
  6
CONTINUOUS
 62
     7
100
AcDbLine
 10
89.3708882724
 20
166.8473286287
 30
0.0
 11
87.4658882724
 21
166.8473286287
 31
0.0
  0
LINE
  5
CC
330
1F
100
AcDbEntity
  8
0
  6
CONTINUOUS
 62
     7
100
AcDbLine
 10
89.3708882724
 20
162.4277286287
 30
0.0
 11
89.3708882724
 21
166.8473286287
 31
0.0
  0
LINE
  5
CD
330
1F
100
AcDbEntity
  8
0
  6
CONTINUOUS
 62
     7
100
AcDbLine
 10
87.4658882724
 20
162.4277286287
 30
0.0
 11
89.3708882724
 21
162.4277286287
 31
0.0
  0
LINE
  5
CE
330
1F
100
AcDbEntity
  8
0
  6
CONTINUOUS
 62
     7
100
AcDbLine
 10
87.4658882724
 20
166.8473286287
 30
0.0
 11
87.4658882724
 21
162.4277286287
 31
0.0
  0
LINE
  5
CF
330
1F
100
AcDbEntity
  8
0
  6
CONTINUOUS
 62
     7
100
AcDbLine
 10
85.5608882724
 20
166.8473286287
 30
0.0
 11
83.6558882724
 21
166.8473286287
 31
0.0
  0
LINE
  5
D0
330
1F
100
AcDbEntity
  8
0
  6
CONTINUOUS
 62
     7
100
AcDbLine
 10
85.5608882724
 20
162.4277286287
 30
0.0
 11
85.5608882724
 21
166.8473286287
 31
0.0
  0
LINE
  5
D1
330
1F
100
AcDbEntity
  8
0
  6
CONTINUOUS
 62
     7
100
AcDbLine
 10
83.6558882724
 20
162.4277286287
 30
0.0
 11
85.5608882724
 21
162.4277286287
 31
0.0
  0
LINE
  5
D2
330
1F
100
AcDbEntity
  8
0
  6
CONTINUOUS
 62
     7
100
AcDbLine
 10
83.6558882724
 20
166.8473286287
 30
0.0
 11
83.6558882724
 21
162.4277286287
 31
0.0
  0
LINE
  5
D3
330
1F
100
AcDbEntity
  8
0
  6
CONTINUOUS
 62
     7
100
AcDbLine
 10
81.7508882724
 20
166.8473286287
 30
0.0
 11
79.8458882724
 21
166.8473286287
 31
0.0
  0
LINE
  5
D4
330
1F
100
AcDbEntity
  8
0
  6
CONTINUOUS
 62
     7
100
AcDbLine
 10
81.7508882724
 20
162.4277286287
 30
0.0
 11
81.7508882724
 21
166.8473286287
 31
0.0
  0
LINE
  5
D5
330
1F
100
AcDbEntity
  8
0
  6
CONTINUOUS
 62
     7
100
AcDbLine
 10
79.8458882724
 20
162.4277286287
 30
0.0
 11
81.7508882724
 21
162.4277286287
 31
0.0
  0
LINE
  5
D6
330
1F
100
AcDbEntity
  8
0
  6
CONTINUOUS
 62
     7
100
AcDbLine
 10
79.8458882724
 20
166.8473286287
 30
0.0
 11
79.8458882724
 21
162.4277286287
 31
0.0
  0
LINE
  5
D7
330
1F
100
AcDbEntity
  8
0
  6
CONTINUOUS
 62
     7
100
AcDbLine
 10
77.9408882724
 20
166.8473286287
 30
0.0
 11
76.0358882724
 21
166.8473286287
 31
0.0
  0
LINE
  5
D8
330
1F
100
AcDbEntity
  8
0
  6
CONTINUOUS
 62
     7
100
AcDbLine
 10
77.9408882724
 20
162.4277286287
 30
0.0
 11
77.9408882724
 21
166.8473286287
 31
0.0
  0
LINE
  5
D9
330
1F
100
AcDbEntity
  8
0
  6
CONTINUOUS
 62
     7
100
AcDbLine
 10
76.0358882724
 20
162.4277286287
 30
0.0
 11
77.9408882724
 21
162.4277286287
 31
0.0
  0
LINE
  5
DA
330
1F
100
AcDbEntity
  8
0
  6
CONTINUOUS
 62
     7
100
AcDbLine
 10
76.0358882724
 20
166.8473286287
 30
0.0
 11
76.0358882724
 21
162.4277286287
 31
0.0
  0
LINE
  5
DB
330
1F
100
AcDbEntity
  8
0
  6
CONTINUOUS
 62
     7
100
AcDbLine
 10
74.1308882724
 20
166.8473286287
 30
0.0
 11
72.2258882724
 21
166.8473286287
 31
0.0
  0
LINE
  5
DC
330
1F
100
AcDbEntity
  8
0
  6
CONTINUOUS
 62
     7
100
AcDbLine
 10
74.1308882724
 20
162.4277286287
 30
0.0
 11
74.1308882724
 21
166.8473286287
 31
0.0
  0
LINE
  5
DD
330
1F
100
AcDbEntity
  8
0
  6
CONTINUOUS
 62
     7
100
AcDbLine
 10
72.2258882724
 20
162.4277286287
 30
0.0
 11
74.1308882724
 21
162.4277286287
 31
0.0
  0
LINE
  5
DE
330
1F
100
AcDbEntity
  8
0
  6
CONTINUOUS
 62
     7
100
AcDbLine
 10
72.2258882724
 20
166.8473286287
 30
0.0
 11
72.2258882724
 21
162.4277286287
 31
0.0
  0
LINE
  5
DF
330
1F
100
AcDbEntity
  8
0
  6
CONTINUOUS
 62
     7
100
AcDbLine
 10
148.0829882724
 20
144.3302286287
 30
0.0
 11
148.0829882724
 21
146.2352286287
 31
0.0
  0
LINE
  5
E0
330
1F
100
AcDbEntity
  8
0
  6
CONTINUOUS
 62
     7
100
AcDbLine
 10
143.6633882724
 20
144.3302286287
 30
0.0
 11
148.0829882724
 21
144.3302286287
 31
0.0
  0
LINE
  5
E1
330
1F
100
AcDbEntity
  8
0
  6
CONTINUOUS
 62
     7
100
AcDbLine
 10
143.6633882724
 20
146.2352286287
 30
0.0
 11
143.6633882724
 21
144.3302286287
 31
0.0
  0
LINE
  5
E2
330
1F
100
AcDbEntity
  8
0
  6
CONTINUOUS
 62
     7
100
AcDbLine
 10
148.0829882724
 20
146.2352286287
 30
0.0
 11
143.6633882724
 21
146.2352286287
 31
0.0
  0
LINE
  5
E3
330
1F
100
AcDbEntity
  8
0
  6
CONTINUOUS
 62
     7
100
AcDbLine
 10
148.0829882724
 20
140.5202286287
 30
0.0
 11
148.0829882724
 21
142.4252286287
 31
0.0
  0
LINE
  5
E4
330
1F
100
AcDbEntity
  8
0
  6
CONTINUOUS
 62
     7
100
AcDbLine
 10
143.6633882724
 20
140.5202286287
 30
0.0
 11
148.0829882724
 21
140.5202286287
 31
0.0
  0
LINE
  5
E5
330
1F
100
AcDbEntity
  8
0
  6
CONTINUOUS
 62
     7
100
AcDbLine
 10
143.6633882724
 20
142.4252286287
 30
0.0
 11
143.6633882724
 21
140.5202286287
 31
0.0
  0
LINE
  5
E6
330
1F
100
AcDbEntity
  8
0
  6
CONTINUOUS
 62
     7
100
AcDbLine
 10
148.0829882724
 20
142.4252286287
 30
0.0
 11
143.6633882724
 21
142.4252286287
 31
0.0
  0
LINE
  5
E7
330
1F
100
AcDbEntity
  8
0
  6
CONTINUOUS
 62
     7
100
AcDbLine
 10
148.0829882724
 20
136.7102286287
 30
0.0
 11
148.0829882724
 21
138.6152286287
 31
0.0
  0
LINE
  5
E8
330
1F
100
AcDbEntity
  8
0
  6
CONTINUOUS
 62
     7
100
AcDbLine
 10
143.6633882724
 20
136.7102286287
 30
0.0
 11
148.0829882724
 21
136.7102286287
 31
0.0
  0
LINE
  5
E9
330
1F
100
AcDbEntity
  8
0
  6
CONTINUOUS
 62
     7
100
AcDbLine
 10
143.6633882724
 20
138.6152286287
 30
0.0
 11
143.6633882724
 21
136.7102286287
 31
0.0
  0
LINE
  5
EA
330
1F
100
AcDbEntity
  8
0
  6
CONTINUOUS
 62
     7
100
AcDbLine
 10
148.0829882724
 20
138.6152286287
 30
0.0
 11
143.6633882724
 21
138.6152286287
 31
0.0
  0
LINE
  5
EB
330
1F
100
AcDbEntity
  8
0
  6
CONTINUOUS
 62
     7
100
AcDbLine
 10
66.5108882724
 20
166.8473286287
 30
0.0
 11
64.6058882724
 21
166.8473286287
 31
0.0
  0
LINE
  5
EC
330
1F
100
AcDbEntity
  8
0
  6
CONTINUOUS
 62
     7
100
AcDbLine
 10
66.5108882724
 20
162.4277286287
 30
0.0
 11
66.5108882724
 21
166.8473286287
 31
0.0
  0
LINE
  5
ED
330
1F
100
AcDbEntity
  8
0
  6
CONTINUOUS
 62
     7
100
AcDbLine
 10
64.6058882724
 20
162.4277286287
 30
0.0
 11
66.5108882724
 21
162.4277286287
 31
0.0
  0
LINE
  5
EE
330
1F
100
AcDbEntity
  8
0
  6
CONTINUOUS
 62
     7
100
AcDbLine
 10
64.6058882724
 20
166.8473286287
 30
0.0
 11
64.6058882724
 21
162.4277286287
 31
0.0
  0
LINE
  5
EF
330
1F
100
AcDbEntity
  8
0
  6
CONTINUOUS
 62
     7
100
AcDbLine
 10
70.3208882724
 20
166.8473286287
 30
0.0
 11
68.4158882724
 21
166.8473286287
 31
0.0
  0
LINE
  5
F0
330
1F
100
AcDbEntity
  8
0
  6
CONTINUOUS
 62
     7
100
AcDbLine
 10
70.3208882724
 20
162.4277286287
 30
0.0
 11
70.3208882724
 21
166.8473286287
 31
0.0
  0
LINE
  5
F1
330
1F
100
AcDbEntity
  8
0
  6
CONTINUOUS
 62
     7
100
AcDbLine
 10
68.4158882724
 20
162.4277286287
 30
0.0
 11
70.3208882724
 21
162.4277286287
 31
0.0
  0
LINE
  5
F2
330
1F
100
AcDbEntity
  8
0
  6
CONTINUOUS
 62
     7
100
AcDbLine
 10
68.4158882724
 20
166.8473286287
 30
0.0
 11
68.4158882724
 21
162.4277286287
 31
0.0
  0
LINE
  5
F3
330
1F
100
AcDbEntity
  8
0
  6
CONTINUOUS
 62
     7
100
AcDbLine
 10
59.2337882724
 20
85.2752286287
 30
0.0
 11
59.2337882724
 21
83.3702286287
 31
0.0
  0
LINE
  5
F4
330
1F
100
AcDbEntity
  8
0
  6
CONTINUOUS
 62
     7
100
AcDbLine
 10
63.6533882724
 20
85.2752286287
 30
0.0
 11
59.2337882724
 21
85.2752286287
 31
0.0
  0
LINE
  5
F5
330
1F
100
AcDbEntity
  8
0
  6
CONTINUOUS
 62
     7
100
AcDbLine
 10
63.6533882724
 20
83.3702286287
 30
0.0
 11
63.6533882724
 21
85.2752286287
 31
0.0
  0
LINE
  5
F6
330
1F
100
AcDbEntity
  8
0
  6
CONTINUOUS
 62
     7
100
AcDbLine
 10
59.2337882724
 20
83.3702286287
 30
0.0
 11
63.6533882724
 21
83.3702286287
 31
0.0
  0
LINE
  5
F7
330
1F
100
AcDbEntity
  8
0
  6
CONTINUOUS
 62
     7
100
AcDbLine
 10
59.2337882724
 20
89.0852286287
 30
0.0
 11
59.2337882724
 21
87.1802286287
 31
0.0
  0
LINE
  5
F8
330
1F
100
AcDbEntity
  8
0
  6
CONTINUOUS
 62
     7
100
AcDbLine
 10
63.6533882724
 20
89.0852286287
 30
0.0
 11
59.2337882724
 21
89.0852286287
 31
0.0
  0
LINE
  5
F9
330
1F
100
AcDbEntity
  8
0
  6
CONTINUOUS
 62
     7
100
AcDbLine
 10
63.6533882724
 20
87.1802286287
 30
0.0
 11
63.6533882724
 21
89.0852286287
 31
0.0
  0
LINE
  5
FA
330
1F
100
AcDbEntity
  8
0
  6
CONTINUOUS
 62
     7
100
AcDbLine
 10
59.2337882724
 20
87.1802286287
 30
0.0
 11
63.6533882724
 21
87.1802286287
 31
0.0
  0
LINE
  5
FB
330
1F
100
AcDbEntity
  8
0
  6
CONTINUOUS
 62
     7
100
AcDbLine
 10
59.2337882724
 20
92.8952286287
 30
0.0
 11
59.2337882724
 21
90.9902286287
 31
0.0
  0
LINE
  5
FC
330
1F
100
AcDbEntity
  8
0
  6
CONTINUOUS
 62
     7
100
AcDbLine
 10
63.6533882724
 20
92.8952286287
 30
0.0
 11
59.2337882724
 21
92.8952286287
 31
0.0
  0
LINE
  5
FD
330
1F
100
AcDbEntity
  8
0
  6
CONTINUOUS
 62
     7
100
AcDbLine
 10
63.6533882724
 20
90.9902286287
 30
0.0
 11
63.6533882724
 21
92.8952286287
 31
0.0
  0
LINE
  5
FE
330
1F
100
AcDbEntity
  8
0
  6
CONTINUOUS
 62
     7
100
AcDbLine
 10
59.2337882724
 20
90.9902286287
 30
0.0
 11
63.6533882724
 21
90.9902286287
 31
0.0
  0
LINE
  5
FF
330
1F
100
AcDbEntity
  8
0
  6
CONTINUOUS
 62
     7
100
AcDbLine
 10
59.2337882724
 20
96.7052286287
 30
0.0
 11
59.2337882724
 21
94.8002286287
 31
0.0
  0
LINE
  5
100
330
1F
100
AcDbEntity
  8
0
  6
CONTINUOUS
 62
     7
100
AcDbLine
 10
63.6533882724
 20
96.7052286287
 30
0.0
 11
59.2337882724
 21
96.7052286287
 31
0.0
  0
LINE
  5
101
330
1F
100
AcDbEntity
  8
0
  6
CONTINUOUS
 62
     7
100
AcDbLine
 10
63.6533882724
 20
94.8002286287
 30
0.0
 11
63.6533882724
 21
96.7052286287
 31
0.0
  0
LINE
  5
102
330
1F
100
AcDbEntity
  8
0
  6
CONTINUOUS
 62
     7
100
AcDbLine
 10
59.2337882724
 20
94.8002286287
 30
0.0
 11
63.6533882724
 21
94.8002286287
 31
0.0
  0
LINE
  5
103
330
1F
100
AcDbEntity
  8
0
  6
CONTINUOUS
 62
     7
100
AcDbLine
 10
59.2337882724
 20
100.5152286287
 30
0.0
 11
59.2337882724
 21
98.6102286287
 31
0.0
  0
LINE
  5
104
330
1F
100
AcDbEntity
  8
0
  6
CONTINUOUS
 62
     7
100
AcDbLine
 10
63.6533882724
 20
100.5152286287
 30
0.0
 11
59.2337882724
 21
100.5152286287
 31
0.0
  0
LINE
  5
105
330
1F
100
AcDbEntity
  8
0
  6
CONTINUOUS
 62
     7
100
AcDbLine
 10
63.6533882724
 20
98.6102286287
 30
0.0
 11
63.6533882724
 21
100.5152286287
 31
0.0
  0
LINE
  5
106
330
1F
100
AcDbEntity
  8
0
  6
CONTINUOUS
 62
     7
100
AcDbLine
 10
59.2337882724
 20
98.6102286287
 30
0.0
 11
63.6533882724
 21
98.6102286287
 31
0.0
  0
LINE
  5
107
330
1F
100
AcDbEntity
  8
0
  6
CONTINUOUS
 62
     7
100
AcDbLine
 10
59.2337882724
 20
104.3252286287
 30
0.0
 11
59.2337882724
 21
102.4202286287
 31
0.0
  0
LINE
  5
108
330
1F
100
AcDbEntity
  8
0
  6
CONTINUOUS
 62
     7
100
AcDbLine
 10
63.6533882724
 20
104.3252286287
 30
0.0
 11
59.2337882724
 21
104.3252286287
 31
0.0
  0
LINE
  5
109
330
1F
100
AcDbEntity
  8
0
  6
CONTINUOUS
 62
     7
100
AcDbLine
 10
63.6533882724
 20
102.4202286287
 30
0.0
 11
63.6533882724
 21
104.3252286287
 31
0.0
  0
LINE
  5
10A
330
1F
100
AcDbEntity
  8
0
  6
CONTINUOUS
 62
     7
100
AcDbLine
 10
59.2337882724
 20
102.4202286287
 30
0.0
 11
63.6533882724
 21
102.4202286287
 31
0.0
  0
LINE
  5
10B
330
1F
100
AcDbEntity
  8
0
  6
CONTINUOUS
 62
     7
100
AcDbLine
 10
59.2337882724
 20
108.1352286287
 30
0.0
 11
59.2337882724
 21
106.2302286287
 31
0.0
  0
LINE
  5
10C
330
1F
100
AcDbEntity
  8
0
  6
CONTINUOUS
 62
     7
100
AcDbLine
 10
63.6533882724
 20
108.1352286287
 30
0.0
 11
59.2337882724
 21
108.1352286287
 31
0.0
  0
LINE
  5
10D
330
1F
100
AcDbEntity
  8
0
  6
CONTINUOUS
 62
     7
100
AcDbLine
 10
63.6533882724
 20
106.2302286287
 30
0.0
 11
63.6533882724
 21
108.1352286287
 31
0.0
  0
LINE
  5
10E
330
1F
100
AcDbEntity
  8
0
  6
CONTINUOUS
 62
     7
100
AcDbLine
 10
59.2337882724
 20
106.2302286287
 30
0.0
 11
63.6533882724
 21
106.2302286287
 31
0.0
  0
LINE
  5
10F
330
1F
100
AcDbEntity
  8
0
  6
CONTINUOUS
 62
     7
100
AcDbLine
 10
59.2337882724
 20
111.9452286287
 30
0.0
 11
59.2337882724
 21
110.0402286287
 31
0.0
  0
LINE
  5
110
330
1F
100
AcDbEntity
  8
0
  6
CONTINUOUS
 62
     7
100
AcDbLine
 10
63.6533882724
 20
111.9452286287
 30
0.0
 11
59.2337882724
 21
111.9452286287
 31
0.0
  0
LINE
  5
111
330
1F
100
AcDbEntity
  8
0
  6
CONTINUOUS
 62
     7
100
AcDbLine
 10
63.6533882724
 20
110.0402286287
 30
0.0
 11
63.6533882724
 21
111.9452286287
 31
0.0
  0
LINE
  5
112
330
1F
100
AcDbEntity
  8
0
  6
CONTINUOUS
 62
     7
100
AcDbLine
 10
59.2337882724
 20
110.0402286287
 30
0.0
 11
63.6533882724
 21
110.0402286287
 31
0.0
  0
LINE
  5
113
330
1F
100
AcDbEntity
  8
0
  6
CONTINUOUS
 62
     7
100
AcDbLine
 10
59.2337882724
 20
115.7552286287
 30
0.0
 11
59.2337882724
 21
113.8502286287
 31
0.0
  0
LINE
  5
114
330
1F
100
AcDbEntity
  8
0
  6
CONTINUOUS
 62
     7
100
AcDbLine
 10
63.6533882724
 20
115.7552286287
 30
0.0
 11
59.2337882724
 21
115.7552286287
 31
0.0
  0
LINE
  5
115
330
1F
100
AcDbEntity
  8
0
  6
CONTINUOUS
 62
     7
100
AcDbLine
 10
63.6533882724
 20
113.8502286287
 30
0.0
 11
63.6533882724
 21
115.7552286287
 31
0.0
  0
LINE
  5
116
330
1F
100
AcDbEntity
  8
0
  6
CONTINUOUS
 62
     7
100
AcDbLine
 10
59.2337882724
 20
113.8502286287
 30
0.0
 11
63.6533882724
 21
113.8502286287
 31
0.0
  0
LINE
  5
117
330
1F
100
AcDbEntity
  8
0
  6
CONTINUOUS
 62
     7
100
AcDbLine
 10
59.2337882724
 20
119.5652286287
 30
0.0
 11
59.2337882724
 21
117.6602286287
 31
0.0
  0
LINE
  5
118
330
1F
100
AcDbEntity
  8
0
  6
CONTINUOUS
 62
     7
100
AcDbLine
 10
63.6533882724
 20
119.5652286287
 30
0.0
 11
59.2337882724
 21
119.5652286287
 31
0.0
  0
LINE
  5
119
330
1F
100
AcDbEntity
  8
0
  6
CONTINUOUS
 62
     7
100
AcDbLine
 10
63.6533882724
 20
117.6602286287
 30
0.0
 11
63.6533882724
 21
119.5652286287
 31
0.0
  0
LINE
  5
11A
330
1F
100
AcDbEntity
  8
0
  6
CONTINUOUS
 62
     7
100
AcDbLine
 10
59.2337882724
 20
117.6602286287
 30
0.0
 11
63.6533882724
 21
117.6602286287
 31
0.0
  0
LINE
  5
11B
330
1F
100
AcDbEntity
  8
0
  6
CONTINUOUS
 62
     7
100
AcDbLine
 10
59.2337882724
 20
123.3752286287
 30
0.0
 11
59.2337882724
 21
121.4702286287
 31
0.0
  0
LINE
  5
11C
330
1F
100
AcDbEntity
  8
0
  6
CONTINUOUS
 62
     7
100
AcDbLine
 10
63.6533882724
 20
123.3752286287
 30
0.0
 11
59.2337882724
 21
123.3752286287
 31
0.0
  0
LINE
  5
11D
330
1F
100
AcDbEntity
  8
0
  6
CONTINUOUS
 62
     7
100
AcDbLine
 10
63.6533882724
 20
121.4702286287
 30
0.0
 11
63.6533882724
 21
123.3752286287
 31
0.0
  0
LINE
  5
11E
330
1F
100
AcDbEntity
  8
0
  6
CONTINUOUS
 62
     7
100
AcDbLine
 10
59.2337882724
 20
121.4702286287
 30
0.0
 11
63.6533882724
 21
121.4702286287
 31
0.0
  0
LINE
  5
11F
330
1F
100
AcDbEntity
  8
0
  6
CONTINUOUS
 62
     7
100
AcDbLine
 10
59.2337882724
 20
127.1852286287
 30
0.0
 11
59.2337882724
 21
125.2802286287
 31
0.0
  0
LINE
  5
120
330
1F
100
AcDbEntity
  8
0
  6
CONTINUOUS
 62
     7
100
AcDbLine
 10
63.6533882724
 20
127.1852286287
 30
0.0
 11
59.2337882724
 21
127.1852286287
 31
0.0
  0
LINE
  5
121
330
1F
100
AcDbEntity
  8
0
  6
CONTINUOUS
 62
     7
100
AcDbLine
 10
63.6533882724
 20
125.2802286287
 30
0.0
 11
63.6533882724
 21
127.1852286287
 31
0.0
  0
LINE
  5
122
330
1F
100
AcDbEntity
  8
0
  6
CONTINUOUS
 62
     7
100
AcDbLine
 10
59.2337882724
 20
125.2802286287
 30
0.0
 11
63.6533882724
 21
125.2802286287
 31
0.0
  0
LINE
  5
123
330
1F
100
AcDbEntity
  8
0
  6
CONTINUOUS
 62
     7
100
AcDbLine
 10
59.2337882724
 20
130.9952286287
 30
0.0
 11
59.2337882724
 21
129.0902286287
 31
0.0
  0
LINE
  5
124
330
1F
100
AcDbEntity
  8
0
  6
CONTINUOUS
 62
     7
100
AcDbLine
 10
63.6533882724
 20
130.9952286287
 30
0.0
 11
59.2337882724
 21
130.9952286287
 31
0.0
  0
LINE
  5
125
330
1F
100
AcDbEntity
  8
0
  6
CONTINUOUS
 62
     7
100
AcDbLine
 10
63.6533882724
 20
129.0902286287
 30
0.0
 11
63.6533882724
 21
130.9952286287
 31
0.0
  0
LINE
  5
126
330
1F
100
AcDbEntity
  8
0
  6
CONTINUOUS
 62
     7
100
AcDbLine
 10
59.2337882724
 20
129.0902286287
 30
0.0
 11
63.6533882724
 21
129.0902286287
 31
0.0
  0
LINE
  5
127
330
1F
100
AcDbEntity
  8
0
  6
CONTINUOUS
 62
     7
100
AcDbLine
 10
59.2337882724
 20
134.8052286287
 30
0.0
 11
59.2337882724
 21
132.9002286287
 31
0.0
  0
LINE
  5
128
330
1F
100
AcDbEntity
  8
0
  6
CONTINUOUS
 62
     7
100
AcDbLine
 10
63.6533882724
 20
134.8052286287
 30
0.0
 11
59.2337882724
 21
134.8052286287
 31
0.0
  0
LINE
  5
129
330
1F
100
AcDbEntity
  8
0
  6
CONTINUOUS
 62
     7
100
AcDbLine
 10
63.6533882724
 20
132.9002286287
 30
0.0
 11
63.6533882724
 21
134.8052286287
 31
0.0
  0
LINE
  5
12A
330
1F
100
AcDbEntity
  8
0
  6
CONTINUOUS
 62
     7
100
AcDbLine
 10
59.2337882724
 20
132.9002286287
 30
0.0
 11
63.6533882724
 21
132.9002286287
 31
0.0
  0
LINE
  5
12B
330
1F
100
AcDbEntity
  8
0
  6
CONTINUOUS
 62
     7
100
AcDbLine
 10
59.2337882724
 20
138.6152286287
 30
0.0
 11
59.2337882724
 21
136.7102286287
 31
0.0
  0
LINE
  5
12C
330
1F
100
AcDbEntity
  8
0
  6
CONTINUOUS
 62
     7
100
AcDbLine
 10
63.6533882724
 20
138.6152286287
 30
0.0
 11
59.2337882724
 21
138.6152286287
 31
0.0
  0
LINE
  5
12D
330
1F
100
AcDbEntity
  8
0
  6
CONTINUOUS
 62
     7
100
AcDbLine
 10
63.6533882724
 20
136.7102286287
 30
0.0
 11
63.6533882724
 21
138.6152286287
 31
0.0
  0
LINE
  5
12E
330
1F
100
AcDbEntity
  8
0
  6
CONTINUOUS
 62
     7
100
AcDbLine
 10
59.2337882724
 20
136.7102286287
 30
0.0
 11
63.6533882724
 21
136.7102286287
 31
0.0
  0
LINE
  5
12F
330
1F
100
AcDbEntity
  8
0
  6
CONTINUOUS
 62
     7
100
AcDbLine
 10
59.2337882724
 20
142.4252286287
 30
0.0
 11
59.2337882724
 21
140.5202286287
 31
0.0
  0
LINE
  5
130
330
1F
100
AcDbEntity
  8
0
  6
CONTINUOUS
 62
     7
100
AcDbLine
 10
63.6533882724
 20
142.4252286287
 30
0.0
 11
59.2337882724
 21
142.4252286287
 31
0.0
  0
LINE
  5
131
330
1F
100
AcDbEntity
  8
0
  6
CONTINUOUS
 62
     7
100
AcDbLine
 10
63.6533882724
 20
140.5202286287
 30
0.0
 11
63.6533882724
 21
142.4252286287
 31
0.0
  0
LINE
  5
132
330
1F
100
AcDbEntity
  8
0
  6
CONTINUOUS
 62
     7
100
AcDbLine
 10
59.2337882724
 20
140.5202286287
 30
0.0
 11
63.6533882724
 21
140.5202286287
 31
0.0
  0
LINE
  5
133
330
1F
100
AcDbEntity
  8
0
  6
CONTINUOUS
 62
     7
100
AcDbLine
 10
59.2337882724
 20
146.2352286287
 30
0.0
 11
59.2337882724
 21
144.3302286287
 31
0.0
  0
LINE
  5
134
330
1F
100
AcDbEntity
  8
0
  6
CONTINUOUS
 62
     7
100
AcDbLine
 10
63.6533882724
 20
146.2352286287
 30
0.0
 11
59.2337882724
 21
146.2352286287
 31
0.0
  0
LINE
  5
135
330
1F
100
AcDbEntity
  8
0
  6
CONTINUOUS
 62
     7
100
AcDbLine
 10
63.6533882724
 20
144.3302286287
 30
0.0
 11
63.6533882724
 21
146.2352286287
 31
0.0
  0
LINE
  5
136
330
1F
100
AcDbEntity
  8
0
  6
CONTINUOUS
 62
     7
100
AcDbLine
 10
59.2337882724
 20
144.3302286287
 30
0.0
 11
63.6533882724
 21
144.3302286287
 31
0.0
  0
LINE
  5
137
330
1F
100
AcDbEntity
  8
0
  6
CONTINUOUS
 62
     7
100
AcDbLine
 10
59.2337882724
 20
150.0452286287
 30
0.0
 11
59.2337882724
 21
148.1402286287
 31
0.0
  0
LINE
  5
138
330
1F
100
AcDbEntity
  8
0
  6
CONTINUOUS
 62
     7
100
AcDbLine
 10
63.6533882724
 20
150.0452286287
 30
0.0
 11
59.2337882724
 21
150.0452286287
 31
0.0
  0
LINE
  5
139
330
1F
100
AcDbEntity
  8
0
  6
CONTINUOUS
 62
     7
100
AcDbLine
 10
63.6533882724
 20
148.1402286287
 30
0.0
 11
63.6533882724
 21
150.0452286287
 31
0.0
  0
LINE
  5
13A
330
1F
100
AcDbEntity
  8
0
  6
CONTINUOUS
 62
     7
100
AcDbLine
 10
59.2337882724
 20
148.1402286287
 30
0.0
 11
63.6533882724
 21
148.1402286287
 31
0.0
  0
LINE
  5
13B
330
1F
100
AcDbEntity
  8
0
  6
CONTINUOUS
 62
     7
100
AcDbLine
 10
148.0829882724
 20
153.8552286287
 30
0.0
 11
143.6633882724
 21
153.8552286287
 31
0.0
  0
LINE
  5
13C
330
1F
100
AcDbEntity
  8
0
  6
CONTINUOUS
 62
     7
100
AcDbLine
 10
148.0829882724
 20
151.9502286287
 30
0.0
 11
148.0829882724
 21
153.8552286287
 31
0.0
  0
LINE
  5
13D
330
1F
100
AcDbEntity
  8
0
  6
CONTINUOUS
 62
     7
100
AcDbLine
 10
143.6633882724
 20
151.9502286287
 30
0.0
 11
148.0829882724
 21
151.9502286287
 31
0.0
  0
LINE
  5
13E
330
1F
100
AcDbEntity
  8
0
  6
CONTINUOUS
 62
     7
100
AcDbLine
 10
143.6633882724
 20
153.8552286287
 30
0.0
 11
143.6633882724
 21
151.9502286287
 31
0.0
  0
LINE
  5
13F
330
1F
100
AcDbEntity
  8
0
  6
CONTINUOUS
 62
     7
100
AcDbLine
 10
148.0829882724
 20
148.1402286287
 30
0.0
 11
148.0829882724
 21
150.0452286287
 31
0.0
  0
LINE
  5
140
330
1F
100
AcDbEntity
  8
0
  6
CONTINUOUS
 62
     7
100
AcDbLine
 10
143.6633882724
 20
148.1402286287
 30
0.0
 11
148.0829882724
 21
148.1402286287
 31
0.0
  0
LINE
  5
141
330
1F
100
AcDbEntity
  8
0
  6
CONTINUOUS
 62
     7
100
AcDbLine
 10
143.6633882724
 20
150.0452286287
 30
0.0
 11
143.6633882724
 21
148.1402286287
 31
0.0
  0
LINE
  5
142
330
1F
100
AcDbEntity
  8
0
  6
CONTINUOUS
 62
     7
100
AcDbLine
 10
148.0829882724
 20
150.0452286287
 30
0.0
 11
143.6633882724
 21
150.0452286287
 31
0.0
  0
LINE
  5
143
330
1F
100
AcDbEntity
  8
0
  6
CONTINUOUS
 62
     7
100
AcDbLine
 10
96.9908882724
 20
77.9981286287
 30
0.0
 11
96.9908882724
 21
82.4177286287
 31
0.0
  0
LINE
  5
144
330
1F
100
AcDbEntity
  8
0
  6
CONTINUOUS
 62
     7
100
AcDbLine
 10
95.0858882724
 20
77.9981286287
 30
0.0
 11
96.9908882724
 21
77.9981286287
 31
0.0
  0
LINE
  5
145
330
1F
100
AcDbEntity
  8
0
  6
CONTINUOUS
 62
     7
100
AcDbLine
 10
95.0858882724
 20
82.4177286287
 30
0.0
 11
95.0858882724
 21
77.9981286287
 31
0.0
  0
LINE
  5
146
330
1F
100
AcDbEntity
  8
0
  6
CONTINUOUS
 62
     7
100
AcDbLine
 10
96.9908882724
 20
82.4177286287
 30
0.0
 11
95.0858882724
 21
82.4177286287
 31
0.0
  0
LINE
  5
147
330
1F
100
AcDbEntity
  8
0
  6
CONTINUOUS
 62
     7
100
AcDbLine
 10
91.2758882724
 20
77.9981286287
 30
0.0
 11
93.1808882724
 21
77.9981286287
 31
0.0
  0
LINE
  5
148
330
1F
100
AcDbEntity
  8
0
  6
CONTINUOUS
 62
     7
100
AcDbLine
 10
91.2758882724
 20
82.4177286287
 30
0.0
 11
91.2758882724
 21
77.9981286287
 31
0.0
  0
LINE
  5
149
330
1F
100
AcDbEntity
  8
0
  6
CONTINUOUS
 62
     7
100
AcDbLine
 10
93.1808882724
 20
82.4177286287
 30
0.0
 11
91.2758882724
 21
82.4177286287
 31
0.0
  0
LINE
  5
14A
330
1F
100
AcDbEntity
  8
0
  6
CONTINUOUS
 62
     7
100
AcDbLine
 10
93.1808882724
 20
77.9981286287
 30
0.0
 11
93.1808882724
 21
82.4177286287
 31
0.0
  0
LINE
  5
14B
330
1F
100
AcDbEntity
  8
0
  6
CONTINUOUS
 62
     7
100
AcDbLine
 10
87.4658882724
 20
77.9981286287
 30
0.0
 11
89.3708882724
 21
77.9981286287
 31
0.0
  0
LINE
  5
14C
330
1F
100
AcDbEntity
  8
0
  6
CONTINUOUS
 62
     7
100
AcDbLine
 10
87.4658882724
 20
82.4177286287
 30
0.0
 11
87.4658882724
 21
77.9981286287
 31
0.0
  0
LINE
  5
14D
330
1F
100
AcDbEntity
  8
0
  6
CONTINUOUS
 62
     7
100
AcDbLine
 10
89.3708882724
 20
82.4177286287
 30
0.0
 11
87.4658882724
 21
82.4177286287
 31
0.0
  0
LINE
  5
14E
330
1F
100
AcDbEntity
  8
0
  6
CONTINUOUS
 62
     7
100
AcDbLine
 10
89.3708882724
 20
77.9981286287
 30
0.0
 11
89.3708882724
 21
82.4177286287
 31
0.0
  0
LINE
  5
14F
330
1F
100
AcDbEntity
  8
0
  6
CONTINUOUS
 62
     7
100
AcDbLine
 10
148.0829882724
 20
132.9002286287
 30
0.0
 11
148.0829882724
 21
134.8052286287
 31
0.0
  0
LINE
  5
150
330
1F
100
AcDbEntity
  8
0
  6
CONTINUOUS
 62
     7
100
AcDbLine
 10
143.6633882724
 20
132.9002286287
 30
0.0
 11
148.0829882724
 21
132.9002286287
 31
0.0
  0
LINE
  5
151
330
1F
100
AcDbEntity
  8
0
  6
CONTINUOUS
 62
     7
100
AcDbLine
 10
143.6633882724
 20
134.8052286287
 30
0.0
 11
143.6633882724
 21
132.9002286287
 31
0.0
  0
LINE
  5
152
330
1F
100
AcDbEntity
  8
0
  6
CONTINUOUS
 62
     7
100
AcDbLine
 10
148.0829882724
 20
134.8052286287
 30
0.0
 11
143.6633882724
 21
134.8052286287
 31
0.0
  0
LINE
  5
153
330
1F
100
AcDbEntity
  8
0
  6
CONTINUOUS
 62
     7
100
AcDbLine
 10
148.0829882724
 20
129.0902286287
 30
0.0
 11
148.0829882724
 21
130.9952286287
 31
0.0
  0
LINE
  5
154
330
1F
100
AcDbEntity
  8
0
  6
CONTINUOUS
 62
     7
100
AcDbLine
 10
143.6633882724
 20
129.0902286287
 30
0.0
 11
148.0829882724
 21
129.0902286287
 31
0.0
  0
LINE
  5
155
330
1F
100
AcDbEntity
  8
0
  6
CONTINUOUS
 62
     7
100
AcDbLine
 10
143.6633882724
 20
130.9952286287
 30
0.0
 11
143.6633882724
 21
129.0902286287
 31
0.0
  0
LINE
  5
156
330
1F
100
AcDbEntity
  8
0
  6
CONTINUOUS
 62
     7
100
AcDbLine
 10
148.0829882724
 20
130.9952286287
 30
0.0
 11
143.6633882724
 21
130.9952286287
 31
0.0
  0
LINE
  5
157
330
1F
100
AcDbEntity
  8
0
  6
CONTINUOUS
 62
     7
100
AcDbLine
 10
148.0829882724
 20
125.2802286287
 30
0.0
 11
148.0829882724
 21
127.1852286287
 31
0.0
  0
LINE
  5
158
330
1F
100
AcDbEntity
  8
0
  6
CONTINUOUS
 62
     7
100
AcDbLine
 10
143.6633882724
 20
125.2802286287
 30
0.0
 11
148.0829882724
 21
125.2802286287
 31
0.0
  0
LINE
  5
159
330
1F
100
AcDbEntity
  8
0
  6
CONTINUOUS
 62
     7
100
AcDbLine
 10
143.6633882724
 20
127.1852286287
 30
0.0
 11
143.6633882724
 21
125.2802286287
 31
0.0
  0
LINE
  5
15A
330
1F
100
AcDbEntity
  8
0
  6
CONTINUOUS
 62
     7
100
AcDbLine
 10
148.0829882724
 20
127.1852286287
 30
0.0
 11
143.6633882724
 21
127.1852286287
 31
0.0
  0
LINE
  5
15B
330
1F
100
AcDbEntity
  8
0
  6
CONTINUOUS
 62
     7
100
AcDbLine
 10
117.9458882724
 20
77.9981286287
 30
0.0
 11
119.8508882724
 21
77.9981286287
 31
0.0
  0
LINE
  5
15C
330
1F
100
AcDbEntity
  8
0
  6
CONTINUOUS
 62
     7
100
AcDbLine
 10
117.9458882724
 20
82.4177286287
 30
0.0
 11
117.9458882724
 21
77.9981286287
 31
0.0
  0
LINE
  5
15D
330
1F
100
AcDbEntity
  8
0
  6
CONTINUOUS
 62
     7
100
AcDbLine
 10
119.8508882724
 20
82.4177286287
 30
0.0
 11
117.9458882724
 21
82.4177286287
 31
0.0
  0
LINE
  5
15E
330
1F
100
AcDbEntity
  8
0
  6
CONTINUOUS
 62
     7
100
AcDbLine
 10
119.8508882724
 20
77.9981286287
 30
0.0
 11
119.8508882724
 21
82.4177286287
 31
0.0
  0
LINE
  5
15F
330
1F
100
AcDbEntity
  8
0
  6
CONTINUOUS
 62
     7
100
AcDbLine
 10
114.1358882724
 20
77.9981286287
 30
0.0
 11
116.0408882724
 21
77.9981286287
 31
0.0
  0
LINE
  5
160
330
1F
100
AcDbEntity
  8
0
  6
CONTINUOUS
 62
     7
100
AcDbLine
 10
114.1358882724
 20
82.4177286287
 30
0.0
 11
114.1358882724
 21
77.9981286287
 31
0.0
  0
LINE
  5
161
330
1F
100
AcDbEntity
  8
0
  6
CONTINUOUS
 62
     7
100
AcDbLine
 10
116.0408882724
 20
82.4177286287
 30
0.0
 11
114.1358882724
 21
82.4177286287
 31
0.0
  0
LINE
  5
162
330
1F
100
AcDbEntity
  8
0
  6
CONTINUOUS
 62
     7
100
AcDbLine
 10
116.0408882724
 20
77.9981286287
 30
0.0
 11
116.0408882724
 21
82.4177286287
 31
0.0
  0
LINE
  5
163
330
1F
100
AcDbEntity
  8
0
  6
CONTINUOUS
 62
     7
100
AcDbLine
 10
110.3258882724
 20
77.9981286287
 30
0.0
 11
112.2308882724
 21
77.9981286287
 31
0.0
  0
LINE
  5
164
330
1F
100
AcDbEntity
  8
0
  6
CONTINUOUS
 62
     7
100
AcDbLine
 10
110.3258882724
 20
82.4177286287
 30
0.0
 11
110.3258882724
 21
77.9981286287
 31
0.0
  0
LINE
  5
165
330
1F
100
AcDbEntity
  8
0
  6
CONTINUOUS
 62
     7
100
AcDbLine
 10
112.2308882724
 20
82.4177286287
 30
0.0
 11
110.3258882724
 21
82.4177286287
 31
0.0
  0
LINE
  5
166
330
1F
100
AcDbEntity
  8
0
  6
CONTINUOUS
 62
     7
100
AcDbLine
 10
112.2308882724
 20
77.9981286287
 30
0.0
 11
112.2308882724
 21
82.4177286287
 31
0.0
  0
LINE
  5
167
330
1F
100
AcDbEntity
  8
0
  6
CONTINUOUS
 62
     7
100
AcDbLine
 10
106.5158882724
 20
77.9981286287
 30
0.0
 11
108.4208882724
 21
77.9981286287
 31
0.0
  0
LINE
  5
168
330
1F
100
AcDbEntity
  8
0
  6
CONTINUOUS
 62
     7
100
AcDbLine
 10
106.5158882724
 20
82.4177286287
 30
0.0
 11
106.5158882724
 21
77.9981286287
 31
0.0
  0
LINE
  5
169
330
1F
100
AcDbEntity
  8
0
  6
CONTINUOUS
 62
     7
100
AcDbLine
 10
108.4208882724
 20
82.4177286287
 30
0.0
 11
106.5158882724
 21
82.4177286287
 31
0.0
  0
LINE
  5
16A
330
1F
100
AcDbEntity
  8
0
  6
CONTINUOUS
 62
     7
100
AcDbLine
 10
108.4208882724
 20
77.9981286287
 30
0.0
 11
108.4208882724
 21
82.4177286287
 31
0.0
  0
LINE
  5
16B
330
1F
100
AcDbEntity
  8
0
  6
CONTINUOUS
 62
     7
100
AcDbLine
 10
102.7058882724
 20
77.9981286287
 30
0.0
 11
104.6108882724
 21
77.9981286287
 31
0.0
  0
LINE
  5
16C
330
1F
100
AcDbEntity
  8
0
  6
CONTINUOUS
 62
     7
100
AcDbLine
 10
102.7058882724
 20
82.4177286287
 30
0.0
 11
102.7058882724
 21
77.9981286287
 31
0.0
  0
LINE
  5
16D
330
1F
100
AcDbEntity
  8
0
  6
CONTINUOUS
 62
     7
100
AcDbLine
 10
104.6108882724
 20
82.4177286287
 30
0.0
 11
102.7058882724
 21
82.4177286287
 31
0.0
  0
LINE
  5
16E
330
1F
100
AcDbEntity
  8
0
  6
CONTINUOUS
 62
     7
100
AcDbLine
 10
104.6108882724
 20
77.9981286287
 30
0.0
 11
104.6108882724
 21
82.4177286287
 31
0.0
  0
LINE
  5
16F
330
1F
100
AcDbEntity
  8
0
  6
CONTINUOUS
 62
     7
100
AcDbLine
 10
98.8958882724
 20
77.9981286287
 30
0.0
 11
100.8008882724
 21
77.9981286287
 31
0.0
  0
LINE
  5
170
330
1F
100
AcDbEntity
  8
0
  6
CONTINUOUS
 62
     7
100
AcDbLine
 10
98.8958882724
 20
82.4177286287
 30
0.0
 11
98.8958882724
 21
77.9981286287
 31
0.0
  0
LINE
  5
171
330
1F
100
AcDbEntity
  8
0
  6
CONTINUOUS
 62
     7
100
AcDbLine
 10
100.8008882724
 20
82.4177286287
 30
0.0
 11
98.8958882724
 21
82.4177286287
 31
0.0
  0
LINE
  5
172
330
1F
100
AcDbEntity
  8
0
  6
CONTINUOUS
 62
     7
100
AcDbLine
 10
100.8008882724
 20
77.9981286287
 30
0.0
 11
100.8008882724
 21
82.4177286287
 31
0.0
  0
LINE
  5
173
330
1F
100
AcDbEntity
  8
0
  6
CONTINUOUS
 62
     7
100
AcDbLine
 10
143.6633882724
 20
100.5152286287
 30
0.0
 11
143.6633882724
 21
98.6102286287
 31
0.0
  0
LINE
  5
174
330
1F
100
AcDbEntity
  8
0
  6
CONTINUOUS
 62
     7
100
AcDbLine
 10
148.0829882724
 20
100.5152286287
 30
0.0
 11
143.6633882724
 21
100.5152286287
 31
0.0
  0
LINE
  5
175
330
1F
100
AcDbEntity
  8
0
  6
CONTINUOUS
 62
     7
100
AcDbLine
 10
148.0829882724
 20
98.6102286287
 30
0.0
 11
148.0829882724
 21
100.5152286287
 31
0.0
  0
LINE
  5
176
330
1F
100
AcDbEntity
  8
0
  6
CONTINUOUS
 62
     7
100
AcDbLine
 10
143.6633882724
 20
98.6102286287
 30
0.0
 11
148.0829882724
 21
98.6102286287
 31
0.0
  0
LINE
  5
177
330
1F
100
AcDbEntity
  8
0
  6
CONTINUOUS
 62
     7
100
AcDbLine
 10
148.0829882724
 20
94.8002286287
 30
0.0
 11
148.0829882724
 21
96.7052286287
 31
0.0
  0
LINE
  5
178
330
1F
100
AcDbEntity
  8
0
  6
CONTINUOUS
 62
     7
100
AcDbLine
 10
143.6633882724
 20
94.8002286287
 30
0.0
 11
148.0829882724
 21
94.8002286287
 31
0.0
  0
LINE
  5
179
330
1F
100
AcDbEntity
  8
0
  6
CONTINUOUS
 62
     7
100
AcDbLine
 10
143.6633882724
 20
96.7052286287
 30
0.0
 11
143.6633882724
 21
94.8002286287
 31
0.0
  0
LINE
  5
17A
330
1F
100
AcDbEntity
  8
0
  6
CONTINUOUS
 62
     7
100
AcDbLine
 10
148.0829882724
 20
96.7052286287
 30
0.0
 11
143.6633882724
 21
96.7052286287
 31
0.0
  0
LINE
  5
17B
330
1F
100
AcDbEntity
  8
0
  6
CONTINUOUS
 62
     7
100
AcDbLine
 10
148.0829882724
 20
90.9902286287
 30
0.0
 11
148.0829882724
 21
92.8952286287
 31
0.0
  0
LINE
  5
17C
330
1F
100
AcDbEntity
  8
0
  6
CONTINUOUS
 62
     7
100
AcDbLine
 10
143.6633882724
 20
90.9902286287
 30
0.0
 11
148.0829882724
 21
90.9902286287
 31
0.0
  0
LINE
  5
17D
330
1F
100
AcDbEntity
  8
0
  6
CONTINUOUS
 62
     7
100
AcDbLine
 10
143.6633882724
 20
92.8952286287
 30
0.0
 11
143.6633882724
 21
90.9902286287
 31
0.0
  0
LINE
  5
17E
330
1F
100
AcDbEntity
  8
0
  6
CONTINUOUS
 62
     7
100
AcDbLine
 10
148.0829882724
 20
92.8952286287
 30
0.0
 11
143.6633882724
 21
92.8952286287
 31
0.0
  0
LINE
  5
17F
330
1F
100
AcDbEntity
  8
0
  6
CONTINUOUS
 62
     7
100
AcDbLine
 10
83.6558882724
 20
77.9981286287
 30
0.0
 11
85.5608882724
 21
77.9981286287
 31
0.0
  0
LINE
  5
180
330
1F
100
AcDbEntity
  8
0
  6
CONTINUOUS
 62
     7
100
AcDbLine
 10
83.6558882724
 20
82.4177286287
 30
0.0
 11
83.6558882724
 21
77.9981286287
 31
0.0
  0
LINE
  5
181
330
1F
100
AcDbEntity
  8
0
  6
CONTINUOUS
 62
     7
100
AcDbLine
 10
85.5608882724
 20
82.4177286287
 30
0.0
 11
83.6558882724
 21
82.4177286287
 31
0.0
  0
LINE
  5
182
330
1F
100
AcDbEntity
  8
0
  6
CONTINUOUS
 62
     7
100
AcDbLine
 10
85.5608882724
 20
77.9981286287
 30
0.0
 11
85.5608882724
 21
82.4177286287
 31
0.0
  0
LINE
  5
183
330
1F
100
AcDbEntity
  8
0
  6
CONTINUOUS
 62
     7
100
AcDbLine
 10
79.8458882724
 20
77.9981286287
 30
0.0
 11
81.7508882724
 21
77.9981286287
 31
0.0
  0
LINE
  5
184
330
1F
100
AcDbEntity
  8
0
  6
CONTINUOUS
 62
     7
100
AcDbLine
 10
79.8458882724
 20
82.4177286287
 30
0.0
 11
79.8458882724
 21
77.9981286287
 31
0.0
  0
LINE
  5
185
330
1F
100
AcDbEntity
  8
0
  6
CONTINUOUS
 62
     7
100
AcDbLine
 10
81.7508882724
 20
82.4177286287
 30
0.0
 11
79.8458882724
 21
82.4177286287
 31
0.0
  0
LINE
  5
186
330
1F
100
AcDbEntity
  8
0
  6
CONTINUOUS
 62
     7
100
AcDbLine
 10
81.7508882724
 20
77.9981286287
 30
0.0
 11
81.7508882724
 21
82.4177286287
 31
0.0
  0
LINE
  5
187
330
1F
100
AcDbEntity
  8
0
  6
CONTINUOUS
 62
     7
100
AcDbLine
 10
76.0358882724
 20
77.9981286287
 30
0.0
 11
77.9408882724
 21
77.9981286287
 31
0.0
  0
LINE
  5
188
330
1F
100
AcDbEntity
  8
0
  6
CONTINUOUS
 62
     7
100
AcDbLine
 10
76.0358882724
 20
82.4177286287
 30
0.0
 11
76.0358882724
 21
77.9981286287
 31
0.0
  0
LINE
  5
189
330
1F
100
AcDbEntity
  8
0
  6
CONTINUOUS
 62
     7
100
AcDbLine
 10
77.9408882724
 20
82.4177286287
 30
0.0
 11
76.0358882724
 21
82.4177286287
 31
0.0
  0
LINE
  5
18A
330
1F
100
AcDbEntity
  8
0
  6
CONTINUOUS
 62
     7
100
AcDbLine
 10
77.9408882724
 20
77.9981286287
 30
0.0
 11
77.9408882724
 21
82.4177286287
 31
0.0
  0
LINE
  5
18B
330
1F
100
AcDbEntity
  8
0
  6
CONTINUOUS
 62
     7
100
AcDbLine
 10
72.2258882724
 20
77.9981286287
 30
0.0
 11
74.1308882724
 21
77.9981286287
 31
0.0
  0
LINE
  5
18C
330
1F
100
AcDbEntity
  8
0
  6
CONTINUOUS
 62
     7
100
AcDbLine
 10
72.2258882724
 20
82.4177286287
 30
0.0
 11
72.2258882724
 21
77.9981286287
 31
0.0
  0
LINE
  5
18D
330
1F
100
AcDbEntity
  8
0
  6
CONTINUOUS
 62
     7
100
AcDbLine
 10
74.1308882724
 20
82.4177286287
 30
0.0
 11
72.2258882724
 21
82.4177286287
 31
0.0
  0
LINE
  5
18E
330
1F
100
AcDbEntity
  8
0
  6
CONTINUOUS
 62
     7
100
AcDbLine
 10
74.1308882724
 20
77.9981286287
 30
0.0
 11
74.1308882724
 21
82.4177286287
 31
0.0
  0
LINE
  5
18F
330
1F
100
AcDbEntity
  8
0
  6
CONTINUOUS
 62
     7
100
AcDbLine
 10
68.4158882724
 20
77.9981286287
 30
0.0
 11
70.3208882724
 21
77.9981286287
 31
0.0
  0
LINE
  5
190
330
1F
100
AcDbEntity
  8
0
  6
CONTINUOUS
 62
     7
100
AcDbLine
 10
68.4158882724
 20
82.4177286287
 30
0.0
 11
68.4158882724
 21
77.9981286287
 31
0.0
  0
LINE
  5
191
330
1F
100
AcDbEntity
  8
0
  6
CONTINUOUS
 62
     7
100
AcDbLine
 10
70.3208882724
 20
82.4177286287
 30
0.0
 11
68.4158882724
 21
82.4177286287
 31
0.0
  0
LINE
  5
192
330
1F
100
AcDbEntity
  8
0
  6
CONTINUOUS
 62
     7
100
AcDbLine
 10
70.3208882724
 20
77.9981286287
 30
0.0
 11
70.3208882724
 21
82.4177286287
 31
0.0
  0
LINE
  5
193
330
1F
100
AcDbEntity
  8
0
  6
CONTINUOUS
 62
     7
100
AcDbLine
 10
64.6058882724
 20
77.9981286287
 30
0.0
 11
66.5108882724
 21
77.9981286287
 31
0.0
  0
LINE
  5
194
330
1F
100
AcDbEntity
  8
0
  6
CONTINUOUS
 62
     7
100
AcDbLine
 10
64.6058882724
 20
82.4177286287
 30
0.0
 11
64.6058882724
 21
77.9981286287
 31
0.0
  0
LINE
  5
195
330
1F
100
AcDbEntity
  8
0
  6
CONTINUOUS
 62
     7
100
AcDbLine
 10
66.5108882724
 20
82.4177286287
 30
0.0
 11
64.6058882724
 21
82.4177286287
 31
0.0
  0
LINE
  5
196
330
1F
100
AcDbEntity
  8
0
  6
CONTINUOUS
 62
     7
100
AcDbLine
 10
66.5108882724
 20
77.9981286287
 30
0.0
 11
66.5108882724
 21
82.4177286287
 31
0.0
  0
LINE
  5
197
330
1F
100
AcDbEntity
  8
0
  6
CONTINUOUS
 62
     7
100
AcDbLine
 10
148.0829882724
 20
159.5702286287
 30
0.0
 11
148.0829882724
 21
161.4752286287
 31
0.0
  0
LINE
  5
198
330
1F
100
AcDbEntity
  8
0
  6
CONTINUOUS
 62
     7
100
AcDbLine
 10
143.6633882724
 20
159.5702286287
 30
0.0
 11
148.0829882724
 21
159.5702286287
 31
0.0
  0
LINE
  5
199
330
1F
100
AcDbEntity
  8
0
  6
CONTINUOUS
 62
     7
100
AcDbLine
 10
143.6633882724
 20
161.4752286287
 30
0.0
 11
143.6633882724
 21
159.5702286287
 31
0.0
  0
LINE
  5
19A
330
1F
100
AcDbEntity
  8
0
  6
CONTINUOUS
 62
     7
100
AcDbLine
 10
148.0829882724
 20
161.4752286287
 30
0.0
 11
143.6633882724
 21
161.4752286287
 31
0.0
  0
LINE
  5
19B
330
1F
100
AcDbEntity
  8
0
  6
CONTINUOUS
 62
     7
100
AcDbLine
 10
148.0829882724
 20
155.7602286287
 30
0.0
 11
148.0829882724
 21
157.6652286287
 31
0.0
  0
LINE
  5
19C
330
1F
100
AcDbEntity
  8
0
  6
CONTINUOUS
 62
     7
100
AcDbLine
 10
143.6633882724
 20
155.7602286287
 30
0.0
 11
148.0829882724
 21
155.7602286287
 31
0.0
  0
LINE
  5
19D
330
1F
100
AcDbEntity
  8
0
  6
CONTINUOUS
 62
     7
100
AcDbLine
 10
143.6633882724
 20
157.6652286287
 30
0.0
 11
143.6633882724
 21
155.7602286287
 31
0.0
  0
LINE
  5
19E
330
1F
100
AcDbEntity
  8
0
  6
CONTINUOUS
 62
     7
100
AcDbLine
 10
148.0829882724
 20
157.6652286287
 30
0.0
 11
143.6633882724
 21
157.6652286287
 31
0.0
  0
LINE
  5
19F
330
1F
100
AcDbEntity
  8
0
  6
CONTINUOUS
 62
     7
100
AcDbLine
 10
148.0829882724
 20
106.2302286287
 30
0.0
 11
148.0829882724
 21
108.1352286287
 31
0.0
  0
LINE
  5
1A0
330
1F
100
AcDbEntity
  8
0
  6
CONTINUOUS
 62
     7
100
AcDbLine
 10
143.6633882724
 20
106.2302286287
 30
0.0
 11
148.0829882724
 21
106.2302286287
 31
0.0
  0
LINE
  5
1A1
330
1F
100
AcDbEntity
  8
0
  6
CONTINUOUS
 62
     7
100
AcDbLine
 10
143.6633882724
 20
108.1352286287
 30
0.0
 11
143.6633882724
 21
106.2302286287
 31
0.0
  0
LINE
  5
1A2
330
1F
100
AcDbEntity
  8
0
  6
CONTINUOUS
 62
     7
100
AcDbLine
 10
148.0829882724
 20
108.1352286287
 30
0.0
 11
143.6633882724
 21
108.1352286287
 31
0.0
  0
LINE
  5
1A3
330
1F
100
AcDbEntity
  8
0
  6
CONTINUOUS
 62
     7
100
AcDbLine
 10
148.0829882724
 20
102.4202286287
 30
0.0
 11
148.0829882724
 21
104.3252286287
 31
0.0
  0
LINE
  5
1A4
330
1F
100
AcDbEntity
  8
0
  6
CONTINUOUS
 62
     7
100
AcDbLine
 10
143.6633882724
 20
102.4202286287
 30
0.0
 11
148.0829882724
 21
102.4202286287
 31
0.0
  0
LINE
  5
1A5
330
1F
100
AcDbEntity
  8
0
  6
CONTINUOUS
 62
     7
100
AcDbLine
 10
143.6633882724
 20
104.3252286287
 30
0.0
 11
143.6633882724
 21
102.4202286287
 31
0.0
  0
LINE
  5
1A6
330
1F
100
AcDbEntity
  8
0
  6
CONTINUOUS
 62
     7
100
AcDbLine
 10
148.0829882724
 20
104.3252286287
 30
0.0
 11
143.6633882724
 21
104.3252286287
 31
0.0
  0
LINE
  5
1A7
330
1F
100
AcDbEntity
  8
0
  6
CONTINUOUS
 62
     7
100
AcDbLine
 10
148.0829882724
 20
121.4702286287
 30
0.0
 11
148.0829882724
 21
123.3752286287
 31
0.0
  0
LINE
  5
1A8
330
1F
100
AcDbEntity
  8
0
  6
CONTINUOUS
 62
     7
100
AcDbLine
 10
143.6633882724
 20
121.4702286287
 30
0.0
 11
148.0829882724
 21
121.4702286287
 31
0.0
  0
LINE
  5
1A9
330
1F
100
AcDbEntity
  8
0
  6
CONTINUOUS
 62
     7
100
AcDbLine
 10
143.6633882724
 20
123.3752286287
 30
0.0
 11
143.6633882724
 21
121.4702286287
 31
0.0
  0
LINE
  5
1AA
330
1F
100
AcDbEntity
  8
0
  6
CONTINUOUS
 62
     7
100
AcDbLine
 10
148.0829882724
 20
123.3752286287
 30
0.0
 11
143.6633882724
 21
123.3752286287
 31
0.0
  0
LINE
  5
1AB
330
1F
100
AcDbEntity
  8
0
  6
CONTINUOUS
 62
     7
100
AcDbLine
 10
148.0829882724
 20
117.6602286287
 30
0.0
 11
148.0829882724
 21
119.5652286287
 31
0.0
  0
LINE
  5
1AC
330
1F
100
AcDbEntity
  8
0
  6
CONTINUOUS
 62
     7
100
AcDbLine
 10
143.6633882724
 20
117.6602286287
 30
0.0
 11
148.0829882724
 21
117.6602286287
 31
0.0
  0
LINE
  5
1AD
330
1F
100
AcDbEntity
  8
0
  6
CONTINUOUS
 62
     7
100
AcDbLine
 10
143.6633882724
 20
119.5652286287
 30
0.0
 11
143.6633882724
 21
117.6602286287
 31
0.0
  0
LINE
  5
1AE
330
1F
100
AcDbEntity
  8
0
  6
CONTINUOUS
 62
     7
100
AcDbLine
 10
148.0829882724
 20
119.5652286287
 30
0.0
 11
143.6633882724
 21
119.5652286287
 31
0.0
  0
LINE
  5
1AF
330
1F
100
AcDbEntity
  8
0
  6
CONTINUOUS
 62
     7
100
AcDbLine
 10
148.0829882724
 20
113.8502286287
 30
0.0
 11
148.0829882724
 21
115.7552286287
 31
0.0
  0
LINE
  5
1B0
330
1F
100
AcDbEntity
  8
0
  6
CONTINUOUS
 62
     7
100
AcDbLine
 10
143.6633882724
 20
113.8502286287
 30
0.0
 11
148.0829882724
 21
113.8502286287
 31
0.0
  0
LINE
  5
1B1
330
1F
100
AcDbEntity
  8
0
  6
CONTINUOUS
 62
     7
100
AcDbLine
 10
143.6633882724
 20
115.7552286287
 30
0.0
 11
143.6633882724
 21
113.8502286287
 31
0.0
  0
LINE
  5
1B2
330
1F
100
AcDbEntity
  8
0
  6
CONTINUOUS
 62
     7
100
AcDbLine
 10
148.0829882724
 20
115.7552286287
 30
0.0
 11
143.6633882724
 21
115.7552286287
 31
0.0
  0
LINE
  5
1B3
330
1F
100
AcDbEntity
  8
0
  6
CONTINUOUS
 62
     7
100
AcDbLine
 10
148.0829882724
 20
83.3702286287
 30
0.0
 11
148.0829882724
 21
85.2752286287
 31
0.0
  0
LINE
  5
1B4
330
1F
100
AcDbEntity
  8
0
  6
CONTINUOUS
 62
     7
100
AcDbLine
 10
143.6633882724
 20
83.3702286287
 30
0.0
 11
148.0829882724
 21
83.3702286287
 31
0.0
  0
LINE
  5
1B5
330
1F
100
AcDbEntity
  8
0
  6
CONTINUOUS
 62
     7
100
AcDbLine
 10
143.6633882724
 20
85.2752286287
 30
0.0
 11
143.6633882724
 21
83.3702286287
 31
0.0
  0
LINE
  5
1B6
330
1F
100
AcDbEntity
  8
0
  6
CONTINUOUS
 62
     7
100
AcDbLine
 10
148.0829882724
 20
85.2752286287
 30
0.0
 11
143.6633882724
 21
85.2752286287
 31
0.0
  0
LINE
  5
1B7
330
1F
100
AcDbEntity
  8
0
  6
CONTINUOUS
 62
     7
100
AcDbLine
 10
148.0829882724
 20
87.1802286287
 30
0.0
 11
148.0829882724
 21
89.0852286287
 31
0.0
  0
LINE
  5
1B8
330
1F
100
AcDbEntity
  8
0
  6
CONTINUOUS
 62
     7
100
AcDbLine
 10
143.6633882724
 20
87.1802286287
 30
0.0
 11
148.0829882724
 21
87.1802286287
 31
0.0
  0
LINE
  5
1B9
330
1F
100
AcDbEntity
  8
0
  6
CONTINUOUS
 62
     7
100
AcDbLine
 10
143.6633882724
 20
89.0852286287
 30
0.0
 11
143.6633882724
 21
87.1802286287
 31
0.0
  0
LINE
  5
1BA
330
1F
100
AcDbEntity
  8
0
  6
CONTINUOUS
 62
     7
100
AcDbLine
 10
148.0829882724
 20
89.0852286287
 30
0.0
 11
143.6633882724
 21
89.0852286287
 31
0.0
  0
LINE
  5
1BB
330
1F
100
AcDbEntity
  8
0
  6
CONTINUOUS
 62
     7
100
AcDbLine
 10
148.0829882724
 20
110.0402286287
 30
0.0
 11
148.0829882724
 21
111.9452286287
 31
0.0
  0
LINE
  5
1BC
330
1F
100
AcDbEntity
  8
0
  6
CONTINUOUS
 62
     7
100
AcDbLine
 10
143.6633882724
 20
110.0402286287
 30
0.0
 11
148.0829882724
 21
110.0402286287
 31
0.0
  0
LINE
  5
1BD
330
1F
100
AcDbEntity
  8
0
  6
CONTINUOUS
 62
     7
100
AcDbLine
 10
143.6633882724
 20
111.9452286287
 30
0.0
 11
143.6633882724
 21
110.0402286287
 31
0.0
  0
LINE
  5
1BE
330
1F
100
AcDbEntity
  8
0
  6
CONTINUOUS
 62
     7
100
AcDbLine
 10
148.0829882724
 20
111.9452286287
 30
0.0
 11
143.6633882724
 21
111.9452286287
 31
0.0
  0
CIRCLE
  5
1BF
330
1F
100
AcDbEntity
  8
0
  6
CONTINUOUS
 62
     7
100
AcDbCircle
 10
51.9458882724
 20
122.4227286287
 30
0.0
 40
2.549999999999997
  0
CIRCLE
  5
1C0
330
1F
100
AcDbEntity
  8
0
  6
CONTINUOUS
 62
     7
100
AcDbCircle
 10
51.9458882724
 20
71.8352286287
 30
0.0
 40
2.550000000000011
  0
LINE
  5
1C1
330
1F
100
AcDbEntity
  8
0
  6
HIDDEN
 62
     7
100
AcDbLine
 10
156.8708882724
 20
176.7602286287
 30
0.0
 11
48.1958882724
 21
176.7602286287
 31
0.0
  0
LINE
  5
1C2
330
1F
100
AcDbEntity
  8
0
  6
HIDDEN
 62
     7
100
AcDbLine
 10
156.8708882724
 20
68.0852286287
 30
0.0
 11
156.8708882724
 21
176.7602286287
 31
0.0
  0
CIRCLE
  5
1C3
330
1F
100
AcDbEntity
  8
0
  6
CONTINUOUS
 62
     7
100
AcDbCircle
 10
51.9458882724
 20
173.0102286287
 30
0.0
 40
2.550000000000011
  0
LINE
  5
1C4
330
1F
100
AcDbEntity
  8
0
  6
HIDDEN
 62
     7
100
AcDbLine
 10
48.1958882724
 20
68.0852286287
 30
0.0
 11
156.8708882724
 21
68.0852286287
 31
0.0
  0
CIRCLE
  5
1C5
330
1F
100
AcDbEntity
  8
0
  6
CONTINUOUS
 62
     7
100
AcDbCircle
 10
153.1208882724
 20
165.3902286287
 30
0.0
 40
1.275000000000006
  0
CIRCLE
  5
1C6
330
1F
100
AcDbEntity
  8
0
  6
CONTINUOUS
 62
     7
100
AcDbCircle
 10
51.9458882724
 20
87.0752286287
 30
0.0
 40
1.275000000000006
  0
CIRCLE
  5
1C7
330
1F
100
AcDbEntity
  8
0
  6
CONTINUOUS
 62
     7
100
AcDbCircle
 10
153.1208882724
 20
173.0102286287
 30
0.0
 40
2.550000000000011
  0
CIRCLE
  5
1C8
330
1F
100
AcDbEntity
  8
0
  6
CONTINUOUS
 62
     7
100
AcDbCircle
 10
153.1208882724
 20
122.4227286287
 30
0.0
 40
2.550000000000011
  0
CIRCLE
  5
1C9
330
1F
100
AcDbEntity
  8
0
  6
CONTINUOUS
 62
     7
100
AcDbCircle
 10
153.1208882724
 20
71.8352286287
 30
0.0
 40
2.549999999999997
  0
CIRCLE
  5
1CA
330
1F
100
AcDbEntity
  8
0
  6
CONTINUOUS
 62
     7
100
AcDbCircle
 10
102.5333882724
 20
173.0102286287
 30
0.0
 40
2.550000000000011
  0
CIRCLE
  5
1CB
330
1F
100
AcDbEntity
  8
0
  6
CONTINUOUS
 62
     7
100
AcDbCircle
 10
102.5333882724
 20
71.8352286287
 30
0.0
 40
2.550000000000011
  0
LINE
  5
1CC
330
1F
100
AcDbEntity
  8
0
  6
HIDDEN
 62
     7
100
AcDbLine
 10
48.1958882724
 20
176.7602286287
 30
0.0
 11
48.1958882724
 21
68.0852286287
 31
0.0
  0
LINE
  5
1CD
330
1F
100
AcDbEntity
  8
LAYOUT
 62
     1
100
AcDbLine
 10
157.9958882724
 20
152.9985236872
 30
0.0
 11
157.9958882724
 21
176.7602286287
 31
0.0
  0
LINE
  5
1CE
330
1F
100
AcDbEntity
  8
LAYOUT
 62
     5
100
AcDbLine
 10
44.4458882724
 20
180.5102286287
 30
0.0
 11
44.4458882724
 21
64.3352286287
 31
0.0
  0
LINE
  5
1CF
330
1F
100
AcDbEntity
  8
LAYOUT
 62
     5
100
AcDbLine
 10
44.4458882724
 20
64.3352286287
 30
0.0
 11
160.6208882724
 21
64.3352286287
 31
0.0
  0
LINE
  5
1D0
330
1F
100
AcDbEntity
  8
LAYOUT
 62
     5
100
AcDbLine
 10
160.6208882724
 20
64.3352286287
 30
0.0
 11
160.6208882724
 21
180.5102286287
 31
0.0
  0
LINE
  5
1D1
330
1F
100
AcDbEntity
  8
LAYOUT
 62
     5
100
AcDbLine
 10
160.6208882724
 20
180.5102286287
 30
0.0
 11
44.4458882724
 21
180.5102286287
 31
0.0
  0
LINE
  5
1D2
330
1F
100
AcDbEntity
  8
LAYOUT
 62
     1
100
AcDbLine
 10
157.9958882724
 20
68.0852286287
 30
0.0
 11
157.9958882724
 21
91.8466335702
 31
0.0
  0
LINE
  5
1D3
330
1F
100
AcDbEntity
  8
LAYOUT
 62
     1
100
AcDbLine
 10
157.9958882724
 20
102.4107236872
 30
0.0
 11
157.9958882724
 21
142.4344335702
 31
0.0
  0
LINE
  5
1D4
330
1F
100
AcDbEntity
  8
LAYOUT
 62
     1
100
AcDbLine
 10
156.8708882724
 20
176.7602286287
 30
0.0
 11
157.9958882724
 21
176.7602286287
 31
0.0
  0
LINE
  5
1D5
330
1F
100
AcDbEntity
  8
LAYOUT
 62
     1
100
AcDbLine
 10
156.8708882724
 20
68.0852286287
 30
0.0
 11
157.9958882724
 21
68.0852286287
 31
0.0
  0
ARC
  5
1D6
330
1F
100
AcDbEntity
  8
LAYOUT
 62
     1
100
AcDbCircle
 10
73.0825932139
 20
181.5602286287
 30
0.0
 40
4.800000000000011
100
AcDbArc
 50
270.0
 51
301.7070693276
  0
ARC
  5
1D7
330
1F
100
AcDbEntity
  8
LAYOUT
 62
     1
100
AcDbCircle
 10
83.6466833309
 20
181.5602286287
 30
0.0
 40
4.800000000000011
100
AcDbArc
 50
238.2929306724
 51
270.0
  0
ARC
  5
1D8
330
1F
100
AcDbEntity
  8
LAYOUT
 62
     1
100
AcDbCircle
 10
78.3646382724
 20
173.0102286287
 30
0.0
 40
5.250000000000016
100
AcDbArc
 50
58.2929306724
 51
121.7070693276
  0
ARC
  5
1D9
330
1F
100
AcDbEntity
  8
LAYOUT
 62
     1
100
AcDbCircle
 10
134.2341833309
 20
63.2852286287
 30
0.0
 40
4.800000000000033
100
AcDbArc
 50
90.0
 51
121.7070693276
  0
ARC
  5
1DA
330
1F
100
AcDbEntity
  8
LAYOUT
 62
     1
100
AcDbCircle
 10
123.6700932139
 20
63.2852286287
 30
0.0
 40
4.800000000000018
100
AcDbArc
 50
58.2929306724
 51
90.0
  0
ARC
  5
1DB
330
1F
100
AcDbEntity
  8
LAYOUT
 62
     1
100
AcDbCircle
 10
128.9521382724
 20
71.8352286287
 30
0.0
 40
5.24999999999999
100
AcDbArc
 50
238.2929306724
 51
301.7070693276
  0
ARC
  5
1DC
330
1F
100
AcDbEntity
  8
LAYOUT
 62
     1
100
AcDbCircle
 10
83.6463833309
 20
63.2852286287
 30
0.0
 40
4.800000000000018
100
AcDbArc
 50
90.0
 51
121.7070693276
  0
ARC
  5
1DD
330
1F
100
AcDbEntity
  8
LAYOUT
 62
     1
100
AcDbCircle
 10
78.3643382724
 20
71.8352286287
 30
0.0
 40
5.250000000000006
100
AcDbArc
 50
238.2929306724
 51
301.7070693276
  0
ARC
  5
1DE
330
1F
100
AcDbEntity
  8
LAYOUT
 62
     1
100
AcDbCircle
 10
73.0822932139
 20
63.2852286287
 30
0.0
 40
4.800000000000016
100
AcDbArc
 50
58.2929306724
 51
90.0
  0
ARC
  5
1DF
330
1F
100
AcDbEntity
  8
LAYOUT
 62
     1
100
AcDbCircle
 10
53.0708882724
 20
97.1289786287
 30
0.0
 40
5.249999999999995
100
AcDbArc
 50
164.2989034025
 51
195.7010965975
  0
ARC
  5
1E0
330
1F
100
AcDbEntity
  8
LAYOUT
 62
     1
100
AcDbCircle
 10
53.0708882724
 20
147.7167786287
 30
0.0
 40
5.250000000000004
100
AcDbArc
 50
164.2989034025
 51
195.7010965975
  0
ARC
  5
1E1
330
1F
100
AcDbEntity
  8
LAYOUT
 62
     7
100
AcDbCircle
 10
134.2344833309
 20
181.5602286287
 30
0.0
 40
4.799999999999983
100
AcDbArc
 50
238.2929306724
 51
270.0
  0
ARC
  5
1E2
330
1F
100
AcDbEntity
  8
LAYOUT
 62
     1
100
AcDbCircle
 10
128.9524382724
 20
173.0102286287
 30
0.0
 40
5.250000000000016
100
AcDbArc
 50
58.2929306724
 51
121.7070693276
  0
ARC
  5
1E3
330
1F
100
AcDbEntity
  8
LAYOUT
 62
     1
100
AcDbCircle
 10
123.6703932139
 20
181.5602286287
 30
0.0
 40
4.800000000000011
100
AcDbArc
 50
270.0
 51
301.7070693276
  0
ARC
  5
1E4
330
1F
100
AcDbEntity
  8
LAYOUT
 62
     1
100
AcDbCircle
 10
162.7958882724
 20
91.8466335702
 30
0.0
 40
4.800000000000018
100
AcDbArc
 50
148.2929306724
 51
180.0
  0
ARC
  5
1E5
330
1F
100
AcDbEntity
  8
LAYOUT
 62
     1
100
AcDbCircle
 10
154.2458882724
 20
97.1286786287
 30
0.0
 40
5.249999999999996
100
AcDbArc
 50
328.2929306724
 51
31.7070693276
  0
ARC
  5
1E6
330
1F
100
AcDbEntity
  8
LAYOUT
 62
     1
100
AcDbCircle
 10
162.7958882724
 20
102.4107236872
 30
0.0
 40
4.80000000000001
100
AcDbArc
 50
180.0
 51
211.7070693276
  0
ARC
  5
1E7
330
1F
100
AcDbEntity
  8
LAYOUT
 62
     1
100
AcDbCircle
 10
162.7958882724
 20
142.4344335702
 30
0.0
 40
4.800000000000013
100
AcDbArc
 50
148.2929306724
 51
180.0
  0
ARC
  5
1E8
330
1F
100
AcDbEntity
  8
LAYOUT
 62
     1
100
AcDbCircle
 10
154.2458882724
 20
147.7164786287
 30
0.0
 40
5.250000000000012
100
AcDbArc
 50
328.2929306724
 51
31.7070693276
  0
ARC
  5
1E9
330
1F
100
AcDbEntity
  8
LAYOUT
 62
     1
100
AcDbCircle
 10
162.7958882724
 20
152.9985236872
 30
0.0
 40
4.800000000000013
100
AcDbArc
 50
180.0
 51
211.7070693276
  0
ENDSEC
  0
SECTION
  2
OBJECTS
  0
DICTIONARY
  5
C
330
0
100
AcDbDictionary
  3
ACAD_GROUP
350
D
  3
ACAD_MLINESTYLE
350
17
  3
ACAD_SCALELIST
350
47
  3
DWGPROPS
350
1EA
  0
DICTIONARY
  5
D
102
{ACAD_REACTORS
330
C
102
}
330
C
100
AcDbDictionary
  0
DICTIONARY
  5
17
102
{ACAD_REACTORS
330
C
102
}
330
C
100
AcDbDictionary
  3
STANDARD
350
18
  0
DICTIONARY
  5
47
102
{ACAD_REACTORS
330
C
102
}
330
C
100
AcDbDictionary
  0
XRECORD
  5
1EA
102
{ACAD_REACTORS
330
C
102
}
330
C
100
AcDbXrecord
  1
DWGPROPS COOKIE
  2

  3

  4

  6

  7

  8
mindy
  9

300
=
301
=
302
=
303
=
304
=
305
=
306
=
307
=
308
=
309
=
 40
0.0
 41
2460174.690545764
 42
2460174.690546204
  1

 90
        0
  0
MLINESTYLE
  5
18
102
{ACAD_REACTORS
330
17
102
}
330
17
100
AcDbMlineStyle
  2
Standard
 70
     0
  3

 62
   256
 51
90.0
 52
90.0
 71
     2
 49
0.5
 62
   256
  6
BYLAYER
 49
-0.5
 62
   256
  6
BYLAYER
  0
ENDSEC
  0
EOF
